  0
SECTION
  2
HEADER
  9
$ACADVER
  1
AC1024
  9
$ACADMAINTVER
 70
   205
  9
$DWGCODEPAGE
  3
ANSI_1251
  9
$INSBASE
 10
0.0
 20
0.0
 30
0.0
  9
$EXTMIN
 10
1.000000000000000E+20
 20
1.000000000000000E+20
 30
1.000000000000000E+20
  9
$EXTMAX
 10
-1.000000000000000E+20
 20
-1.000000000000000E+20
 30
-1.000000000000000E+20
  9
$LIMMIN
 10
0.0
 20
0.0
  9
$LIMMAX
 10
12.0
 20
9.0
  9
$ORTHOMODE
 70
     0
  9
$REGENMODE
 70
     1
  9
$FILLMODE
 70
     1
  9
$QTEXTMODE
 70
     0
  9
$MIRRTEXT
 70
     1
  9
$LTSCALE
 40
1.0
  9
$ATTMODE
 70
     1
  9
$TEXTSIZE
 40
0.2
  9
$TRACEWID
 40
0.05
  9
$TEXTSTYLE
  7
Standard
  9
$CLAYER
  8
OracDecor_cornice_mouldings
  9
$CELTYPE
  6
ByLayer
  9
$CECOLOR
 62
   256
  9
$CELTSCALE
 40
1.0
  9
$DISPSILH
 70
     0
  9
$DIMSCALE
 40
1.0
  9
$DIMASZ
 40
0.18
  9
$DIMEXO
 40
0.0625
  9
$DIMDLI
 40
0.38
  9
$DIMRND
 40
0.0
  9
$DIMDLE
 40
0.0
  9
$DIMEXE
 40
0.18
  9
$DIMTP
 40
0.0
  9
$DIMTM
 40
0.0
  9
$DIMTXT
 40
0.18
  9
$DIMCEN
 40
0.09
  9
$DIMTSZ
 40
0.0
  9
$DIMTOL
 70
     0
  9
$DIMLIM
 70
     0
  9
$DIMTIH
 70
     1
  9
$DIMTOH
 70
     1
  9
$DIMSE1
 70
     0
  9
$DIMSE2
 70
     0
  9
$DIMTAD
 70
     0
  9
$DIMZIN
 70
     0
  9
$DIMBLK
  1

  9
$DIMASO
 70
     1
  9
$DIMSHO
 70
     1
  9
$DIMPOST
  1

  9
$DIMAPOST
  1

  9
$DIMALT
 70
     0
  9
$DIMALTD
 70
     2
  9
$DIMALTF
 40
25.4
  9
$DIMLFAC
 40
1.0
  9
$DIMTOFL
 70
     0
  9
$DIMTVP
 40
0.0
  9
$DIMTIX
 70
     0
  9
$DIMSOXD
 70
     0
  9
$DIMSAH
 70
     0
  9
$DIMBLK1
  1

  9
$DIMBLK2
  1

  9
$DIMSTYLE
  2
Standard
  9
$DIMCLRD
 70
     0
  9
$DIMCLRE
 70
     0
  9
$DIMCLRT
 70
     0
  9
$DIMTFAC
 40
1.0
  9
$DIMGAP
 40
0.09
  9
$DIMJUST
 70
     0
  9
$DIMSD1
 70
     0
  9
$DIMSD2
 70
     0
  9
$DIMTOLJ
 70
     1
  9
$DIMTZIN
 70
     0
  9
$DIMALTZ
 70
     0
  9
$DIMALTTZ
 70
     0
  9
$DIMUPT
 70
     0
  9
$DIMDEC
 70
     4
  9
$DIMTDEC
 70
     4
  9
$DIMALTU
 70
     2
  9
$DIMALTTD
 70
     2
  9
$DIMTXSTY
  7
Standard
  9
$DIMAUNIT
 70
     0
  9
$DIMADEC
 70
     0
  9
$DIMALTRND
 40
0.0
  9
$DIMAZIN
 70
     0
  9
$DIMDSEP
 70
    46
  9
$DIMATFIT
 70
     3
  9
$DIMFRAC
 70
     0
  9
$DIMLDRBLK
  1

  9
$DIMLUNIT
 70
     2
  9
$DIMLWD
 70
    -2
  9
$DIMLWE
 70
    -2
  9
$DIMTMOVE
 70
     0
  9
$DIMFXL
 40
1.0
  9
$DIMFXLON
 70
     0
  9
$DIMJOGANG
 40
0.7853981633974483
  9
$DIMTFILL
 70
     0
  9
$DIMTFILLCLR
 70
     0
  9
$DIMARCSYM
 70
     0
  9
$DIMLTYPE
  6

  9
$DIMLTEX1
  6

  9
$DIMLTEX2
  6

  9
$DIMTXTDIRECTION
 70
     0
  9
$LUNITS
 70
     2
  9
$LUPREC
 70
     4
  9
$SKETCHINC
 40
0.1
  9
$FILLETRAD
 40
0.5
  9
$AUNITS
 70
     0
  9
$AUPREC
 70
     0
  9
$MENU
  1
.
  9
$ELEVATION
 40
0.0
  9
$PELEVATION
 40
0.0
  9
$THICKNESS
 40
0.0
  9
$LIMCHECK
 70
     0
  9
$CHAMFERA
 40
0.5
  9
$CHAMFERB
 40
0.5
  9
$CHAMFERC
 40
1.0
  9
$CHAMFERD
 40
0.0
  9
$SKPOLY
 70
     0
  9
$TDCREATE
 40
2451380.930432396
  9
$TDUCREATE
 40
2451380.805432396
  9
$TDUPDATE
 40
2451380.966180555
  9
$TDUUPDATE
 40
2451380.841180556
  9
$TDINDWG
 40
0.0075613426
  9
$TDUSRTIMER
 40
0.0075523032
  9
$USRTIMER
 70
     1
  9
$ANGBASE
 50
0.0
  9
$ANGDIR
 70
     0
  9
$PDMODE
 70
     0
  9
$PDSIZE
 40
0.0
  9
$PLINEWID
 40
0.0
  9
$SPLFRAME
 70
     0
  9
$SPLINETYPE
 70
     6
  9
$SPLINESEGS
 70
     8
  9
$HANDSEED
  5
196
  9
$SURFTAB1
 70
     6
  9
$SURFTAB2
 70
     6
  9
$SURFTYPE
 70
     6
  9
$SURFU
 70
     6
  9
$SURFV
 70
     6
  9
$UCSBASE
  2

  9
$UCSNAME
  2

  9
$UCSORG
 10
0.0
 20
0.0
 30
0.0
  9
$UCSXDIR
 10
1.0
 20
0.0
 30
0.0
  9
$UCSYDIR
 10
0.0
 20
1.0
 30
0.0
  9
$UCSORTHOREF
  2

  9
$UCSORTHOVIEW
 70
     0
  9
$UCSORGTOP
 10
0.0
 20
0.0
 30
0.0
  9
$UCSORGBOTTOM
 10
0.0
 20
0.0
 30
0.0
  9
$UCSORGLEFT
 10
0.0
 20
0.0
 30
0.0
  9
$UCSORGRIGHT
 10
0.0
 20
0.0
 30
0.0
  9
$UCSORGFRONT
 10
0.0
 20
0.0
 30
0.0
  9
$UCSORGBACK
 10
0.0
 20
0.0
 30
0.0
  9
$PUCSBASE
  2

  9
$PUCSNAME
  2

  9
$PUCSORG
 10
0.0
 20
0.0
 30
0.0
  9
$PUCSXDIR
 10
1.0
 20
0.0
 30
0.0
  9
$PUCSYDIR
 10
0.0
 20
1.0
 30
0.0
  9
$PUCSORTHOREF
  2

  9
$PUCSORTHOVIEW
 70
     0
  9
$PUCSORGTOP
 10
0.0
 20
0.0
 30
0.0
  9
$PUCSORGBOTTOM
 10
0.0
 20
0.0
 30
0.0
  9
$PUCSORGLEFT
 10
0.0
 20
0.0
 30
0.0
  9
$PUCSORGRIGHT
 10
0.0
 20
0.0
 30
0.0
  9
$PUCSORGFRONT
 10
0.0
 20
0.0
 30
0.0
  9
$PUCSORGBACK
 10
0.0
 20
0.0
 30
0.0
  9
$USERI1
 70
     0
  9
$USERI2
 70
     0
  9
$USERI3
 70
     0
  9
$USERI4
 70
     0
  9
$USERI5
 70
     0
  9
$USERR1
 40
0.0
  9
$USERR2
 40
0.0
  9
$USERR3
 40
0.0
  9
$USERR4
 40
0.0
  9
$USERR5
 40
0.0
  9
$WORLDVIEW
 70
     1
  9
$SHADEDGE
 70
     3
  9
$SHADEDIF
 70
    70
  9
$TILEMODE
 70
     1
  9
$MAXACTVP
 70
    64
  9
$PINSBASE
 10
0.0
 20
0.0
 30
0.0
  9
$PLIMCHECK
 70
     0
  9
$PEXTMIN
 10
1.000000000000000E+20
 20
1.000000000000000E+20
 30
1.000000000000000E+20
  9
$PEXTMAX
 10
-1.000000000000000E+20
 20
-1.000000000000000E+20
 30
-1.000000000000000E+20
  9
$PLIMMIN
 10
0.0
 20
0.0
  9
$PLIMMAX
 10
12.0
 20
9.0
  9
$UNITMODE
 70
     0
  9
$VISRETAIN
 70
     1
  9
$PLINEGEN
 70
     0
  9
$PSLTSCALE
 70
     1
  9
$TREEDEPTH
 70
  3020
  9
$CMLSTYLE
  2
Standard
  9
$CMLJUST
 70
     0
  9
$CMLSCALE
 40
1.0
  9
$PROXYGRAPHICS
 70
     1
  9
$MEASUREMENT
 70
     1
  9
$CELWEIGHT
370
    -1
  9
$ENDCAPS
280
     0
  9
$JOINSTYLE
280
     0
  9
$LWDISPLAY
290
     0
  9
$INSUNITS
 70
     4
  9
$HYPERLINKBASE
  1

  9
$STYLESHEET
  1

  9
$XEDIT
290
     1
  9
$CEPSNTYPE
380
     0
  9
$PSTYLEMODE
290
     1
  9
$FINGERPRINTGUID
  2
{12F50282-3ED8-11D3-A8B7-0060B0F84BC6}
  9
$VERSIONGUID
  2
{12F50293-3ED8-11D3-A8B7-0060B0F84BC6}
  9
$EXTNAMES
290
     1
  9
$PSVPSCALE
 40
0.0
  9
$OLESTARTUP
290
     0
  9
$SORTENTS
280
   127
  9
$INDEXCTL
280
     0
  9
$HIDETEXT
280
     0
  9
$XCLIPFRAME
280
     2
  9
$HALOGAP
280
     0
  9
$OBSCOLOR
 70
   257
  9
$OBSLTYPE
280
     0
  9
$INTERSECTIONDISPLAY
280
     0
  9
$INTERSECTIONCOLOR
 70
   257
  9
$DIMASSOC
280
     1
  9
$PROJECTNAME
  1

  9
$CAMERADISPLAY
290
     0
  9
$LENSLENGTH
 40
50.0
  9
$CAMERAHEIGHT
 40
0.0
  9
$STEPSPERSEC
 40
2.0
  9
$STEPSIZE
 40
6.0
  9
$3DDWFPREC
 40
2.0
  9
$PSOLWIDTH
 40
0.25
  9
$PSOLHEIGHT
 40
4.0
  9
$LOFTANG1
 40
1.570796326794896
  9
$LOFTANG2
 40
1.570796326794896
  9
$LOFTMAG1
 40
0.0
  9
$LOFTMAG2
 40
0.0
  9
$LOFTPARAM
 70
     7
  9
$LOFTNORMALS
280
     1
  9
$LATITUDE
 40
37.795
  9
$LONGITUDE
 40
-122.394
  9
$NORTHDIRECTION
 40
0.0
  9
$TIMEZONE
 70
 -8000
  9
$LIGHTGLYPHDISPLAY
280
     1
  9
$TILEMODELIGHTSYNCH
280
     1
  9
$CMATERIAL
347
AB
  9
$SOLIDHIST
280
     0
  9
$SHOWHIST
280
     1
  9
$DWFFRAME
280
     2
  9
$DGNFRAME
280
     0
  9
$REALWORLDSCALE
290
     1
  9
$INTERFERECOLOR
 62
     1
  9
$INTERFEREOBJVS
345
CD
  9
$INTERFEREVPVS
346
CA
  9
$CSHADOW
280
     0
  9
$SHADOWPLANELOCATION
 40
0.0
  0
ENDSEC
  0
SECTION
  2
CLASSES
  0
CLASS
  1
ACDBDICTIONARYWDFLT
  2
AcDbDictionaryWithDefault
  3
ObjectDBX Classes
 90
        0
 91
        1
280
     0
281
     0
  0
CLASS
  1
ACDBPLACEHOLDER
  2
AcDbPlaceHolder
  3
ObjectDBX Classes
 90
        0
 91
        2
280
     0
281
     0
  0
CLASS
  1
LAYOUT
  2
AcDbLayout
  3
ObjectDBX Classes
 90
        0
 91
        3
280
     0
281
     0
  0
CLASS
  1
MATERIAL
  2
AcDbMaterial
  3
ObjectDBX Classes
 90
     1153
 91
        3
280
     0
281
     0
  0
CLASS
  1
VISUALSTYLE
  2
AcDbVisualStyle
  3
ObjectDBX Classes
 90
     4095
 91
       24
280
     0
281
     0
  0
CLASS
  1
TABLESTYLE
  2
AcDbTableStyle
  3
ObjectDBX Classes
 90
     4095
 91
        1
280
     0
281
     0
  0
CLASS
  1
SCALE
  2
AcDbScale
  3
ObjectDBX Classes
 90
     1153
 91
       17
280
     0
281
     0
  0
CLASS
  1
MLEADERSTYLE
  2
AcDbMLeaderStyle
  3
ACDB_MLEADERSTYLE_CLASS
 90
     4095
 91
        1
280
     0
281
     0
  0
CLASS
  1
ACDBSECTIONVIEWSTYLE
  2
AcDbSectionViewStyle
  3
ObjectDBX Classes
 90
     1025
 91
        1
280
     0
281
     0
  0
CLASS
  1
ACDBDETAILVIEWSTYLE
  2
AcDbDetailViewStyle
  3
ObjectDBX Classes
 90
     1025
 91
        1
280
     0
281
     0
  0
CLASS
  1
MESH
  2
AcDbSubDMesh
  3
ObjectDBX Classes
 90
        0
 91
        1
280
     0
281
     1
  0
CLASS
  1
DICTIONARYVAR
  2
AcDbDictionaryVar
  3
ObjectDBX Classes
 90
        0
 91
        9
280
     0
281
     0
  0
CLASS
  1
CELLSTYLEMAP
  2
AcDbCellStyleMap
  3
ObjectDBX Classes
 90
     1152
 91
        1
280
     0
281
     0
  0
ENDSEC
  0
SECTION
  2
TABLES
  0
TABLE
  2
VPORT
  5
8
330
0
100
AcDbSymbolTable
 70
     1
  0
VPORT
  5
A8
330
8
100
AcDbSymbolTableRecord
100
AcDbViewportTableRecord
  2
*Active
 70
     0
 10
0.0
 20
0.0
 11
1.0
 21
1.0
 12
0.0000013486991293
 22
-26.49119758605957
 13
0.0
 23
0.0
 14
0.5
 24
0.5
 15
0.5
 25
0.5
 16
-1.0
 26
-1.0
 36
1.0
 17
0.0
 27
0.0
 37
0.0
 40
1121.890059813209
 41
1.63186917471513
 42
50.0
 43
0.0
 44
0.0
 50
0.0
 51
0.0
 71
     0
 72
   100
 73
     1
 74
     3
 75
     0
 76
     0
 77
     0
 78
     0
281
     0
 65
     1
110
0.0
120
0.0
130
0.0
111
1.0
121
0.0
131
0.0
112
0.0
122
1.0
132
0.0
 79
     0
146
0.0
348
C9
 60
     3
 61
     5
292
     1
282
     1
141
0.0
142
0.0
 63
   250
421
  3355443
  0
ENDTAB
  0
TABLE
  2
LTYPE
  5
5
330
0
100
AcDbSymbolTable
 70
     1
  0
LTYPE
  5
14
330
5
100
AcDbSymbolTableRecord
100
AcDbLinetypeTableRecord
  2
ByBlock
 70
     0
  3

 72
    65
 73
     0
 40
0.0
  0
LTYPE
  5
15
330
5
100
AcDbSymbolTableRecord
100
AcDbLinetypeTableRecord
  2
ByLayer
 70
     0
  3

 72
    65
 73
     0
 40
0.0
  0
LTYPE
  5
16
330
5
100
AcDbSymbolTableRecord
100
AcDbLinetypeTableRecord
  2
Continuous
 70
     0
  3
Solid line
 72
    65
 73
     0
 40
0.0
  0
ENDTAB
  0
TABLE
  2
LAYER
  5
2
330
0
100
AcDbSymbolTable
 70
     3
  0
LAYER
  5
10
330
2
100
AcDbSymbolTableRecord
100
AcDbLayerTableRecord
  2
0
 70
     0
 62
     7
  6
Continuous
370
    -3
390
F
347
BB
  0
LAYER
  5
2B
330
2
100
AcDbSymbolTableRecord
100
AcDbLayerTableRecord
  2
ASHADE
 70
     4
 62
     7
  6
Continuous
370
    -3
390
2D
347
BB
  0
LAYER
  5
F8
330
2
100
AcDbSymbolTableRecord
100
AcDbLayerTableRecord
  2
OracDecor_cornice_mouldings
 70
     0
 62
   121
420
 10085590
  6
Continuous
370
    -3
390
F
347
BB
  0
ENDTAB
  0
TABLE
  2
STYLE
  5
3
330
0
100
AcDbSymbolTable
 70
     2
  0
STYLE
  5
11
330
3
100
AcDbSymbolTableRecord
100
AcDbTextStyleTableRecord
  2
Standard
 70
     0
 40
0.0
 41
1.0
 50
0.0
 71
     0
 42
0.2
  3
txt
  4

  0
STYLE
  5
2C
330
3
100
AcDbSymbolTableRecord
100
AcDbTextStyleTableRecord
  2
ASHADE
 70
     0
 40
0.2
 41
1.0
 50
0.0
 71
     0
 42
0.2
  3
simplex
  4

  0
ENDTAB
  0
TABLE
  2
VIEW
  5
6
330
0
100
AcDbSymbolTable
 70
     0
  0
ENDTAB
  0
TABLE
  2
UCS
  5
7
330
0
100
AcDbSymbolTable
 70
     0
  0
ENDTAB
  0
TABLE
  2
APPID
  5
9
330
0
100
AcDbSymbolTable
 70
     6
  0
APPID
  5
12
330
9
100
AcDbSymbolTableRecord
100
AcDbRegAppTableRecord
  2
ACAD
 70
     0
  0
APPID
  5
8F
330
9
100
AcDbSymbolTableRecord
100
AcDbRegAppTableRecord
  2
AVE_RENDER
 70
     0
  0
APPID
  5
90
330
9
100
AcDbSymbolTableRecord
100
AcDbRegAppTableRecord
  2
AVE_ENTITY_MATERIAL
 70
     0
  0
APPID
  5
9C
330
9
100
AcDbSymbolTableRecord
100
AcDbRegAppTableRecord
  2
AVE_FINISH
 70
     0
  0
APPID
  5
9D
330
9
100
AcDbSymbolTableRecord
100
AcDbRegAppTableRecord
  2
AVE_MATERIAL
 70
     0
  0
APPID
  5
9E
330
9
100
AcDbSymbolTableRecord
100
AcDbRegAppTableRecord
  2
AVE_GLOBAL
 70
     0
  0
ENDTAB
  0
TABLE
  2
DIMSTYLE
  5
A
330
0
100
AcDbSymbolTable
 70
     1
100
AcDbDimStyleTable
 71
     0
  0
DIMSTYLE
105
27
330
A
100
AcDbSymbolTableRecord
100
AcDbDimStyleTableRecord
  2
Standard
 70
     0
340
11
  0
ENDTAB
  0
TABLE
  2
BLOCK_RECORD
  5
1
330
0
100
AcDbSymbolTable
 70
     6
  0
BLOCK_RECORD
  5
1F
330
1
100
AcDbSymbolTableRecord
100
AcDbBlockTableRecord
  2
*Model_Space
340
22
 70
     0
280
     1
281
     0
  0
BLOCK_RECORD
  5
1B
330
1
100
AcDbSymbolTableRecord
100
AcDbBlockTableRecord
  2
*Paper_Space
340
1E
 70
     0
280
     1
281
     0
  0
BLOCK_RECORD
  5
23
330
1
100
AcDbSymbolTableRecord
100
AcDbBlockTableRecord
  2
*Paper_Space0
340
26
 70
     0
280
     1
281
     0
  0
BLOCK_RECORD
  5
2E
330
1
100
AcDbSymbolTableRecord
100
AcDbBlockTableRecord
  2
direct
340
0
 70
     0
280
     1
281
     0
  0
BLOCK_RECORD
  5
42
330
1
100
AcDbSymbolTableRecord
100
AcDbBlockTableRecord
  2
overhead
340
0
 70
     0
280
     1
281
     0
  0
BLOCK_RECORD
  5
5F
330
1
100
AcDbSymbolTableRecord
100
AcDbBlockTableRecord
  2
sh_spot
340
0
 70
     0
280
     1
281
     0
  0
BLOCK_RECORD
  5
91
330
1
100
AcDbSymbolTableRecord
100
AcDbBlockTableRecord
  2
AVE_RENDER
340
0
102
{BLKREFS
331
94
331
95
331
96
331
97
331
98
331
99
331
9A
331
9B
102
}
 70
     0
280
     1
281
     0
  0
BLOCK_RECORD
  5
9F
330
1
100
AcDbSymbolTableRecord
100
AcDbBlockTableRecord
  2
AVE_GLOBAL
340
0
102
{BLKREFS
331
A2
102
}
 70
     0
280
     1
281
     0
  0
ENDTAB
  0
ENDSEC
  0
SECTION
  2
BLOCKS
  0
BLOCK
  5
20
330
1F
100
AcDbEntity
  8
0
100
AcDbBlockBegin
  2
*Model_Space
 70
     0
 10
0.0
 20
0.0
 30
0.0
  3
*Model_Space
  1

  0
ENDBLK
  5
21
330
1F
100
AcDbEntity
  8
0
100
AcDbBlockEnd
  0
BLOCK
  5
1C
330
1B
100
AcDbEntity
 67
     1
  8
0
100
AcDbBlockBegin
  2
*Paper_Space
 70
     0
 10
0.0
 20
0.0
 30
0.0
  3
*Paper_Space
  1

  0
ENDBLK
  5
1D
330
1B
100
AcDbEntity
 67
     1
  8
0
100
AcDbBlockEnd
  0
BLOCK
  5
24
330
23
100
AcDbEntity
 67
     1
  8
0
100
AcDbBlockBegin
  2
*Paper_Space0
 70
     0
 10
0.0
 20
0.0
 30
0.0
  3
*Paper_Space0
  1

  0
ENDBLK
  5
25
330
23
100
AcDbEntity
 67
     1
  8
0
100
AcDbBlockEnd
  0
BLOCK
  5
40
330
2E
100
AcDbEntity
  8
0
100
AcDbBlockBegin
  2
direct
 70
     2
 10
0.0
 20
0.0
 30
0.0
  3
direct
  1

  0
ATTDEF
  5
2F
330
2E
100
AcDbEntity
  8
ASHADE
  6
Continuous
 62
     1
100
AcDbText
 10
0.0
 20
-0.1
 30
0.0
 40
0.2
  1

  7
ASHADE
 72
     1
 11
0.0
 21
-0.1
 31
0.0
100
AcDbAttributeDefinition
280
     0
  3
Light Name
  2
SNAME
 70
     0
280
     0
  0
ARC
  5
30
330
2E
100
AcDbEntity
  8
ASHADE
  6
Continuous
 62
     7
100
AcDbCircle
 10
0.0
 20
0.0
 30
0.0
 40
0.3
100
AcDbArc
 50
205.6792886194569
 51
334.3207113805431
  0
ARC
  5
31
330
2E
100
AcDbEntity
  8
ASHADE
  6
Continuous
 62
     7
100
AcDbCircle
 10
0.0
 20
0.0
 30
0.0
 40
0.3
100
AcDbArc
 50
25.67928861945685
 51
154.3207113805431
  0
LINE
  5
32
330
2E
100
AcDbEntity
  8
ASHADE
  6
Continuous
 62
     7
100
AcDbLine
 10
-0.21
 20
0.2142428528562855
 30
0.0
 11
-0.21
 21
0.5
 31
0.0
  0
LINE
  5
33
330
2E
100
AcDbEntity
  8
ASHADE
  6
Continuous
 62
     7
100
AcDbLine
 10
-0.11
 20
0.2791057147390572
 30
0.0
 11
-0.11
 21
0.5
 31
0.0
  0
LINE
  5
34
330
2E
100
AcDbEntity
  8
ASHADE
  6
Continuous
 62
     7
100
AcDbLine
 10
0.21
 20
0.2142428528562855
 30
0.0
 11
0.21
 21
0.5
 31
0.0
  0
ATTDEF
  5
35
330
2E
100
AcDbEntity
  8
ASHADE
  6
Continuous
 62
     7
100
AcDbText
 10
0.0
 20
0.25
 30
0.0
 40
0.01
  1

100
AcDbAttributeDefinition
280
     0
  3
Look-at Y
  2
LAY
 70
     1
280
     0
  0
ATTDEF
  5
36
330
2E
100
AcDbEntity
  8
ASHADE
  6
Continuous
 62
     7
100
AcDbText
 10
0.0
 20
0.22
 30
0.0
 40
0.01
  1
1
100
AcDbAttributeDefinition
280
     0
  3
Light Intensity
  2
INTENSITY
 70
     1
280
     0
  0
ATTDEF
  5
37
330
2E
100
AcDbEntity
  8
ASHADE
  6
Continuous
 62
     7
100
AcDbText
 10
0.0
 20
0.16
 30
0.0
 40
0.01
  1
-1
100
AcDbAttributeDefinition
280
     0
  3
*not used*
  2
BEAMD
 70
     1
280
     0
  0
ATTDEF
  5
38
330
2E
100
AcDbEntity
  8
ASHADE
  6
Continuous
 62
     7
100
AcDbText
 10
0.0
 20
0.175
 30
0.0
 40
0.01
  1
-1
100
AcDbAttributeDefinition
280
     0
  3
*not used*
  2
CONED
 70
     1
280
     0
  0
ATTDEF
  5
39
330
2E
100
AcDbEntity
  8
ASHADE
  6
Continuous
 62
     7
100
AcDbText
 10
0.0
 20
0.19
 30
0.0
 40
0.01
  1
0
100
AcDbAttributeDefinition
280
     0
  3
Depth Map Size
  2
CONEA
 70
     1
280
     0
  0
ATTDEF
  5
3A
330
2E
100
AcDbEntity
  8
ASHADE
  6
Continuous
 62
     7
100
AcDbText
 10
0.0
 20
0.2050000000000001
 30
0.0
 40
0.01
  1
1,1,1
100
AcDbAttributeDefinition
280
     0
  3
Light Color (RGB)
  2
COLOR
 70
     1
280
     0
  0
ATTDEF
  5
3B
330
2E
100
AcDbEntity
  8
ASHADE
  6
Continuous
 62
     7
100
AcDbText
 10
0.0
 20
0.235
 30
0.0
 40
0.01
  1

100
AcDbAttributeDefinition
280
     0
  3
Look-at Z
  2
LAZ
 70
     1
280
     0
  0
LINE
  5
3C
330
2E
100
AcDbEntity
  8
ASHADE
  6
Continuous
 62
     7
100
AcDbLine
 10
0.0
 20
0.3
 30
0.0
 11
0.0
 21
0.5
 31
0.0
  0
LINE
  5
3D
330
2E
100
AcDbEntity
  8
ASHADE
  6
Continuous
 62
     7
100
AcDbLine
 10
0.11
 20
0.2791057147390572
 30
0.0
 11
0.11
 21
0.5
 31
0.0
  0
ATTDEF
  5
3E
330
2E
100
AcDbEntity
  8
ASHADE
  6
Continuous
 62
     7
100
AcDbText
 10
0.0
 20
0.265
 30
0.0
 40
0.01
  1

100
AcDbAttributeDefinition
280
     0
  3
Look-at X
  2
LAX
 70
     1
280
     0
  0
ATTDEF
  5
3F
330
2E
100
AcDbEntity
  8
ASHADE
  6
Continuous
 62
     7
100
AcDbText
 10
0.0
 20
0.28
 30
0.0
 40
0.01
  1

100
AcDbAttributeDefinition
280
     0
  3

  2
GNAME
 70
     1
280
     0
  0
ENDBLK
  5
41
330
2E
100
AcDbEntity
  8
0
100
AcDbBlockEnd
  0
BLOCK
  5
5D
330
42
100
AcDbEntity
  8
0
100
AcDbBlockBegin
  2
overhead
 70
     2
 10
0.0
 20
0.0
 30
0.0
  3
overhead
  1

  0
ATTDEF
  5
43
330
42
100
AcDbEntity
  8
ASHADE
  6
Continuous
 62
     1
100
AcDbText
 10
0.0
 20
-0.1
 30
0.0
 40
0.2
  1

  7
ASHADE
 72
     1
 11
0.0
 21
-0.1
 31
0.0
100
AcDbAttributeDefinition
280
     0
  3
Light Name
  2
SNAME
 70
     0
280
     0
  0
ARC
  5
44
330
42
100
AcDbEntity
  8
ASHADE
  6
Continuous
 62
     7
100
AcDbCircle
 10
0.0
 20
0.0
 30
0.0
 40
0.3
100
AcDbArc
 50
205.6792886194569
 51
334.3207113805431
  0
LINE
  5
45
330
42
100
AcDbEntity
  8
ASHADE
  6
Continuous
 62
     7
100
AcDbLine
 10
-0.2041413561583015
 20
-0.2198324514393848
 30
0.0
 11
-0.2721884748777353
 21
-0.2931099352525131
 31
0.0
  0
LINE
  5
46
330
42
100
AcDbEntity
  8
ASHADE
  6
Continuous
 62
     7
100
AcDbLine
 10
-0.1096591641591904
 20
-0.2792398032442862
 30
0.0
 11
-0.1279356915190555
 21
-0.3257797704516673
 31
0.0
  0
LINE
  5
47
330
42
100
AcDbEntity
  8
ASHADE
  6
Continuous
 62
     7
100
AcDbLine
 10
0.0
 20
-0.2999999999999999
 30
0.0
 11
0.0
 21
-0.4
 31
0.0
  0
LINE
  5
48
330
42
100
AcDbEntity
  8
ASHADE
  6
Continuous
 62
     7
100
AcDbLine
 10
0.1096591641591904
 20
-0.2792398032442862
 30
0.0
 11
0.1279356915190555
 21
-0.3257797704516673
 31
0.0
  0
LINE
  5
49
330
42
100
AcDbEntity
  8
ASHADE
  6
Continuous
 62
     7
100
AcDbLine
 10
0.2041413561583015
 20
-0.2198324514393848
 30
0.0
 11
0.2721884748777353
 21
-0.2931099352525131
 31
0.0
  0
ARC
  5
4A
330
42
100
AcDbEntity
  8
ASHADE
  6
Continuous
 62
     7
100
AcDbCircle
 10
0.0
 20
0.0
 30
0.0
 40
0.3
100
AcDbArc
 50
25.67928861945685
 51
154.3207113805431
  0
LINE
  5
4B
330
42
100
AcDbEntity
  8
ASHADE
  6
Continuous
 62
     7
100
AcDbLine
 10
-0.2703701166919155
 20
0.13
 30
0.0
 11
-0.3154318028072347
 21
0.1516666666666666
 31
0.0
  0
LINE
  5
4C
330
42
100
AcDbEntity
  8
ASHADE
  6
Continuous
 62
     7
100
AcDbLine
 10
-0.2703701166919155
 20
-0.13
 30
0.0
 11
-0.3154318028072347
 21
-0.1516666666666666
 31
0.0
  0
LINE
  5
4D
330
42
100
AcDbEntity
  8
ASHADE
  6
Continuous
 62
     7
100
AcDbLine
 10
-0.2041413561583015
 20
0.2198324514393849
 30
0.0
 11
-0.2721884748777353
 21
0.2931099352525131
 31
0.0
  0
LINE
  5
4E
330
42
100
AcDbEntity
  8
ASHADE
  6
Continuous
 62
     7
100
AcDbLine
 10
-0.1096591641591904
 20
0.2792398032442862
 30
0.0
 11
-0.1279356915190555
 21
0.3257797704516674
 31
0.0
  0
LINE
  5
4F
330
42
100
AcDbEntity
  8
ASHADE
  6
Continuous
 62
     7
100
AcDbLine
 10
0.2703701166919155
 20
-0.13
 30
0.0
 11
0.3154318028072347
 21
-0.1516666666666666
 31
0.0
  0
LINE
  5
50
330
42
100
AcDbEntity
  8
ASHADE
  6
Continuous
 62
     7
100
AcDbLine
 10
0.2703701166919155
 20
0.13
 30
0.0
 11
0.3154318028072347
 21
0.1516666666666666
 31
0.0
  0
LINE
  5
51
330
42
100
AcDbEntity
  8
ASHADE
  6
Continuous
 62
     7
100
AcDbLine
 10
0.0
 20
0.3
 30
0.0
 11
0.0
 21
0.4
 31
0.0
  0
ATTDEF
  5
52
330
42
100
AcDbEntity
  8
ASHADE
  6
Continuous
 62
     7
100
AcDbText
 10
0.0
 20
0.22
 30
0.0
 40
0.01
  1
1
100
AcDbAttributeDefinition
280
     0
  3
Light Intensity
  2
INTENSITY
 70
     1
280
     0
  0
ATTDEF
  5
53
330
42
100
AcDbEntity
  8
ASHADE
  6
Continuous
 62
     7
100
AcDbText
 10
0.0
 20
0.16
 30
0.0
 40
0.01
  1
-1
100
AcDbAttributeDefinition
280
     0
  3
*not used*
  2
BEAMD
 70
     1
280
     0
  0
ATTDEF
  5
54
330
42
100
AcDbEntity
  8
ASHADE
  6
Continuous
 62
     7
100
AcDbText
 10
0.0
 20
0.175
 30
0.0
 40
0.01
  1
-1
100
AcDbAttributeDefinition
280
     0
  3
*not used*
  2
CONED
 70
     1
280
     0
  0
ATTDEF
  5
55
330
42
100
AcDbEntity
  8
ASHADE
  6
Continuous
 62
     7
100
AcDbText
 10
0.0
 20
0.19
 30
0.0
 40
0.01
  1
0
100
AcDbAttributeDefinition
280
     0
  3
Depth Map Size
  2
CONEA
 70
     1
280
     0
  0
ATTDEF
  5
56
330
42
100
AcDbEntity
  8
ASHADE
  6
Continuous
 62
     7
100
AcDbText
 10
0.0
 20
0.2050000000000001
 30
0.0
 40
0.01
  1
1,1,1
100
AcDbAttributeDefinition
280
     0
  3
Light Color (RGB)
  2
COLOR
 70
     1
280
     0
  0
ATTDEF
  5
57
330
42
100
AcDbEntity
  8
ASHADE
  6
Continuous
 62
     7
100
AcDbText
 10
0.0
 20
0.235
 30
0.0
 40
0.01
  1

100
AcDbAttributeDefinition
280
     0
  3
Look-at Z
  2
LAZ
 70
     1
280
     0
  0
ATTDEF
  5
58
330
42
100
AcDbEntity
  8
ASHADE
  6
Continuous
 62
     7
100
AcDbText
 10
0.0
 20
0.25
 30
0.0
 40
0.01
  1

100
AcDbAttributeDefinition
280
     0
  3
Look-at Y
  2
LAY
 70
     1
280
     0
  0
ATTDEF
  5
59
330
42
100
AcDbEntity
  8
ASHADE
  6
Continuous
 62
     7
100
AcDbText
 10
0.0
 20
0.265
 30
0.0
 40
0.01
  1

100
AcDbAttributeDefinition
280
     0
  3
Look-at X
  2
LAX
 70
     1
280
     0
  0
ATTDEF
  5
5A
330
42
100
AcDbEntity
  8
ASHADE
  6
Continuous
 62
     7
100
AcDbText
 10
0.0
 20
0.28
 30
0.0
 40
0.01
  1

100
AcDbAttributeDefinition
280
     0
  3

  2
GNAME
 70
     1
280
     0
  0
LINE
  5
5B
330
42
100
AcDbEntity
  8
ASHADE
  6
Continuous
 62
     7
100
AcDbLine
 10
0.1096591641591904
 20
0.2792398032442862
 30
0.0
 11
0.1279356915190555
 21
0.3257797704516674
 31
0.0
  0
LINE
  5
5C
330
42
100
AcDbEntity
  8
ASHADE
  6
Continuous
 62
     7
100
AcDbLine
 10
0.2041413561583015
 20
0.2198324514393849
 30
0.0
 11
0.2721884748777353
 21
0.2931099352525131
 31
0.0
  0
ENDBLK
  5
5E
330
42
100
AcDbEntity
  8
0
100
AcDbBlockEnd
  0
BLOCK
  5
85
330
5F
100
AcDbEntity
  8
0
100
AcDbBlockBegin
  2
sh_spot
 70
     2
 10
0.0
 20
0.0
 30
0.0
  3
sh_spot
  1

  0
LINE
  5
60
330
5F
100
AcDbEntity
  8
ASHADE
  6
Continuous
 62
     7
100
AcDbLine
 10
0.25
 20
0.26
 30
0.0
 11
-0.25
 21
0.26
 31
0.0
  0
LINE
  5
61
330
5F
100
AcDbEntity
  8
ASHADE
  6
Continuous
 62
     7
100
AcDbLine
 10
-0.25
 20
-0.3399999999999999
 30
0.0
 11
0.25
 21
-0.3399999999999999
 31
0.0
  0
ATTDEF
  5
62
330
5F
100
AcDbEntity
  8
ASHADE
  6
Continuous
 62
     1
100
AcDbText
 10
0.0
 20
-0.1
 30
0.0
 40
0.2
  1

  7
ASHADE
 72
     1
 11
0.0
 21
-0.1
 31
0.0
100
AcDbAttributeDefinition
280
     0
  3
Light Name
  2
SNAME
 70
     0
280
     0
  0
LINE
  5
63
330
5F
100
AcDbEntity
  8
ASHADE
  6
Continuous
 62
     7
100
AcDbLine
 10
-0.25
 20
-0.13
 30
0.0
 11
-0.25
 21
-0.3399999999999999
 31
0.0
  0
LINE
  5
64
330
5F
100
AcDbEntity
  8
ASHADE
  6
Continuous
 62
     7
100
AcDbLine
 10
-0.25
 20
-0.18
 30
0.0
 11
-0.29
 21
-0.18
 31
0.0
  0
LINE
  5
65
330
5F
100
AcDbEntity
  8
ASHADE
  6
Continuous
 62
     7
100
AcDbLine
 10
-0.29
 20
-0.22
 30
0.0
 11
-0.25
 21
-0.22
 31
0.0
  0
LINE
  5
66
330
5F
100
AcDbEntity
  8
ASHADE
  6
Continuous
 62
     7
100
AcDbLine
 10
-0.29
 20
-0.18
 30
0.0
 11
-0.29
 21
-0.22
 31
0.0
  0
LINE
  5
67
330
5F
100
AcDbEntity
  8
ASHADE
  6
Continuous
 62
     7
100
AcDbLine
 10
-0.1045454545454545
 20
0.26
 30
0.0
 11
-0.15
 21
0.46
 31
0.0
  0
LINE
  5
68
330
5F
100
AcDbEntity
  8
ASHADE
  6
Continuous
 62
     7
100
AcDbLine
 10
-0.21
 20
0.26
 30
0.0
 11
-0.301304347826087
 21
0.46
 31
0.0
  0
LINE
  5
69
330
5F
100
AcDbEntity
  8
ASHADE
  6
Continuous
 62
     7
100
AcDbLine
 10
-0.25
 20
0.26
 30
0.0
 11
-0.25
 21
0.13
 31
0.0
  0
LINE
  5
6A
330
5F
100
AcDbEntity
  8
ASHADE
  6
Continuous
 62
     7
100
AcDbLine
 10
-0.25
 20
0.22
 30
0.0
 11
-0.29
 21
0.22
 31
0.0
  0
LINE
  5
6B
330
5F
100
AcDbEntity
  8
ASHADE
  6
Continuous
 62
     7
100
AcDbLine
 10
-0.29
 20
0.1799999999999999
 30
0.0
 11
-0.25
 21
0.1799999999999999
 31
0.0
  0
LINE
  5
6C
330
5F
100
AcDbEntity
  8
ASHADE
  6
Continuous
 62
     7
100
AcDbLine
 10
-0.29
 20
0.22
 30
0.0
 11
-0.29
 21
0.1799999999999999
 31
0.0
  0
ATTDEF
  5
6D
330
5F
100
AcDbEntity
  8
ASHADE
  6
Continuous
 62
     7
100
AcDbText
 10
0.0
 20
-0.24
 30
0.0
 40
0.01
  1
0
100
AcDbAttributeDefinition
280
     0
  3
Depth Map Size
  2
ZSIZE
 70
     1
280
     0
  0
ATTDEF
  5
6E
330
5F
100
AcDbEntity
  8
ASHADE
  6
Continuous
 62
     7
100
AcDbText
 10
0.0
 20
-0.3300000000000001
 30
0.0
 40
0.01
  1
0,0,0
100
AcDbAttributeDefinition
280
     0
  3
Look-from XYZ
  2
LFXYZ
 70
     1
280
     0
  0
ATTDEF
  5
6F
330
5F
100
AcDbEntity
  8
ASHADE
  6
Continuous
 62
     7
100
AcDbText
 10
0.0
 20
-0.315
 30
0.0
 40
0.01
  1
0.0
100
AcDbAttributeDefinition
280
     0
  3
Beam Distribution
  2
BEAMDI
 70
     1
280
     0
  0
ATTDEF
  5
70
330
5F
100
AcDbEntity
  8
ASHADE
  6
Continuous
 62
     7
100
AcDbText
 10
0.0
 20
-0.3
 30
0.0
 40
0.01
  1
0.0
100
AcDbAttributeDefinition
280
     0
  3
Cone Delta
  2
CONEDE
 70
     1
280
     0
  0
ATTDEF
  5
71
330
5F
100
AcDbEntity
  8
ASHADE
  6
Continuous
 62
     7
100
AcDbText
 10
0.0
 20
-0.2850000000000001
 30
0.0
 40
0.01
  1
10.0
100
AcDbAttributeDefinition
280
     0
  3
Cone Angle
  2
CONEAN
 70
     1
280
     0
  0
ATTDEF
  5
72
330
5F
100
AcDbEntity
  8
ASHADE
  6
Continuous
 62
     7
100
AcDbText
 10
0.0
 20
-0.27
 30
0.0
 40
0.01
  1
-1
100
AcDbAttributeDefinition
280
     0
  3
*not used*
  2
BIASMAX
 70
     1
280
     0
  0
ATTDEF
  5
73
330
5F
100
AcDbEntity
  8
ASHADE
  6
Continuous
 62
     7
100
AcDbText
 10
0.0
 20
-0.255
 30
0.0
 40
0.01
  1
-1
100
AcDbAttributeDefinition
280
     0
  3
*not used*
  2
BIASMIN
 70
     1
280
     0
  0
ATTDEF
  5
74
330
5F
100
AcDbEntity
  8
ASHADE
  6
Continuous
 62
     7
100
AcDbText
 10
0.0
 20
-0.225
 30
0.0
 40
0.01
  1
1,1,1
100
AcDbAttributeDefinition
280
     0
  3
Light Color (RGB)
  2
COLOR
 70
     1
280
     0
  0
ATTDEF
  5
75
330
5F
100
AcDbEntity
  8
ASHADE
  6
Continuous
 62
     7
100
AcDbText
 10
0.0
 20
-0.21
 30
0.0
 40
0.01
  1
1
100
AcDbAttributeDefinition
280
     0
  3
Light Intensity
  2
INTENSITY
 70
     1
280
     0
  0
ATTDEF
  5
76
330
5F
100
AcDbEntity
  8
ASHADE
  6
Continuous
 62
     7
100
AcDbText
 10
0.0
 20
-0.15
 30
0.0
 40
0.01
  1

100
AcDbAttributeDefinition
280
     0
  3

  2
GNAME
 70
     1
280
     0
  0
ATTDEF
  5
77
330
5F
100
AcDbEntity
  8
ASHADE
  6
Continuous
 62
     7
100
AcDbText
 10
0.0
 20
-0.195
 30
0.0
 40
0.01
  1

100
AcDbAttributeDefinition
280
     0
  3
Look-at Z
  2
LAZ
 70
     1
280
     0
  0
ATTDEF
  5
78
330
5F
100
AcDbEntity
  8
ASHADE
  6
Continuous
 62
     7
100
AcDbText
 10
0.0
 20
-0.18
 30
0.0
 40
0.01
  1

100
AcDbAttributeDefinition
280
     0
  3
Look-at Y
  2
LAY
 70
     1
280
     0
  0
ATTDEF
  5
79
330
5F
100
AcDbEntity
  8
ASHADE
  6
Continuous
 62
     7
100
AcDbText
 10
0.0
 20
-0.165
 30
0.0
 40
0.01
  1

100
AcDbAttributeDefinition
280
     0
  3
Look-at X
  2
LAX
 70
     1
280
     0
  0
LINE
  5
7A
330
5F
100
AcDbEntity
  8
ASHADE
  6
Continuous
 62
     7
100
AcDbLine
 10
0.25
 20
-0.3399999999999999
 30
0.0
 11
0.25
 21
-0.13
 31
0.0
  0
LINE
  5
7B
330
5F
100
AcDbEntity
  8
ASHADE
  6
Continuous
 62
     7
100
AcDbLine
 10
0.25
 20
-0.18
 30
0.0
 11
0.29
 21
-0.18
 31
0.0
  0
LINE
  5
7C
330
5F
100
AcDbEntity
  8
ASHADE
  6
Continuous
 62
     7
100
AcDbLine
 10
0.29
 20
-0.22
 30
0.0
 11
0.25
 21
-0.22
 31
0.0
  0
LINE
  5
7D
330
5F
100
AcDbEntity
  8
ASHADE
  6
Continuous
 62
     7
100
AcDbLine
 10
0.29
 20
-0.18
 30
0.0
 11
0.29
 21
-0.22
 31
0.0
  0
LINE
  5
7E
330
5F
100
AcDbEntity
  8
ASHADE
  6
Continuous
 62
     7
100
AcDbLine
 10
0.21
 20
0.26
 30
0.0
 11
0.301304347826087
 21
0.46
 31
0.0
  0
LINE
  5
7F
330
5F
100
AcDbEntity
  8
ASHADE
  6
Continuous
 62
     7
100
AcDbLine
 10
0.1045454545454545
 20
0.26
 30
0.0
 11
0.15
 21
0.46
 31
0.0
  0
LINE
  5
80
330
5F
100
AcDbEntity
  8
ASHADE
  6
Continuous
 62
     7
100
AcDbLine
 10
0.0
 20
0.26
 30
0.0
 11
0.0
 21
0.46
 31
0.0
  0
LINE
  5
81
330
5F
100
AcDbEntity
  8
ASHADE
  6
Continuous
 62
     7
100
AcDbLine
 10
0.25
 20
0.13
 30
0.0
 11
0.25
 21
0.26
 31
0.0
  0
LINE
  5
82
330
5F
100
AcDbEntity
  8
ASHADE
  6
Continuous
 62
     7
100
AcDbLine
 10
0.25
 20
0.22
 30
0.0
 11
0.29
 21
0.22
 31
0.0
  0
LINE
  5
83
330
5F
100
AcDbEntity
  8
ASHADE
  6
Continuous
 62
     7
100
AcDbLine
 10
0.29
 20
0.1799999999999999
 30
0.0
 11
0.25
 21
0.1799999999999999
 31
0.0
  0
LINE
  5
84
330
5F
100
AcDbEntity
  8
ASHADE
  6
Continuous
 62
     7
100
AcDbLine
 10
0.29
 20
0.22
 30
0.0
 11
0.29
 21
0.1799999999999999
 31
0.0
  0
ENDBLK
  5
86
330
5F
100
AcDbEntity
  8
0
100
AcDbBlockEnd
  0
BLOCK
  5
92
330
91
100
AcDbEntity
  8
ASHADE
100
AcDbBlockBegin
  2
AVE_RENDER
 70
     0
 10
0.0
 20
0.0
 30
0.0
  3
AVE_RENDER
  1
AVE_RENDER
  0
ENDBLK
  5
93
330
91
100
AcDbEntity
  8
0
100
AcDbBlockEnd
  0
BLOCK
  5
A0
330
9F
100
AcDbEntity
  8
ASHADE
100
AcDbBlockBegin
  2
AVE_GLOBAL
 70
     0
 10
0.0
 20
0.0
 30
0.0
  3
AVE_GLOBAL
  1
AVE_GLOBAL
  0
ENDBLK
  5
A1
330
9F
100
AcDbEntity
  8
0
100
AcDbBlockEnd
  0
ENDSEC
  0
SECTION
  2
ENTITIES
  0
INSERT
  5
94
330
1F
100
AcDbEntity
  8
ASHADE
 62
     1
100
AcDbBlockReference
  2
AVE_RENDER
 10
0.0
 20
0.0
 30
0.0
1001
AVE_RENDER
1002
{
1070
     7
1000
Pref
1070
    30
1070
    20
1070
     1
1070
     0
1000

1070
    10
1070
     1
1070
    10
1040
1.0
1070
     1
1040
0.3
1040
0.7
1040
0.0
1040
10.0
1010
-1.0
1020
-1.0
1030
-1.0
1040
0.3
1070
    49
1070
     0
1070
     0
1010
1.0
1020
1.0
1030
1.0
1040
45.0
1070
     1
1070
     0
1000
WCS
1040
0.0
1070
     0
1040
10.0
1002
}
  0
INSERT
  5
95
330
1F
100
AcDbEntity
  8
ASHADE
 62
     3
100
AcDbBlockReference
  2
AVE_RENDER
 10
0.0
 20
0.0
 30
0.0
1001
AVE_RENDER
1002
{
1070
     0
1000
Full Opt
1070
     0
1070
     1
1070
     1
1070
     1
1070
     0
1070
     0
1070
     0
1070
     1
1070
     1
1040
0.0001
1040
0.0001
1002
}
  0
INSERT
  5
96
330
1F
100
AcDbEntity
  8
ASHADE
 62
     4
100
AcDbBlockReference
  2
AVE_RENDER
 10
0.0
 20
0.0
 30
0.0
1001
AVE_RENDER
1002
{
1070
     0
1000
Quick Opt
1070
     0
1070
     1
1070
     1
1070
     1
1070
     0
1070
     0
1070
     1
1002
}
  0
INSERT
  5
97
330
1F
100
AcDbEntity
  8
ASHADE
 62
     5
100
AcDbBlockReference
  2
AVE_RENDER
 10
0.0
 20
0.0
 30
0.0
1001
AVE_RENDER
1002
{
1070
     1
1000
Scanl Opt
1070
     2
1070
     0
1070
     2
1040
2.0
1040
4.0
1070
     0
1070
     1
1070
     0
1040
0.03
1002
}
  0
INSERT
  5
98
330
1F
100
AcDbEntity
  8
ASHADE
 62
     6
100
AcDbBlockReference
  2
AVE_RENDER
 10
0.0
 20
0.0
 30
0.0
1001
AVE_RENDER
1002
{
1070
     2
1000
Raytr Opt
1070
     2
1070
     0
1070
     2
1040
2.0
1040
4.0
1070
     0
1070
     1
1070
     1
1040
0.03
1070
     3
1040
0.03
1002
}
  0
INSERT
  5
99
330
1F
100
AcDbEntity
  8
ASHADE
 62
     7
100
AcDbBlockReference
  2
AVE_RENDER
 10
0.0
 20
0.0
 30
0.0
1001
AVE_RENDER
1002
{
1070
     0
1000
RFile Opt
1070
     1
1070
   640
1070
   480
1070
 10000
1070
     1
1070
     8
1070
     8
1070
     0
1070
     0
1070
     0
1070
     0
1070
     0
1070
     0
1070
     0
1002
}
  0
INSERT
  5
9A
330
1F
100
AcDbEntity
  8
ASHADE
 62
     8
100
AcDbBlockReference
  2
AVE_RENDER
 10
0.0
 20
0.0
 30
0.0
1001
AVE_RENDER
1002
{
1070
     0
1000
Fog Opt
1070
     0
1070
     0
1040
0.0
1040
1.0
1040
0.0
1040
1.0
1010
0.5
1020
0.5
1030
0.5
1002
}
  0
INSERT
  5
9B
330
1F
100
AcDbEntity
  8
ASHADE
 62
     9
100
AcDbBlockReference
  2
AVE_RENDER
 10
0.0
 20
0.0
 30
0.0
1001
AVE_RENDER
1002
{
1070
     0
1000
BG Opt
1070
     0
1070
     1
1010
0.0
1020
0.0
1030
0.0
1010
1.0
1020
0.0
1030
0.0
1010
0.0
1020
1.0
1030
0.0
1010
0.0
1020
0.0
1030
1.0
1040
0.5
1040
0.33
1040
0.0
1000

1070
     1
1000

1070
     1
1070
     1
1040
1.0
1040
1.0
1040
0.0
1040
0.0
1070
     0
1002
}
  0
INSERT
  5
A2
330
1F
100
AcDbEntity
  8
ASHADE
 62
     1
100
AcDbBlockReference
  2
AVE_GLOBAL
 10
0.0
 20
0.0
 30
0.0
1001
AVE_MATERIAL
1002
{
1000
*GLOBAL*
1000
2
1000
Global finish.
1002
{
1002
}
1002
{
1070
    63
1002
{
1002
{
1010
-1.0
1020
-1.0
1030
-1.0
1002
}
1040
0.1000000014901161
1000

1040
0.0
1002
{
1002
}
1040
0.0
1002
{
1002
}
1040
0.0
1002
}
1002
{
1002
{
1010
-1.0
1020
-1.0
1030
-1.0
1002
}
1040
0.6999999880790711
1000

1040
0.0
1002
{
1002
}
1040
0.0
1002
{
1002
}
1040
0.0
1002
}
1002
{
1002
{
1010
-1.0
1020
-1.0
1030
-1.0
1002
}
1040
0.2000000029802322
1000

1040
0.0
1002
{
1002
}
1040
0.0
1002
{
1002
}
1040
0.0
1002
}
1002
{
1070
     0
1002
{
1070
     1
1002
{
1040
1.0
1040
1.0
1000

1040
0.0
1002
{
1002
}
1040
0.0
1002
{
1002
}
1040
0.0
1002
}
1002
}
1040
1.0
1040
0.0
1040
0.0
1002
}
1002
{
1040
1.0
1040
1.0
1000

1040
0.0
1002
{
1002
}
1040
0.0
1002
{
1002
}
1040
0.0
1002
}
1002
{
1040
0.5
1040
1.0
1000

1040
0.0
1002
{
1002
}
1040
0.0
1002
{
1002
}
1040
0.0
1002
}
1002
{
1070
     0
1040
0.0
1002
{
1002
}
1040
1.0
1002
{
1002
}
1040
0.0
1002
}
1002
{
1040
0.0
1002
{
1002
{
1010
0.0
1020
0.0
1030
0.0
1002
}
1040
1.0
1000

1040
0.0
1002
{
1002
}
1040
0.0
1002
{
1002
}
1040
0.0
1002
}
1002
}
1002
{
1002
{
1070
     1
1002
{
1040
0.0
1040
1.0
1000

1040
0.0
1002
{
1002
}
1040
0.0
1002
{
1002
}
1040
0.0
1002
}
1002
}
1040
0.0
1002
{
1002
}
1010
1.0
1020
0.0
1030
0.0
1010
0.0
1020
1.0
1030
0.0
1010
0.0
1020
0.0
1030
1.0
1070
     0
1002
}
1002
{
1002
{
1040
1.0
1040
1.0
1002
{
1070
     1
1002
{
1040
1.0
1040
1.0
1000

1040
0.0
1002
{
1002
}
1040
0.0
1002
{
1002
}
1040
0.0
1002
}
1002
}
1002
}
1070
     0
1040
0.0
1002
{
1002
}
1002
}
1002
{
1002
}
1002
}
1002
{
1071
        3
1070
     3
1070
     0
1002
{
1070
     2
1070
     0
1070
     0
1040
0.0
1002
}
1070
     0
1070
     2
1002
{
1002
}
1002
}
1002
{
1040
8030.0
1040
190.3000030517578
1040
0.3050000071525574
1040
228.0
1040
545.0
1040
14.0
1040
17.39999961853027
1040
0.4560000002384186
1002
}
1002
}
  0
MESH
  5
F9
330
1F
100
AcDbEntity
  8
OracDecor_cornice_mouldings
 62
    24
420
 11541018
160
             26144
310
20660000D60200000C00000013000000020000003C00000006000000020000000000002000408FC0000000002C9EE13E00000000F53850C00000002000408FC000000000D957D23E00000080C2024EC00C000000130000000A0000003C00000006000000020000000000002000408FC000000000D957D23E00000080C2024E
310
C00000002000408F400000000059AAD33E00000040C2024EC00C00000013000000120000003C00000006000000020000000000002000408F4000000000D88ED43E000000E0F43850C00000002000408F400000000059AAD33E00000040C2024EC00C000000130000001A0000003C0000000600000002000000000000200040
310
8FC0000000002C9EE13E00000000F53850C00000002000408F4000000000D88ED43E000000E0F43850C00C00000013000000220000003C00000006000000020000000000002000408FC000000000D957D23E00000080C2024EC00000002000408FC0000000A0CD25D9BF00000080D8054EC00C000000130000002A0000003C
310
00000006000000020000000000002000408F4000000060CC25D9BF00000040D8054EC00000002000408FC0000000A0CD25D9BF00000080D8054EC00C00000013000000320000003C00000006000000020000000000002000408F4000000060CC25D9BF00000040D8054EC00000002000408F400000000059AAD33E00000040
310
C2024EC00C000000130000003A0000003C00000006000000020000000000002000408FC0000000E09AB2E7BF000000C03C034EC00000002000408FC0000000A0CD25D9BF00000080D8054EC00C00000013000000420000003C00000006000000020000000000002000408FC0000000E09AB2E7BF000000C03C034EC0000000
310
2000408F4000000020A6B2E7BF000000803C034EC00C000000130000004A0000003C00000006000000020000000000002000408F4000000020A6B2E7BF000000803C034EC00000002000408F4000000060CC25D9BF00000040D8054EC00C00000013000000520000003C00000006000000020000000000002000408FC00000
310
00E09AB2E7BF000000C03C034EC00000002000408FC0000000609959F4BF000000C059EE4DC00C000000130000005A0000003C00000006000000020000000000002000408F40000000209F59F4BF0000008059EE4DC00000002000408FC0000000609959F4BF000000C059EE4DC00C00000013000000620000003C00000006
310
000000020000000000002000408F4000000020A6B2E7BF000000803C034EC00000002000408F40000000209F59F4BF0000008059EE4DC00C000000130000006A0000003C00000006000000020000000000002000408FC000000060D1ABFBBF000000600FC54DC00000002000408FC0000000609959F4BF000000C059EE4DC0
310
0C00000013000000720000003C00000006000000020000000000002000408FC000000060D1ABFBBF000000600FC54DC00000002000408F4000000020D7ABFBBF000000200FC54DC00C000000130000007A0000003C00000006000000020000000000002000408F40000000209F59F4BF0000008059EE4DC00000002000408F
310
4000000020D7ABFBBF000000200FC54DC00C00000013000000820000003C00000006000000020000000000002000408FC000000060D1ABFBBF000000600FC54DC00000002000408FC0000000C0458E00C000000060508B4DC00C000000130000008A0000003C00000006000000020000000000002000408FC0000000C0458E
310
00C000000060508B4DC00000002000408F40000000A0488E00C000000020508B4DC00C00000013000000920000003C00000006000000020000000000002000408F40000000A0488E00C000000020508B4DC00000002000408F4000000020D7ABFBBF000000200FC54DC00C000000130000009A0000003C0000000600000002
310
0000000000002000408FC0000000C0458E00C000000060508B4DC00000002000408FC0000000C04E1302C000000040A2464DC00C00000013000000A20000003C00000006000000020000000000002000408FC0000000C04E1302C000000040A2464DC00000002000408F40000000A0511302C000000000A2464DC00C000000
310
13000000AA0000003C00000006000000020000000000002000408F40000000A0488E00C000000020508B4DC00000002000408F40000000A0511302C000000000A2464DC00C00000013000000B20000003C00000006000000020000000000002000408FC0000000C04E1302C000000040A2464DC00000002000408FC0000000
310
C0D13F02C00000002096FD4CC00C00000013000000BA0000003C00000006000000020000000000002000408FC0000000C0D13F02C00000002096FD4CC00000002000408F40000000A0D43F02C0000000E095FD4CC00C00000013000000C20000003C00000006000000020000000000002000408F40000000A0511302C00000
310
0000A2464DC00000002000408F40000000A0D43F02C0000000E095FD4CC00C00000013000000CA0000003C00000006000000020000000000002000408FC0000000C0D13F02C00000002096FD4CC00000002000408FC0000000C08E0F01C0000000E027B74CC00C00000013000000D20000003C000000060000000200000000
310
00002000408F40000000A0910F01C0000000A027B74CC00000002000408FC0000000C08E0F01C0000000E027B74CC00C00000013000000DA0000003C00000006000000020000000000002000408F40000000A0D43F02C0000000E095FD4CC00000002000408F40000000A0910F01C0000000A027B74CC00C00000013000000
310
E20000003C00000006000000020000000000002000408FC0000000808B67FEBF000000000E844CC00000002000408FC0000000C08E0F01C0000000E027B74CC00C00000013000000EA0000003C00000006000000020000000000002000408FC0000000808B67FEBF000000000E844CC00000002000408F40000000409167FE
310
BF000000C00D844CC00C00000013000000F20000003C00000006000000020000000000002000408F40000000A0910F01C0000000A027B74CC00000002000408F40000000409167FEBF000000C00D844CC00C00000013000000FA0000003C00000006000000020000000000002000408FC0000000808B67FEBF000000000E84
310
4CC00000002000408FC000000000EF5DD13E000000C033594BC00C00000013000000020100003C00000006000000020000000000002000408F40000000006FB0D23E0000008033594BC00000002000408FC000000000EF5DD13E000000C033594BC00C000000130000000A0100003C00000006000000020000000000002000
310
408F40000000006FB0D23E0000008033594BC00000002000408F40000000409167FEBF000000C00D844CC00C00000013000000120100003C00000006000000020000000000002000408FC000000000EF5DD13E000000C033594BC00000002000408FC0000000008406D03E00000080A2B047C00C000000130000001A010000
310
3C00000006000000020000000000002000408F40000000000459D13E00000040A2B047C00000002000408FC0000000008406D03E00000080A2B047C00C00000013000000220100003C00000006000000020000000000002000408F40000000006FB0D23E0000008033594BC00000002000408F40000000000459D13E000000
310
40A2B047C00C000000130000002A0100003C00000006000000020000000000002000408FC00000004015EF28C000000080A2B047C00000002000408FC0000000008406D03E00000080A2B047C00C00000013000000320100003C00000006000000020000000000002000408F40000000C015EF28C000000040A2B047C00000
310
002000408FC00000004015EF28C000000080A2B047C00C000000130000003A0100003C00000006000000020000000000002000408F40000000C015EF28C000000040A2B047C00000002000408F40000000000459D13E00000040A2B047C00C00000013000000420100003C00000006000000020000000000002000408FC000
310
000040758E2AC000000080F79947C00000002000408FC00000004015EF28C000000080A2B047C00C000000130000004A0100003C00000006000000020000000000002000408FC000000040758E2AC000000080F79947C00000002000408F40000000C0758E2AC000000040F79947C00C00000013000000520100003C000000
310
06000000020000000000002000408F40000000C0758E2AC000000040F79947C00000002000408F40000000C015EF28C000000040A2B047C00C000000130000005A0100003C00000006000000020000000000002000408FC000000040758E2AC000000080F79947C00000002000408FC0000000406AE62BC000000080DC5947
310
C00C00000013000000620100003C00000006000000020000000000002000408FC0000000406AE62BC000000080DC5947C00000002000408F40000000406BE62BC000000040DC5947C00C000000130000006A0100003C00000006000000020000000000002000408F40000000C0758E2AC000000040F79947C0000000200040
310
8F40000000406BE62BC000000040DC5947C00C00000013000000720100003C00000006000000020000000000002000408FC0000000406AE62BC000000080DC5947C00000002000408FC0000000C0D6C53AC0000000805A0D40C00C000000130000007A0100003C00000006000000020000000000002000408FC0000000C0D6
310
C53AC0000000805A0D40C00000002000408F4000000020D7C53AC0000000405A0D40C00C00000013000000820100003C00000006000000020000000000002000408F40000000406BE62BC000000040DC5947C00000002000408F4000000020D7C53AC0000000405A0D40C00C000000130000008A0100003C00000006000000
310
020000000000002000408FC0000000C0D6C53AC0000000805A0D40C00000002000408FC00000004086E03CC000000080A3173EC00C00000013000000920100003C00000006000000020000000000002000408F40000000A086E03CC000000020A3173EC00000002000408FC00000004086E03CC000000080A3173EC00C0000
310
00130000009A0100003C00000006000000020000000000002000408F4000000020D7C53AC0000000405A0D40C00000002000408F40000000A086E03CC000000020A3173EC00C00000013000000A20100003C00000006000000020000000000002000408FC0000000E0AB353FC00000002066393CC00000002000408FC00000
310
0000A6CE40C000000060609F3AC00C00000013000000AA0100003C00000006000000020000000000002000408FC000000000A6CE40C000000060609F3AC00000002000408F4000000000A6CE40C000000020609F3AC00C00000013000000B20100003C00000006000000020000000000002000408F4000000000A6CE40C000
310
000020609F3AC00000002000408F4000000040AC353FC0000000C065393CC00C00000013000000BA0100003C00000006000000020000000000002000408FC0000000E0AB353FC00000002066393CC00000002000408F4000000040AC353FC0000000C065393CC00C00000013000000C20100003C0000000600000002000000
310
0000002000408FC000000000A6CE40C000000060609F3AC00000002000408FC0000000A070CD41C0000000A0C92639C00C00000013000000CA0100003C00000006000000020000000000002000408F40000000C070CD41C000000060C92639C00000002000408FC0000000A070CD41C0000000A0C92639C00C000000130000
310
00D20100003C00000006000000020000000000002000408F4000000000A6CE40C000000020609F3AC00000002000408F40000000C070CD41C000000060C92639C00C00000013000000DA0100003C00000006000000020000000000002000408FC000000080D25E42C0000000E0A90B38C00000002000408FC000000040DCE4
310
42C0000000606DB436C00C00000013000000E20100003C00000006000000020000000000002000408F4000000060DCE442C0000000206DB436C00000002000408FC000000040DCE442C0000000606DB436C00C00000013000000EA0100003C00000006000000020000000000002000408F4000000060DCE442C0000000206D
310
B436C00000002000408F40000000A0D25E42C0000000A0A90B38C00C00000013000000F20100003C00000006000000020000000000002000408FC000000080D25E42C0000000E0A90B38C00000002000408F40000000A0D25E42C0000000A0A90B38C00C00000013000000FA0100003C000000060000000200000000000020
310
00408FC0000000C05F4B43C0000000E00E5635C00000002000408FC00000008077A043C0000000A0D1BE33C00C00000013000000020200003C00000006000000020000000000002000408F40000000C077A043C000000060D1BE33C00000002000408FC00000008077A043C0000000A0D1BE33C00C000000130000000A0200
310
003C00000006000000020000000000002000408F40000000C077A043C000000060D1BE33C00000002000408F4000000000604B43C0000000A00E5635C00C00000013000000120200003C00000006000000020000000000002000408FC0000000C05F4B43C0000000E00E5635C00000002000408F4000000000604B43C00000
310
00A00E5635C00C000000130000001A0200003C00000006000000020000000000002000408FC00000000063D543C0000000A0D33632C00000002000408FC0000000C0FFFF43C0000000E0CD652FC00C00000013000000220200003C00000006000000020000000000002000408F4000000000000044C000000040CD652FC000
310
00002000408FC0000000C0FFFF43C0000000E0CD652FC00C000000130000002A0200003C00000006000000020000000000002000408F4000000000000044C000000040CD652FC00000002000408F400000002063D543C000000060D33632C00C00000013000000320200003C00000006000000020000000000002000408F40
310
0000002063D543C000000060D33632C00000002000408FC00000000063D543C0000000A0D33632C00C000000130000003A0200003C00000006000000020000000000002000408FC0000000C0FFFF43C0000000E0CD652FC00000002000408FC0000000E0FFFF43C0000000805315053F0C00000013000000420200003C0000
310
0006000000020000000000002000408F4000000000000044C0000000A05315083F0000002000408FC0000000E0FFFF43C0000000805315053F0C000000130000004A0200003C00000006000000020000000000002000408F4000000000000044C000000040CD652FC00000002000408F4000000000000044C0000000A05315
310
083F0C00000013000000520200003C00000006000000020000000000002000408FC0000000E0FFFF43C0000000805315053F0000002000408FC0000000E0490D46C0000000E03FFD043F0C000000130000005A0200003C00000006000000020000000000002000408F40000000004A0D46C00000000040FD073F0000002000
310
408FC0000000E0490D46C0000000E03FFD043F0C00000013000000620200003C00000006000000020000000000002000408F4000000000000044C0000000A05315083F0000002000408F40000000004A0D46C00000000040FD073F0C000000130000006A0200003C00000006000000020000000000002000408FC0000000E0
310
6F2F47C000000020EA50FFBF0000002000408FC0000000E0490D46C0000000E03FFD043F0C00000013000000720200003C00000006000000020000000000002000408FC0000000E06F2F47C000000020EA50FFBF0000002000408F4000000000702F47C000000020E250FFBF0C000000130000007A0200003C000000060000
310
00020000000000002000408F40000000004A0D46C00000000040FD073F0000002000408F4000000000702F47C000000020E250FFBF0C00000013000000820200003C00000006000000020000000000002000408FC0000000E06F2F47C000000020EA50FFBF0000002000408FC0000000A00C6147C000000020849201C00C00
310
0000130000008A0200003C00000006000000020000000000002000408F40000000C00C6147C000000020819201C00000002000408FC0000000A00C6147C000000020849201C00C00000013000000920200003C00000006000000020000000000002000408F40000000C00C6147C000000020819201C00000002000408F4000
310
000000702F47C000000020E250FFBF0C000000130000009A0200003C00000006000000020000000000002000408FC0000000E06DA547C000000020E9CB02C00000002000408FC0000000A00C6147C000000020849201C00C00000013000000A20200003C00000006000000020000000000002000408FC0000000E06DA547C0
310
00000020E9CB02C00000002000408F40000000E06DA547C000000020E5CB02C00C00000013000000AA0200003C00000006000000020000000000002000408F40000000C00C6147C000000020819201C00000002000408F40000000E06DA547C000000020E5CB02C00C00000013000000B20200003C00000006000000020000
310
000000002000408FC0000000E06DA547C000000020E9CB02C00000002000408FC00000002059EC47C000000020109E02C00C00000013000000BA0200003C00000006000000020000000000002000408F400000004059EC47C0000000200C9E02C00000002000408FC00000002059EC47C000000020109E02C00C0000001300
310
0000C20200003C00000006000000020000000000002000408F40000000E06DA547C000000020E5CB02C00000002000408F400000004059EC47C0000000200C9E02C00C00000013000000CA0200003C00000006000000020000000000002000408FC00000002059EC47C000000020109E02C00000002000408FC00000006007
310
2F48C0000000205A0D01C00C00000013000000D20200003C00000006000000020000000000002000408F4000000060072F48C000000020570D01C00000002000408FC000000060072F48C0000000205A0D01C00C00000013000000DA0200003C00000006000000020000000000002000408F400000004059EC47C000000020
310
0C9E02C00000002000408F4000000060072F48C000000020570D01C00C00000013000000E20200003C00000006000000020000000000002000408FC000000060072F48C0000000205A0D01C00000002000408FC0000000A0176748C0000000403280FCBF0C00000013000000EA0200003C0000000600000002000000000000
310
2000408F40000000C0176748C0000000402A80FCBF0000002000408FC0000000A0176748C0000000403280FCBF0C00000013000000F20200003C00000006000000020000000000002000408F4000000060072F48C000000020570D01C00000002000408F40000000C0176748C0000000402A80FCBF0C00000013000000FA02
310
00003C00000006000000020000000000002000408FC0000000202E8F48C000000040C0F5F4BF0000002000408FC0000000A0176748C0000000403280FCBF0C00000013000000020300003C00000006000000020000000000002000408FC0000000202E8F48C000000040C0F5F4BF0000002000408F40000000402E8F48C000
310
000040B8F5F4BF0C000000130000000A0300003C00000006000000020000000000002000408F40000000C0176748C0000000402A80FCBF0000002000408F40000000402E8F48C000000040B8F5F4BF0C00000013000000120300003C00000006000000020000000000002000408FC0000000202E8F48C000000040C0F5F4BF
310
0000002000408FC00000006075A348C0000000805868E8BF0C000000130000001A0300003C00000006000000020000000000002000408FC00000006075A348C0000000805868E8BF0000002000408F400000008075A348C0000000804868E8BF0C00000013000000220300003C00000006000000020000000000002000408F
310
40000000402E8F48C000000040B8F5F4BF0000002000408F400000008075A348C0000000804868E8BF0C000000130000002A0300003C00000006000000020000000000002000408FC00000006075A348C0000000805868E8BF0000002000408FC0000000E0FDA548C00000000059E6D9BF0C00000013000000320300003C00
310
000006000000020000000000002000408F4000000000FEA548C00000000041E6D9BF0000002000408FC0000000E0FDA548C00000000059E6D9BF0C000000130000003A0300003C00000006000000020000000000002000408F400000008075A348C0000000804868E8BF0000002000408F4000000000FEA548C00000000041
310
E6D9BF0C00000013000000420300003C00000006000000020000000000002000408FC0000000A0FEA248C0000000A0EBDE043F0000002000408FC0000000E0FDA548C00000000059E6D9BF0C000000130000004A0300003C00000006000000020000000000002000408F40000000C0FEA248C0000000C0EBDE073F00000020
310
00408FC0000000A0FEA248C0000000A0EBDE043F0C00000013000000520300003C00000006000000020000000000002000408F40000000C0FEA248C0000000C0EBDE073F0000002000408F4000000000FEA548C00000000041E6D9BF0C000000130000005A0300003C00000006000000020000000000002000408FC0000000
310
A0FEA248C0000000A0EBDE043F0000002000408FC0000000E0FF7F4CC00000000097B1053F0C00000013000000620300003C00000006000000020000000000002000408F400000000000804CC00000002097B1083F0000002000408FC0000000E0FF7F4CC00000000097B1053F0C000000130000006A0300003C0000000600
310
0000020000000000002000408F400000000000804CC00000002097B1083F0000002000408F40000000C0FEA248C0000000C0EBDE073F0C00000013000000720300003C00000006000000020000000000002000408FC0000000E0FF7F4CC00000000097B1053F0000002000408FC0000000C0FF7F4CC0000000A047B818C00C
310
000000130000007A0300003C00000006000000020000000000002000408F400000000000804CC0000000A045B818C00000002000408FC0000000C0FF7F4CC0000000A047B818C00C00000013000000820300003C00000006000000020000000000002000408F400000000000804CC0000000A045B818C00000002000408F40
310
0000000000804CC00000002097B1083F0C000000130000008A0300003C00000006000000020000000000002000408FC0000000C0FF7F4CC0000000A047B818C00000002000408FC0000000604FA24BC0000000A016B619C00C00000013000000920300003C00000006000000020000000000002000408F40000000A04FA24B
310
C0000000A015B619C00000002000408FC0000000604FA24BC0000000A016B619C00C000000130000009A0300003C00000006000000020000000000002000408F400000000000804CC0000000A045B818C00000002000408F40000000A04FA24BC0000000A015B619C00C00000013000000A20300003C000000060000000200
310
00000000002000408FC0000000604FA24BC0000000A016B619C00000002000408FC000000020A3E94AC0000000205C351BC00C00000013000000AA0300003C00000006000000020000000000002000408F4000000060A3E94AC0000000205B351BC00000002000408FC000000020A3E94AC0000000205C351BC00C00000013
310
000000B20300003C00000006000000020000000000002000408F40000000A04FA24BC0000000A015B619C00000002000408F4000000060A3E94AC0000000205B351BC00C00000013000000BA0300003C00000006000000020000000000002000408FC0000000006A4D4AC0000000207F1B1DC00000002000408FC000000020
310
A3E94AC0000000205C351BC00C00000013000000C20300003C00000006000000020000000000002000408FC0000000006A4D4AC0000000207F1B1DC00000002000408F40000000406A4D4AC0000000207D1B1DC00C00000013000000CA0300003C00000006000000020000000000002000408F4000000060A3E94AC0000000
310
205B351BC00000002000408F40000000406A4D4AC0000000207D1B1DC00C00000013000000D20300003C00000006000000020000000000002000408FC0000000006A4D4AC0000000207F1B1DC00000002000408FC0000000A051C749C000000020CF5A1FC00C00000013000000DA0300003C00000006000000020000000000
310
002000408F40000000E051C749C000000020CD5A1FC00000002000408FC0000000A051C749C000000020CF5A1FC00C00000013000000E20300003C00000006000000020000000000002000408F40000000E051C749C000000020CD5A1FC00000002000408F40000000406A4D4AC0000000207D1B1DC00C00000013000000EA
310
0300003C00000006000000020000000000002000408FC0000000A051C749C000000020CF5A1FC00000002000408FC0000000000E2349C00000008071BE21C00C00000013000000F20300003C00000006000000020000000000002000408F40000000400E2349C00000008070BE21C00000002000408FC0000000000E2349C0
310
0000008071BE21C00C00000013000000FA0300003C00000006000000020000000000002000408F40000000E051C749C000000020CD5A1FC00000002000408F40000000400E2349C00000008070BE21C00C00000013000000020400003C00000006000000020000000000002000408FC000000080986B48C0000000806D1F25
310
C00000002000408FC00000000013C248C0000000809B5023C00C000000130000000A0400003C00000006000000020000000000002000408F40000000A0986B48C0000000006D1F25C00000002000408FC000000080986B48C0000000806D1F25C00C00000013000000120400003C0000000600000002000000000000200040
310
8F40000000A0986B48C0000000006D1F25C00000002000408F400000002013C248C0000000009B5023C00C000000130000001A0400003C00000006000000020000000000002000408F400000002013C248C0000000009B5023C00000002000408FC00000000013C248C0000000809B5023C00C00000013000000220400003C
310
00000006000000020000000000002000408FC0000000C0FFBF47C000000000A9C72AC00000002000408FC0000000C0FE2548C0000000404B0427C00C000000130000002A0400003C00000006000000020000000000002000408FC0000000C0FFBF47C000000000A9C72AC00000002000408F400000000000C047C000000080
310
A8C72AC00C00000013000000320400003C00000006000000020000000000002000408F400000000000C047C000000080A8C72AC00000002000408F4000000000FF2548C0000000804A0427C00C000000130000003A0400003C00000006000000020000000000002000408F4000000000FF2548C0000000804A0427C0000000
310
2000408FC0000000C0FE2548C0000000404B0427C00C00000013000000420400003C00000006000000020000000000002000408FC0000000C0FFBF47C000000000A9C72AC00000002000408FC000000000661C48C000000080D1362CC00C000000130000004A0400003C00000006000000020000000000002000408FC00000
310
0000661C48C000000080D1362CC00000002000408F4000000020661C48C000000000D1362CC00C00000013000000520400003C00000006000000020000000000002000408F4000000020661C48C000000000D1362CC00000002000408F400000000000C047C000000080A8C72AC00C000000130000005A0400003C00000006
310
000000020000000000002000408FC000000000661C48C000000080D1362CC00000002000408FC0000000C0538648C00000006092EA2DC00C00000013000000620400003C00000006000000020000000000002000408F40000000E0538648C0000000E091EA2DC00000002000408FC0000000C0538648C00000006092EA2DC0
310
0C000000130000006A0400003C00000006000000020000000000002000408F4000000020661C48C000000000D1362CC00000002000408F40000000E0538648C0000000E091EA2DC00C00000013000000720400003C00000006000000020000000000002000408FC0000000C0538648C00000006092EA2DC00000002000408F
310
C0000000001AFD48C000000000BFF22FC00C000000130000007A0400003C00000006000000020000000000002000408F40000000601AFD48C000000060BEF22FC00000002000408FC0000000001AFD48C000000000BFF22FC00C00000013000000820400003C00000006000000020000000000002000408F40000000601AFD
310
48C000000060BEF22FC00000002000408F40000000E0538648C0000000E091EA2DC00C000000130000008A0400003C00000006000000020000000000002000408FC000000080B76E49C000000020EF0931C00000002000408FC0000000001AFD48C000000000BFF22FC00C00000013000000920400003C0000000600000002
310
0000000000002000408FC000000080B76E49C000000020EF0931C00000002000408F40000000A0B76E49C0000000E0EE0931C00C000000130000009A0400003C00000006000000020000000000002000408F40000000601AFD48C000000060BEF22FC00000002000408F40000000A0B76E49C0000000E0EE0931C00C000000
310
13000000A20400003C00000006000000020000000000002000408FC000000080B76E49C000000020EF0931C00000002000408FC00000004035104AC0000000E0BCDF32C00C00000013000000AA0400003C00000006000000020000000000002000408F400000006035104AC0000000A0BCDF32C00000002000408FC0000000
310
4035104AC0000000E0BCDF32C00C00000013000000B20400003C00000006000000020000000000002000408F40000000A0B76E49C0000000E0EE0931C00000002000408F400000006035104AC0000000A0BCDF32C00C00000013000000BA0400003C00000006000000020000000000002000408FC00000004035104AC00000
310
00E0BCDF32C00000002000408FC000000040C46C4AC000000020E36134C00C00000013000000C20400003C00000006000000020000000000002000408F4000000060C46C4AC0000000E0E26134C00000002000408FC000000040C46C4AC000000020E36134C00C00000013000000CA0400003C000000060000000200000000
310
00002000408F4000000060C46C4AC0000000E0E26134C00000002000408F400000006035104AC0000000A0BCDF32C00C00000013000000D20400003C00000006000000020000000000002000408FC000000080E69E4AC000000020B2BF35C00000002000408FC000000040C46C4AC000000020E36134C00C00000013000000
310
DA0400003C00000006000000020000000000002000408FC000000080E69E4AC000000020B2BF35C00000002000408F40000000A0E69E4AC0000000E0B1BF35C00C00000013000000E20400003C00000006000000020000000000002000408F4000000060C46C4AC0000000E0E26134C00000002000408F40000000A0E69E4A
310
C0000000E0B1BF35C00C00000013000000EA0400003C00000006000000020000000000002000408FC000000080E69E4AC000000020B2BF35C00000002000408FC00000004038B14AC0000000A0AB1737C00C00000013000000F20400003C00000006000000020000000000002000408FC00000004038B14AC0000000A0AB17
310
37C00000002000408F400000006038B14AC000000060AB1737C00C00000013000000FA0400003C00000006000000020000000000002000408F400000006038B14AC000000060AB1737C00000002000408F40000000A0E69E4AC0000000E0B1BF35C00C00000013000000020500003C00000006000000020000000000002000
310
408FC00000004038B14AC0000000A0AB1737C00000002000408FC00000004028A54AC0000000E02F8238C00C000000130000000A0500003C00000006000000020000000000002000408F40000000A028A54AC0000000A02F8238C00000002000408FC00000004028A54AC0000000E02F8238C00C0000001300000012050000
310
3C00000006000000020000000000002000408F400000006038B14AC000000060AB1737C00000002000408F40000000A028A54AC0000000A02F8238C00C000000130000001A0500003C00000006000000020000000000002000408FC00000004028A54AC0000000E02F8238C00000002000408FC0000000804B744AC0000000
310
20A31C3AC00C00000013000000220500003C00000006000000020000000000002000408F40000000E04B744AC0000000E0A21C3AC00000002000408FC0000000804B744AC000000020A31C3AC00C000000130000002A0500003C00000006000000020000000000002000408F40000000E04B744AC0000000E0A21C3AC00000
310
002000408F40000000A028A54AC0000000A02F8238C00C00000013000000320500003C00000006000000020000000000002000408FC000000080331B4AC00000002023D03BC00000002000408FC0000000804B744AC000000020A31C3AC00C000000130000003A0500003C00000006000000020000000000002000408FC000
310
000080331B4AC00000002023D03BC00000002000408F40000000A0331B4AC0000000E022D03BC00C00000013000000420500003C00000006000000020000000000002000408F40000000A0331B4AC0000000E022D03BC00000002000408F40000000E04B744AC0000000E0A21C3AC00C000000130000004A0500003C000000
310
06000000020000000000002000408FC000000080331B4AC00000002023D03BC00000002000408FC000000000E5AD49C000000040C6383DC00C00000013000000520500003C00000006000000020000000000002000408FC000000000E5AD49C000000040C6383DC00000002000408F4000000020E5AD49C0000000E0C5383D
310
C00C000000130000005A0500003C00000006000000020000000000002000408F4000000020E5AD49C0000000E0C5383DC00000002000408F40000000A0331B4AC0000000E022D03BC00C00000013000000620500003C00000006000000020000000000002000408FC000000000E5AD49C000000040C6383DC0000000200040
310
8FC0000000C0242A49C000000040FA683EC00C000000130000006A0500003C00000006000000020000000000002000408F40000000E0242A49C0000000E0F9683EC00000002000408FC0000000C0242A49C000000040FA683EC00C00000013000000720500003C00000006000000020000000000002000408F4000000020E5
310
AD49C0000000E0C5383DC00000002000408F40000000E0242A49C0000000E0F9683EC00C000000130000007A0500003C00000006000000020000000000002000408FC0000000C0242A49C000000040FA683EC00000002000408FC000000040128248C0000000A02B7E3FC00C00000013000000820500003C00000006000000
310
020000000000002000408F4000000060128248C0000000402B7E3FC00000002000408FC000000040128248C0000000A02B7E3FC00C000000130000008A0500003C00000006000000020000000000002000408F40000000E0242A49C0000000E0F9683EC00000002000408F4000000060128248C0000000402B7E3FC00C0000
310
0013000000920500003C00000006000000020000000000002000408FC000000080039D47C0000000E0804440C00000002000408FC000000040128248C0000000A02B7E3FC00C000000130000009A0500003C00000006000000020000000000002000408FC000000080039D47C0000000E0804440C00000002000408F400000
310
0080039D47C0000000A0804440C00C00000013000000A20500003C00000006000000020000000000002000408F4000000060128248C0000000402B7E3FC00000002000408F4000000080039D47C0000000A0804440C00C00000013000000AA0500003C00000006000000020000000000002000408FC000000080039D47C000
310
0000E0804440C00000002000408FC0000000E0610547C000000080FA8740C00C00000013000000B20500003C00000006000000020000000000002000408FC0000000E0610547C000000080FA8740C00000002000408F40000000E0610547C000000040FA8740C00C00000013000000BA0500003C0000000600000002000000
310
0000002000408F4000000080039D47C0000000A0804440C00000002000408F40000000E0610547C000000040FA8740C00C00000013000000C20500003C00000006000000020000000000002000408FC0000000E0610547C000000080FA8740C00000002000408FC0000000A090E645C000000020DAEE40C00C000000130000
310
00CA0500003C00000006000000020000000000002000408F40000000A090E645C0000000E0D9EE40C00000002000408FC0000000A090E645C000000020DAEE40C00C00000013000000D20500003C00000006000000020000000000002000408F40000000E0610547C000000040FA8740C00000002000408F40000000A090E6
310
45C0000000E0D9EE40C00C00000013000000DA0500003C00000006000000020000000000002000408FC0000000C02CF141C000000000E32942C00000002000408FC0000000A090E645C000000020DAEE40C00C00000013000000E20500003C00000006000000020000000000002000408FC0000000C02CF141C000000000E3
310
2942C00000002000408F40000000C02CF141C0000000C0E22942C00C00000013000000EA0500003C00000006000000020000000000002000408F40000000C02CF141C0000000C0E22942C00000002000408F40000000A090E645C0000000E0D9EE40C00C00000013000000F20500003C000000060000000200000000000020
310
00408FC0000000C02CF141C000000000E32942C00000002000408FC000000020095640C00000004022B542C00C00000013000000FA0500003C00000006000000020000000000002000408FC000000020095640C00000004022B542C00000002000408F4000000020095640C00000000022B542C00C00000013000000020600
310
003C00000006000000020000000000002000408F40000000C02CF141C0000000C0E22942C00000002000408F4000000020095640C00000000022B542C00C000000130000000A0600003C00000006000000020000000000002000408FC000000020095640C00000004022B542C00000002000408FC0000000C0DDDC3EC00000
310
0000341C43C00C00000013000000120600003C00000006000000020000000000002000408FC0000000C0DDDC3EC000000000341C43C00000002000408F4000000020DEDC3EC0000000C0331C43C00C000000130000001A0600003C00000006000000020000000000002000408F4000000020DEDC3EC0000000C0331C43C000
310
00002000408F4000000020095640C00000000022B542C00C00000013000000220600003C00000006000000020000000000002000408FC0000000C0DDDC3EC000000000341C43C00000002000408FC000000040681D3DC0000000804DA743C00C000000130000002A0600003C00000006000000020000000000002000408FC0
310
00000040681D3DC0000000804DA743C00000002000408F40000000A0681D3DC0000000404DA743C00C00000013000000320600003C00000006000000020000000000002000408F4000000020DEDC3EC0000000C0331C43C00000002000408F40000000A0681D3DC0000000404DA743C00C000000130000003A0600003C0000
310
0006000000020000000000002000408FC000000040681D3DC0000000804DA743C00000002000408FC000000080958D3BC0000000C0485544C00C00000013000000420600003C00000006000000020000000000002000408FC000000080958D3BC0000000C0485544C00000002000408F4000000000968D3BC0000000804855
310
44C00C000000130000004A0600003C00000006000000020000000000002000408F40000000A0681D3DC0000000404DA743C00000002000408F4000000000968D3BC000000080485544C00C00000013000000520600003C00000006000000020000000000002000408FC000000080958D3BC0000000C0485544C00000002000
310
408FC000000080EA1A3AC0000000C0D22E45C00C000000130000005A0600003C00000006000000020000000000002000408FC000000080EA1A3AC0000000C0D22E45C00000002000408F4000000000EB1A3AC000000080D22E45C00C00000013000000620600003C00000006000000020000000000002000408F4000000000
310
968D3BC000000080485544C00000002000408F4000000000EB1A3AC000000080D22E45C00C000000130000006A0600003C00000006000000020000000000002000408FC000000080EA1A3AC0000000C0D22E45C00000002000408FC00000000059CB38C000000000255646C00C00000013000000720600003C000000060000
310
00020000000000002000408F400000008059CB38C0000000C0245646C00000002000408FC00000000059CB38C000000000255646C00C000000130000007A0600003C00000006000000020000000000002000408F4000000000EB1A3AC000000080D22E45C00000002000408F400000008059CB38C0000000C0245646C00C00
310
000013000000820600003C00000006000000020000000000002000408FC000000040CB2338C000000040C27447C00000002000408FC00000000059CB38C000000000255646C00C000000130000008A0600003C00000006000000020000000000002000408FC000000040CB2338C000000040C27447C00000002000408F4000
310
0000A0CB2338C000000000C27447C00C00000013000000920600003C00000006000000020000000000002000408F400000008059CB38C0000000C0245646C00000002000408F40000000A0CB2338C000000000C27447C00C000000130000009A0600003C00000006000000020000000000002000408FC000000040CB2338C0
310
00000040C27447C00000002000408FC0000000A0FFFF37C000000000657648C00C00000013000000A20600003C00000006000000020000000000002000408F40000000E0FFFF37C0000000C0647648C00000002000408FC0000000A0FFFF37C000000000657648C00C00000013000000AA0600003C00000006000000020000
310
000000002000408F40000000E0FFFF37C0000000C0647648C00000002000408F40000000A0CB2338C000000000C27447C00C00000013000000B20600003C00000006000000020000000000002000408FC0000000A0FFFF37C000000000657648C00000002000408FC0000000A0FFFF32C000000000657648C00C0000001300
310
0000BA0600003C00000006000000020000000000002000408F40000000E0FFFF32C0000000C0647648C00000002000408FC0000000A0FFFF32C000000000657648C00C00000013000000C20600003C00000006000000020000000000002000408F40000000E0FFFF32C0000000C0647648C00000002000408F40000000E0FF
310
FF37C0000000C0647648C00C00000013000000CA0600003C00000006000000020000000000002000408FC0000000A0FFFF32C000000000657648C00000002000408FC0000000A0FFFF32C00000004098094BC00C00000013000000D20600003C00000006000000020000000000002000408F40000000E0FFFF32C000000000
310
98094BC00000002000408FC0000000A0FFFF32C00000004098094BC00C00000013000000DA0600003C00000006000000020000000000002000408F40000000E0FFFF32C0000000C0647648C00000002000408F40000000E0FFFF32C00000000098094BC00C00000013000000E20600003C0000000600000002000000000000
310
2000408FC00000004013D830C0000000400C604BC00000002000408FC0000000A0FFFF32C00000004098094BC00C00000013000000EA0600003C00000006000000020000000000002000408F400000008013D830C0000000000C604BC00000002000408FC00000004013D830C0000000400C604BC00C00000013000000F206
310
00003C00000006000000020000000000002000408F40000000E0FFFF32C00000000098094BC00000002000408F400000008013D830C0000000000C604BC00C00000013000000FA0600003C00000006000000020000000000002000408FC00000004021032FC00000004058B24BC00000002000408FC0000000C0B7792CC000
310
000000991F4CC00C00000013000000020700003C00000006000000020000000000002000408F4000000060B8792CC0000000C0981F4CC00000002000408FC0000000C0B7792CC000000000991F4CC00C000000130000000A0700003C00000006000000020000000000002000408F4000000060B8792CC0000000C0981F4CC0
310
0000002000408F40000000E021032FC00000000058B24BC00C00000013000000120700003C00000006000000020000000000002000408FC00000004021032FC00000004058B24BC00000002000408F40000000E021032FC00000000058B24BC00C000000130000001A0700003C00000006000000020000000000002000408F
310
C0000000209B4828C000000040DE374DC00000002000408FC0000000C081452AC000000040FC9E4CC00C00000013000000220700003C00000006000000020000000000002000408F40000000E09B4828C000000000DE374DC00000002000408FC0000000209B4828C000000040DE374DC00C000000130000002A0700003C00
310
000006000000020000000000002000408F40000000E09B4828C000000000DE374DC00000002000408F400000006082452AC000000000FC9E4CC00C00000013000000320700003C00000006000000020000000000002000408F400000006082452AC000000000FC9E4CC00000002000408FC0000000C081452AC000000040FC
310
9E4CC00C000000130000003A0700003C00000006000000020000000000002000408FC0000000E070B826C0000000C08AD94DC00000002000408FC0000000A09A7325C00000006046924EC00C00000013000000420700003C00000006000000020000000000002000408F40000000609B7325C00000002046924EC000000020
310
00408FC0000000A09A7325C00000006046924EC00C000000130000004A0700003C00000006000000020000000000002000408F40000000609B7325C00000002046924EC00000002000408F40000000A071B826C0000000808AD94DC00C00000013000000520700003C00000006000000020000000000002000408FC0000000
310
E070B826C0000000C08AD94DC00000002000408F40000000A071B826C0000000808AD94DC00C000000130000005A0700003C00000006000000020000000000002000408FC0000000E060A424C00000000040494FC00000002000408FC000000020FFFF23C000000000F53850C00C00000013000000620700003C0000000600
310
0000020000000000002000408F40000000E0FFFF23C0000000E0F43850C00000002000408FC000000020FFFF23C000000000F53850C00C000000130000006A0700003C00000006000000020000000000002000408F40000000E0FFFF23C0000000E0F43850C00000002000408F40000000A061A424C0000000C03F494FC00C
310
00000013000000720700003C00000006000000020000000000002000408F40000000A061A424C0000000C03F494FC00000002000408FC0000000E060A424C00000000040494FC00C000000130000007A0700003C00000006000000020000000000002000408FC0000000002C9EE13E00000000F53850C00000002000408FC0
310
00000020FFFF23C000000000F53850C00C00000013000000820700003C00000006000000020000000000002000408F4000000000D88ED43E000000E0F43850C00000002000408F40000000E0FFFF23C0000000E0F43850C00C000000130000008A0700003C00000006000000020000000000002000408FC00000004021032F
310
C00000004058B24BC00000002000408FC00000004013D830C0000000400C604BC00C00000013000000920700003C00000006000000020000000000002000408F400000008013D830C0000000000C604BC00000002000408F40000000E021032FC00000000058B24BC00C000000130000009A0700003C000000060000000200
310
00000000002000408FC0000000C0B7792CC000000000991F4CC00000002000408FC0000000C081452AC000000040FC9E4CC00C00000013000000A20700003C00000006000000020000000000002000408F4000000060B8792CC0000000C0981F4CC00000002000408F400000006082452AC000000000FC9E4CC00C00000013
310
000000AA0700003C00000006000000020000000000002000408FC0000000E070B826C0000000C08AD94DC00000002000408FC0000000209B4828C000000040DE374DC00C00000013000000B20700003C00000006000000020000000000002000408F40000000E09B4828C000000000DE374DC00000002000408F40000000A0
310
71B826C0000000808AD94DC00C00000013000000BA0700003C00000006000000020000000000002000408FC0000000A09A7325C00000006046924EC00000002000408FC0000000E060A424C00000000040494FC00C00000013000000C20700003C00000006000000020000000000002000408F40000000609B7325C0000000
310
2046924EC00000002000408F40000000A061A424C0000000C03F494FC00C00000013000000CA0700003C00000006000000020000000000002000408FC00000000013C248C0000000809B5023C00000002000408FC0000000000E2349C00000008071BE21C00C00000013000000D20700003C00000006000000020000000000
310
002000408F40000000400E2349C00000008070BE21C00000002000408F400000002013C248C0000000009B5023C00C00000013000000DA0700003C00000006000000020000000000002000408FC000000080986B48C0000000806D1F25C00000002000408FC0000000C0FE2548C0000000404B0427C00C00000013000000E2
310
0700003C00000006000000020000000000002000408F40000000A0986B48C0000000006D1F25C00000002000408F4000000000FF2548C0000000804A0427C00C00000013000000EA0700003C00000006000000020000000000002000408FC0000000E0AB353FC00000002066393CC00000002000408FC00000004086E03CC0
310
00000080A3173EC00C00000013000000F20700003C00000006000000020000000000002000408F40000000A086E03CC000000020A3173EC00000002000408F4000000040AC353FC0000000C065393CC00C00000013000000FA0700003C00000006000000020000000000002000408FC000000080D25E42C0000000E0A90B38
310
C00000002000408FC0000000A070CD41C0000000A0C92639C00C00000013000000020800003C00000006000000020000000000002000408F40000000C070CD41C000000060C92639C00000002000408F40000000A0D25E42C0000000A0A90B38C00C000000130000000A0800003C0000000600000002000000000000200040
310
8FC0000000C05F4B43C0000000E00E5635C00000002000408FC000000040DCE442C0000000606DB436C00C00000013000000120800003C00000006000000020000000000002000408F4000000060DCE442C0000000206DB436C00000002000408F4000000000604B43C0000000A00E5635C00C000000130000001A0800003C
310
00000006000000020000000000002000408FC00000008077A043C0000000A0D1BE33C00000002000408FC00000000063D543C0000000A0D33632C00C00000013000000220800003C00000006000000020000000000002000408F40000000C077A043C000000060D1BE33C00000002000408F400000002063D543C000000060
310
D33632C00C000000130000002A0800003C00000006000000020000000000002000408F40000000C0758E2AC000000040F79947C00000002000408F40000000E0FFFF32C00000000098094BC00C00000013000000320800003C00000006000000020000000000002000408F40000000C015EF28C000000040A2B047C0000000
310
2000408F400000008013D830C0000000000C604BC00C000000130000003A0800003C00000006000000020000000000002000408F400000000000804CC0000000A045B818C00000002000408F4000000000FEA548C00000000041E6D9BF0C00000013000000420800003C00000006000000020000000000002000408F400000
310
0000702F47C000000020E250FFBF0000002000408F4000000000FF2548C0000000804A0427C00C000000130000004A0800003C00000006000000020000000000002000408F400000000000C047C000000080A8C72AC00000002000408F40000000004A0D46C00000000040FD073F0C00000013000000520800003C00000006
310
000000020000000000002000408F40000000C00C6147C000000020819201C00000002000408F40000000A0986B48C0000000006D1F25C00C000000130000005A0800003C00000006000000020000000000002000408F40000000E06DA547C000000020E5CB02C00000002000408F400000002013C248C0000000009B5023C0
310
0C00000013000000620800003C00000006000000020000000000002000408F40000000400E2349C00000008070BE21C00000002000408F400000004059EC47C0000000200C9E02C00C000000130000006A0800003C00000006000000020000000000002000408F40000000E051C749C000000020CD5A1FC00000002000408F
310
4000000060072F48C000000020570D01C00C00000013000000720800003C00000006000000020000000000002000408F40000000406A4D4AC0000000207D1B1DC00000002000408F40000000C0176748C0000000402A80FCBF0C000000130000007A0800003C00000006000000020000000000002000408F4000000060A3E9
310
4AC0000000205B351BC00000002000408F40000000402E8F48C000000040B8F5F4BF0C00000013000000820800003C00000006000000020000000000002000408F40000000A04FA24BC0000000A015B619C00000002000408F400000008075A348C0000000804868E8BF0C000000130000008A0800003C0000000600000002
310
0000000000002000408F4000000000000044C000000040CD652FC00000002000408F400000000000C047C000000080A8C72AC00C00000013000000920800003C00000006000000020000000000002000408F4000000020661C48C000000000D1362CC00000002000408F400000002063D543C000000060D33632C00C000000
310
130000009A0800003C00000006000000020000000000002000408F4000000020D7C53AC0000000405A0D40C00000002000408F4000000000968D3BC000000080485544C00C00000013000000A20800003C00000006000000020000000000002000408F4000000020D7C53AC0000000405A0D40C00000002000408F40000000
310
00EB1A3AC000000080D22E45C00C00000013000000AA0800003C00000006000000020000000000002000408F40000000406BE62BC000000040DC5947C00000002000408F40000000A0CB2338C000000000C27447C00C00000013000000B20800003C00000006000000020000000000002000408F40000000E0FFFF32C00000
310
00C0647648C00000002000408F40000000406BE62BC000000040DC5947C00C00000013000000BA0800003C00000006000000020000000000002000408F40000000406BE62BC000000040DC5947C00000002000408F400000008059CB38C0000000C0245646C00C00000013000000C20800003C000000060000000200000000
310
00002000408F4000000000D88ED43E000000E0F43850C00000002000408F4000000060CC25D9BF00000040D8054EC00C00000013000000CA0800003C00000006000000020000000000002000408F4000000020A6B2E7BF000000803C034EC00000002000408F4000000000D88ED43E000000E0F43850C00C00000013000000
310
D20800003C00000006000000020000000000002000408F40000000209F59F4BF0000008059EE4DC00000002000408F40000000E0FFFF23C0000000E0F43850C00C00000013000000DA0800003C00000006000000020000000000002000408F40000000C015EF28C000000040A2B047C00000002000408F40000000E021032F
310
C00000000058B24BC00C00000013000000E20800003C00000006000000020000000000002000408F40000000C015EF28C000000040A2B047C00000002000408F40000000409167FEBF000000C00D844CC00C00000013000000EA0800003C00000006000000020000000000002000408F4000000020D7ABFBBF000000200FC5
310
4DC00000002000408F40000000A061A424C0000000C03F494FC00C00000013000000F20800003C00000006000000020000000000002000408F40000000A0488E00C000000020508B4DC00000002000408F40000000609B7325C00000002046924EC00C00000013000000FA0800003C00000006000000020000000000002000
310
408F40000000A0511302C000000000A2464DC00000002000408F40000000A071B826C0000000808AD94DC00C00000013000000020900003C00000006000000020000000000002000408F40000000E09B4828C000000000DE374DC00000002000408F40000000A0D43F02C0000000E095FD4CC00C000000130000000A090000
310
3C00000006000000020000000000002000408F40000000A0910F01C0000000A027B74CC00000002000408F400000006082452AC000000000FC9E4CC00C00000013000000120900003C00000006000000020000000000002000408F4000000060B8792CC0000000C0981F4CC00000002000408F40000000A0910F01C0000000
310
A027B74CC00C000000130000001A0900003C00000006000000020000000000002000408F40000000C015EF28C000000040A2B047C00000002000408F4000000060B8792CC0000000C0981F4CC00C00000013000000220900003C00000006000000020000000000002000408F4000000020D7C53AC0000000405A0D40C00000
310
002000408F40000000A0681D3DC0000000404DA743C00C000000130000002A0900003C00000006000000020000000000002000408F4000000020DEDC3EC0000000C0331C43C00000002000408F40000000A086E03CC000000020A3173EC00C00000013000000320900003C00000006000000020000000000002000408F4000
310
0000A086E03CC000000020A3173EC00000002000408F4000000020095640C00000000022B542C00C000000130000003A0900003C00000006000000020000000000002000408F40000000C02CF141C0000000C0E22942C00000002000408F4000000040AC353FC0000000C065393CC00C00000013000000420900003C000000
310
06000000020000000000002000408F4000000000A6CE40C000000020609F3AC00000002000408F40000000A090E645C0000000E0D9EE40C00C000000130000004A0900003C00000006000000020000000000002000408F4000000000A6CE40C000000020609F3AC00000002000408F40000000E0610547C000000040FA8740
310
C00C00000013000000520900003C00000006000000020000000000002000408F4000000080039D47C0000000A0804440C00000002000408F40000000C070CD41C000000060C92639C00C000000130000005A0900003C00000006000000020000000000002000408F4000000060128248C0000000402B7E3FC0000000200040
310
8F40000000C070CD41C000000060C92639C00C00000013000000620900003C00000006000000020000000000002000408F40000000E0242A49C0000000E0F9683EC00000002000408F40000000A0D25E42C0000000A0A90B38C00C000000130000006A0900003C00000006000000020000000000002000408F4000000020E5
310
AD49C0000000E0C5383DC00000002000408F40000000A0D25E42C0000000A0A90B38C00C00000013000000720900003C00000006000000020000000000002000408F40000000A0331B4AC0000000E022D03BC00000002000408F40000000A0D25E42C0000000A0A90B38C00C000000130000007A0900003C00000006000000
310
020000000000002000408F40000000E04B744AC0000000E0A21C3AC00000002000408F4000000060DCE442C0000000206DB436C00C00000013000000820900003C00000006000000020000000000002000408F4000000060DCE442C0000000206DB436C00000002000408F40000000A028A54AC0000000A02F8238C00C0000
310
00130000008A0900003C00000006000000020000000000002000408F400000006038B14AC000000060AB1737C00000002000408F4000000060DCE442C0000000206DB436C00C00000013000000920900003C00000006000000020000000000002000408F40000000A0E69E4AC0000000E0B1BF35C00000002000408F400000
310
0000604B43C0000000A00E5635C00C000000130000009A0900003C00000006000000020000000000002000408F4000000060C46C4AC0000000E0E26134C00000002000408F4000000000604B43C0000000A00E5635C00C00000013000000A20900003C00000006000000020000000000002000408F400000006035104AC000
310
0000A0BCDF32C00000002000408F4000000000604B43C0000000A00E5635C00C00000013000000AA0900003C00000006000000020000000000002000408F40000000C077A043C000000060D1BE33C00000002000408F40000000A0B76E49C0000000E0EE0931C00C00000013000000B20900003C0000000600000002000000
310
0000002000408F40000000C077A043C000000060D1BE33C00000002000408F40000000E0538648C0000000E091EA2DC00C00000013000000BA0900003C00000006000000020000000000002000408F40000000C077A043C000000060D1BE33C00000002000408F40000000601AFD48C000000060BEF22FC00C000000130000
310
00C20900003C00000006000000020000000000002000408FC00000004013D830C0000000400C604BC00000002000408FC00000004015EF28C000000080A2B047C00C00000013000000CA0900003C00000006000000020000000000002000408FC000000040758E2AC000000080F79947C00000002000408FC0000000A0FFFF
310
32C00000004098094BC00C00000013000000D20900003C00000006000000020000000000002000408FC0000000E0FDA548C00000000059E6D9BF0000002000408FC0000000C0FF7F4CC0000000A047B818C00C00000013000000DA0900003C00000006000000020000000000002000408FC0000000E06F2F47C000000020EA
310
50FFBF0000002000408FC0000000C0FE2548C0000000404B0427C00C00000013000000E20900003C00000006000000020000000000002000408FC0000000C0FFBF47C000000000A9C72AC00000002000408FC0000000E0490D46C0000000E03FFD043F0C00000013000000EA0900003C000000060000000200000000000020
310
00408FC000000080986B48C0000000806D1F25C00000002000408FC0000000A00C6147C000000020849201C00C00000013000000F20900003C00000006000000020000000000002000408FC0000000E06DA547C000000020E9CB02C00000002000408FC00000000013C248C0000000809B5023C00C00000013000000FA0900
310
003C00000006000000020000000000002000408FC00000002059EC47C000000020109E02C00000002000408FC0000000000E2349C00000008071BE21C00C00000013000000020A00003C00000006000000020000000000002000408FC000000060072F48C0000000205A0D01C00000002000408FC0000000A051C749C00000
310
0020CF5A1FC00C000000130000000A0A00003C00000006000000020000000000002000408FC0000000006A4D4AC0000000207F1B1DC00000002000408FC0000000A0176748C0000000403280FCBF0C00000013000000120A00003C00000006000000020000000000002000408FC0000000202E8F48C000000040C0F5F4BF00
310
00002000408FC000000020A3E94AC0000000205C351BC00C000000130000001A0A00003C00000006000000020000000000002000408FC00000006075A348C0000000805868E8BF0000002000408FC0000000604FA24BC0000000A016B619C00C00000013000000220A00003C00000006000000020000000000002000408FC0
310
000000C0FFBF47C000000000A9C72AC00000002000408FC0000000C0FFFF43C0000000E0CD652FC00C000000130000002A0A00003C00000006000000020000000000002000408FC000000000661C48C000000080D1362CC00000002000408FC00000000063D543C0000000A0D33632C00C00000013000000320A00003C0000
310
0006000000020000000000002000408FC0000000C0D6C53AC0000000805A0D40C00000002000408FC000000080958D3BC0000000C0485544C00C000000130000003A0A00003C00000006000000020000000000002000408FC0000000C0D6C53AC0000000805A0D40C00000002000408FC000000080EA1A3AC0000000C0D22E
310
45C00C00000013000000420A00003C00000006000000020000000000002000408FC0000000406AE62BC000000080DC5947C00000002000408FC000000040CB2338C000000040C27447C00C000000130000004A0A00003C00000006000000020000000000002000408FC0000000406AE62BC000000080DC5947C00000002000
310
408FC0000000A0FFFF32C000000000657648C00C00000013000000520A00003C00000006000000020000000000002000408FC0000000406AE62BC000000080DC5947C00000002000408FC00000000059CB38C000000000255646C00C000000130000005A0A00003C00000006000000020000000000002000408FC000000000
310
2C9EE13E00000000F53850C00000002000408FC0000000A0CD25D9BF00000080D8054EC00C00000013000000620A00003C00000006000000020000000000002000408FC0000000002C9EE13E00000000F53850C00000002000408FC0000000E09AB2E7BF000000C03C034EC00C000000130000006A0A00003C000000060000
310
00020000000000002000408FC000000020FFFF23C000000000F53850C00000002000408FC0000000609959F4BF000000C059EE4DC00C00000013000000720A00003C00000006000000020000000000002000408FC00000004021032FC00000004058B24BC00000002000408FC00000004015EF28C000000080A2B047C00C00
310
0000130000007A0A00003C00000006000000020000000000002000408FC0000000808B67FEBF000000000E844CC00000002000408FC00000004015EF28C000000080A2B047C00C00000013000000820A00003C00000006000000020000000000002000408FC000000060D1ABFBBF000000600FC54DC00000002000408FC000
310
0000E060A424C00000000040494FC00C000000130000008A0A00003C00000006000000020000000000002000408FC0000000C0458E00C000000060508B4DC00000002000408FC0000000A09A7325C00000006046924EC00C00000013000000920A00003C00000006000000020000000000002000408FC0000000E070B826C0
310
000000C08AD94DC00000002000408FC0000000C04E1302C000000040A2464DC00C000000130000009A0A00003C00000006000000020000000000002000408FC0000000C0D13F02C00000002096FD4CC00000002000408FC0000000209B4828C000000040DE374DC00C00000013000000A20A00003C00000006000000020000
310
000000002000408FC0000000C081452AC000000040FC9E4CC00000002000408FC0000000C08E0F01C0000000E027B74CC00C00000013000000AA0A00003C00000006000000020000000000002000408FC0000000C0B7792CC000000000991F4CC00000002000408FC0000000C08E0F01C0000000E027B74CC00C0000001300
310
0000B20A00003C00000006000000020000000000002000408FC0000000C0B7792CC000000000991F4CC00000002000408FC00000004015EF28C000000080A2B047C00C00000013000000BA0A00003C00000006000000020000000000002000408FC0000000C0D6C53AC0000000805A0D40C00000002000408FC00000004068
310
1D3DC0000000804DA743C00C00000013000000C20A00003C00000006000000020000000000002000408FC0000000C0DDDC3EC000000000341C43C00000002000408FC00000004086E03CC000000080A3173EC00C00000013000000CA0A00003C00000006000000020000000000002000408FC000000020095640C000000040
310
22B542C00000002000408FC00000004086E03CC000000080A3173EC00C00000013000000D20A00003C00000006000000020000000000002000408FC0000000E0AB353FC00000002066393CC00000002000408FC0000000C02CF141C000000000E32942C00C00000013000000DA0A00003C0000000600000002000000000000
310
2000408FC000000000A6CE40C000000060609F3AC00000002000408FC0000000A090E645C000000020DAEE40C00C00000013000000E20A00003C00000006000000020000000000002000408FC000000000A6CE40C000000060609F3AC00000002000408FC0000000E0610547C000000080FA8740C00C00000013000000EA0A
310
00003C00000006000000020000000000002000408FC000000080039D47C0000000E0804440C00000002000408FC0000000A070CD41C0000000A0C92639C00C00000013000000F20A00003C00000006000000020000000000002000408FC000000040128248C0000000A02B7E3FC00000002000408FC0000000A070CD41C000
310
0000A0C92639C00C00000013000000FA0A00003C00000006000000020000000000002000408FC000000080D25E42C0000000E0A90B38C00000002000408FC0000000C0242A49C000000040FA683EC00C00000013000000020B00003C00000006000000020000000000002000408FC000000080D25E42C0000000E0A90B38C0
310
0000002000408FC000000000E5AD49C000000040C6383DC00C000000130000000A0B00003C00000006000000020000000000002000408FC000000080D25E42C0000000E0A90B38C00000002000408FC000000080331B4AC00000002023D03BC00C00000013000000120B00003C00000006000000020000000000002000408F
310
C000000040DCE442C0000000606DB436C00000002000408FC0000000804B744AC000000020A31C3AC00C000000130000001A0B00003C00000006000000020000000000002000408FC000000040DCE442C0000000606DB436C00000002000408FC00000004028A54AC0000000E02F8238C00C00000013000000220B00003C00
310
000006000000020000000000002000408FC00000004038B14AC0000000A0AB1737C00000002000408FC000000040DCE442C0000000606DB436C00C000000130000002A0B00003C00000006000000020000000000002000408FC0000000C05F4B43C0000000E00E5635C00000002000408FC000000080E69E4AC000000020B2
310
BF35C00C00000013000000320B00003C00000006000000020000000000002000408FC0000000C05F4B43C0000000E00E5635C00000002000408FC000000040C46C4AC000000020E36134C00C000000130000003A0B00003C00000006000000020000000000002000408FC0000000C05F4B43C0000000E00E5635C000000020
310
00408FC00000004035104AC0000000E0BCDF32C00C00000013000000420B00003C00000006000000020000000000002000408FC000000080B76E49C000000020EF0931C00000002000408FC00000008077A043C0000000A0D1BE33C00C000000130000004A0B00003C00000006000000020000000000002000408FC0000000
310
8077A043C0000000A0D1BE33C00000002000408FC0000000C0538648C00000006092EA2DC00C00000013000000520B00003C00000006000000020000000000002000408FC00000008077A043C0000000A0D1BE33C00000002000408FC0000000001AFD48C000000000BFF22FC0
100
AcDbSubDMesh
 71
     2
 72
     0
 91
        0
 92
      174
 10
-1000.000061035156
 20
-13.27823829650879
 30
-47.20286560058593
 10
-1000.000061035156
 20
-13.95002937316894
 30
-46.70204162597656
 10
-1000.000061035156
 20
-26.77280807495117
 30
-32.10432434082032
 10
-1000.000061035156
 20
-31.20965385437012
 30
-28.22421455383301
 10
-1000.000061035156
 20
-33.61444091796875
 30
-26.6225643157959
 10
-1000.000061035156
 20
-36.74079895019531
 30
-24.04556083679199
 10
-1000.000061035156
 20
-38.58885955810547
 30
-21.3361644744873
 10
-1000.000061035156
 20
-47.29241561889648
 30
-2.349565744400024
 10
-1000.000061035156
 20
-49.11859512329101
 30
-1.309997797012329
 10
-1000.000061035156
 20
-49.27701950073242
 30
-0.762737512588501
 10
-1000.000061035156
 20
-52.60479736328125
 30
-7.276852130889892
 10
-1000.000061035156
 20
-47.49999237060547
 30
-13.38996124267578
 10
-1000.000061035156
 20
-48.22186279296875
 30
-14.1070671081543
 10
-1000.000061035156
 20
-50.86497497558593
 30
-17.03880500793457
 10
-1000.000061035156
 20
-53.24140930175781
 30
-21.74881172180176
 10
-1000.000061035156
 20
-53.38452911376953
 30
-23.09246253967285
 10
-1000.000061035156
 20
-52.21250915527344
 30
-27.81303596496582
 10
-1000.000061035156
 20
-51.35855102539062
 30
-29.22177505493164
 10
-1000.000061035156
 20
-47.22666931152343
 30
-32.53518295288086
 10
-1000.000061035156
 20
-46.04204940795898
 30
-33.06233215332031
 10
-1000.000061035156
 20
-35.8841781616211
 30
-36.32723999023438
 10
-1000.000061035156
 20
-32.67215347290039
 30
-37.41510772705078
 10
-1000.000061035156
 20
-30.86275863647461
 30
-38.2203369140625
 10
-1000.000061035156
 20
-29.11487197875977
 30
-39.30705261230469
 10
-1000.000061035156
 20
-27.55306243896484
 30
-40.66628265380859
 10
-1000.000061035156
 20
-26.10514068603516
 30
-42.36580657958984
 10
-1000.000061035156
 20
-15.50611305236816
 30
-55.39331817626953
 10
-1000.000061035156
 20
-11.36023616790771
 30
-59.69954681396484
 10
-1000.000061035156
 20
0.0000084008497652
 30
-64.88995361328125
 10
-1000.000061035156
 20
0.0000043733489292
 30
-60.02156066894531
 10
-1000.000061035156
 20
-0.7405523657798767
 30
-60.02529144287109
 10
-1000.000061035156
 20
-1.729447722434997
 30
-59.53953170776367
 10
-1000.000061035156
 20
-2.069468975067138
 30
-59.0883903503418
 10
-1000.000061035156
 20
-2.259427547454833
 30
-58.55182647705078
 10
-1000.000061035156
 20
-2.281161785125732
 30
-57.98114395141602
 10
1000.000061035156
 20
-13.27824211120605
 30
-47.2028579711914
 10
1000.000061035156
 20
-12.46696281433105
 30
-47.37995147705078
 10
1000.000061035156
 20
-18.99999809265137
 30
-48.9249496459961
 10
1000.000061035156
 20
0.0000044558510126
 30
-54.69688415527343
 10
1000.000061035156
 20
0.0000041360181058
 30
-47.37995147705078
 10
1000.000061035156
 20
-13.95003700256348
 30
-46.70203399658203
 10
1000.000061035156
 20
-30.86276435852051
 30
-38.22032928466797
 10
1000.000061035156
 20
-26.77281379699707
 30
-32.10431671142578
 10
1000.000061035156
 20
-29.11487770080567
 30
-39.30704498291016
 10
1000.000061035156
 20
-27.55307006835938
 30
-40.66627502441406
 10
1000.000061035156
 20
-26.10514831542969
 30
-42.36579895019531
 10
1000.000061035156
 20
-24.7943344116211
 30
-44.67299652099609
 10
1000.000061035156
 20
-51.35855484008789
 30
-29.22176933288574
 10
1000.000061035156
 20
-28.87705421447754
 30
-30.09233283996582
 10
1000.000061035156
 20
-50.32925033569336
 30
-30.41006278991699
 10
1000.000061035156
 20
-49.01618576049805
 30
-31.49284744262696
 10
1000.000061035156
 20
-47.22666931152343
 30
-32.53517532348633
 10
1000.000061035156
 20
-35.8841781616211
 30
-36.32723236083985
 10
1000.000061035156
 20
-32.67215347290039
 30
-37.41510009765625
 10
1000.000061035156
 20
-52.21251296997071
 30
-27.81303215026856
 10
1000.000061035156
 20
-33.61444091796875
 30
-26.62256050109863
 10
1000.000061035156
 20
-52.90856552124023
 30
-26.11186027526855
 10
1000.000061035156
 20
-35.60500335693359
 30
-25.15151023864746
 10
1000.000061035156
 20
-53.38453292846679
 30
-23.09245872497559
 10
1000.000061035156
 20
-37.7879753112793
 30
-22.70479011535645
 10
1000.000061035156
 20
-53.29030227661132
 30
-24.5085391998291
 10
1000.000061035156
 20
-52.84974288940429
 30
-20.38236808776856
 10
1000.000061035156
 20
-39.25365447998047
 30
-19.74538230895996
 10
1000.000061035156
 20
-53.24141311645508
 30
-21.74880790710449
 10
1000.000061035156
 20
-49.97736740112305
 30
-15.97410869598389
 10
1000.000061035156
 20
-40.0
 30
-15.69883155822754
 10
1000.000061035156
 20
-50.8649787902832
 30
-17.0388011932373
 10
1000.000061035156
 20
-52.12662887573242
 30
-18.87397193908691
 10
1000.000061035156
 20
-40.0
 30
0.0000459352631879
 10
1000.000061035156
 20
-46.75820159912109
 30
-2.196535348892211
 10
1000.000061035156
 20
-47.29241561889648
 30
-2.349558115005493
 10
1000.000061035156
 20
-51.55718612670899
 30
-7.838673114776611
 10
1000.000061035156
 20
-50.27387237548828
 30
-8.871952056884765
 10
1000.000061035156
 20
-48.84059524536133
 30
-10.5613784790039
 10
1000.000061035156
 20
-48.22186660766601
 30
-14.10706329345703
 10
1000.000061035156
 20
-49.04943466186523
 30
-14.95814418792724
 10
1000.000061035156
 20
-57.0
 30
-6.179953098297119
 10
1000.000061035156
 20
-55.2680549621582
 30
-6.427816867828369
 10
1000.000061035156
 20
-53.82529830932617
 30
-6.80210542678833
 10
1000.000061035156
 20
-52.60480499267578
 30
-7.276844501495361
 10
1000.000061035156
 20
-57.0
 30
0.0000470995182695
 10
1000.000061035156
 20
-47.84647369384765
 30
-2.327171564102172
 10
1000.000061035156
 20
-48.36741256713867
 30
-2.131513833999633
 10
1000.000061035156
 20
-48.80541229248047
 30
-1.781290292739868
 10
1000.000061035156
 20
-49.11859893798828
 30
-1.309990167617797
 10
1000.000061035156
 20
-49.27702331542969
 30
-0.7627298831939698
 10
1000.000061035156
 20
-49.27339935302734
 30
0.0000455299086752
 10
1000.000061035156
 20
-46.04204940795898
 30
-33.06232452392578
 10
1000.000061035156
 20
-43.80128860473632
 30
-33.86602401733398
 10
1000.000061035156
 20
-23.99999809265137
 30
-48.9249496459961
 10
1000.000061035156
 20
-18.99999809265137
 30
-54.074951171875
 10
1000.000061035156
 20
-16.84404754638672
 30
-54.7503662109375
 10
1000.000061035156
 20
-14.2377347946167
 30
-56.24684906005859
 10
1000.000061035156
 20
-2.069474458694458
 30
-59.08838272094726
 10
1000.000061035156
 20
-12.14181423187256
 30
-58.43646240234375
 10
1000.000061035156
 20
-2.259433031082153
 30
-58.55181884765625
 10
1000.000061035156
 20
-2.281167268753051
 30
-57.98113632202149
 10
1000.000061035156
 20
-2.132601976394653
 30
-57.4308967590332
 10
1000.000061035156
 20
-10.72579479217529
 30
-61.14276504516602
 10
1000.000061035156
 20
-0.7405577301979065
 30
-60.02528381347656
 10
1000.000061035156
 20
-1.271880269050598
 30
-59.86210632324219
 10
1000.000061035156
 20
-1.729453206062316
 30
-59.53952407836914
 10
1000.000061035156
 20
0.000004901405191
 30
-64.88994598388671
 10
1000.000061035156
 20
-9.999999046325683
 30
-64.88994598388671
 10
1000.000061035156
 20
-0.3929320275783539
 30
-60.04566192626953
 10
-1000.000061035156
 20
-24.13982009887695
 30
-46.91217803955078
 10
1000.000061035156
 20
-24.13982582092285
 30
-46.91217041015625
 10
1000.000061035156
 20
-47.5
 30
-13.38995742797851
 10
-1000.000061035156
 20
-46.37060165405273
 30
-1.957254528999328
 10
-1000.000061035156
 20
-49.27339553833007
 30
0.0000398078591388
 10
1000.000061035156
 20
-44.10382080078124
 30
0.0000457558780909
 10
1000.000061035156
 20
-46.37060546875
 30
-1.957246899604797
 10
1000.000061035156
 20
-49.29681396484375
 30
-0.4046785831451416
 10
-1000.000061035156
 20
-0.3929323256015777
 30
-60.04566955566406
 10
-1000.000061035156
 20
-1.900279521942138
 30
-57.03167724609375
 10
-1000.000061035156
 20
0.0000041405983211
 30
-54.69689178466797
 10
1000.000061035156
 20
-1.900285005569458
 30
-57.03166961669921
 10
1000.000061035156
 20
0.0000046886016207
 30
-60.02155303955078
 10
-1000.000061035156
 20
-16.84404373168945
 30
-54.75037384033203
 10
-1000.000061035156
 20
-14.23773002624512
 30
-56.24685668945312
 10
-1000.000061035156
 20
-12.14180850982666
 30
-58.43647003173828
 10
-1000.000061035156
 20
-10.72578907012939
 30
-61.14277267456055
 10
1000.000061035156
 20
-15.50611782073974
 30
-55.393310546875
 10
1000.000061035156
 20
-13.13576030731201
 30
-57.2420654296875
 10
1000.000061035156
 20
-11.36024188995361
 30
-59.69953918457031
 10
1000.000061035156
 20
-10.32105731964111
 30
-62.57225799560547
 10
1000.000061035156
 20
-49.51620864868164
 30
-9.657432556152343
 10
1000.000061035156
 20
-48.29684448242187
 30
-11.50838088989257
 10
-1000.000061035156
 20
-48.84059143066406
 30
-10.56138229370117
 10
1000.000061035156
 20
-31.20965957641602
 30
-28.22420883178711
 10
-1000.000061035156
 20
-37.78797149658203
 30
-22.70479393005371
 10
-1000.000061035156
 20
-39.25364685058594
 30
-19.74538612365723
 10
1000.000061035156
 20
-36.74080276489258
 30
-24.04555702209473
 10
1000.000061035156
 20
-38.5888671875
 30
-21.33616065979004
 10
1000.000061035156
 20
-39.66708755493164
 30
-18.21416282653808
 10
-1000.000061035156
 20
-12.46695899963379
 30
-47.37995910644531
 10
-1000.000061035156
 20
-39.66708374023438
 30
-18.21416664123535
 10
-1000.000061035156
 20
-39.99999237060547
 30
-15.69883632659912
 10
-1000.000061035156
 20
-39.99999618530273
 30
0.0000402132136514
 10
-1000.000061035156
 20
-46.75819778442383
 30
-2.19654107093811
 10
-1000.000061035156
 20
-47.84646987915039
 30
-2.327179193496704
 10
-1000.000061035156
 20
-48.36741256713867
 30
-2.131519556045532
 10
-1000.000061035156
 20
-48.8054084777832
 30
-1.781297922134399
 10
-1000.000061035156
 20
-49.29681015014648
 30
-0.4046843051910401
 10
-1000.000061035156
 20
-56.99999618530274
 30
0.0000413774687331
 10
-1000.000061035156
 20
-56.99999237060547
 30
-6.17996072769165
 10
-1000.000061035156
 20
-55.26804733276367
 30
-6.427820682525634
 10
-1000.000061035156
 20
-53.82529067993164
 30
-6.802109241485595
 10
-1000.000061035156
 20
-51.55717849731445
 30
-7.838680744171142
 10
-1000.000061035156
 20
-49.51620483398437
 30
-9.657436370849609
 10
-1000.000061035156
 20
-49.04943084716797
 30
-14.95814800262451
 10
-1000.000061035156
 20
-49.97735595703125
 30
-15.97411346435547
 10
-1000.000061035156
 20
-52.12662506103516
 30
-18.87397575378418
 10
-1000.000061035156
 20
-52.84973907470703
 30
-20.38237190246582
 10
-1000.000061035156
 20
-53.29029083251953
 30
-24.50854301452637
 10
-1000.000061035156
 20
-52.90855407714843
 30
-26.11186408996582
 10
-1000.000061035156
 20
-50.32924652099609
 30
-30.41006851196289
 10
-1000.000061035156
 20
-49.01618194580078
 30
-31.49285316467285
 10
-1000.000061035156
 20
-43.80128860473632
 30
-33.86603164672852
 10
-1000.000061035156
 20
-24.79432678222656
 30
-44.67300415039062
 10
-1000.000061035156
 20
-23.9999942779541
 30
-48.92495727539063
 10
-1000.000061035156
 20
-18.9999942779541
 30
-48.92495727539063
 10
-1000.000061035156
 20
-18.9999942779541
 30
-54.07495880126953
 10
-1000.000061035156
 20
-13.13575553894043
 30
-57.24207305908203
 10
-1000.000061035156
 20
-10.32105159759521
 30
-62.572265625
 10
-1000.000061035156
 20
-9.999993324279785
 30
-64.88995361328125
 10
-1000.000061035156
 20
-1.271874785423278
 30
-59.86211395263672
 10
-1000.000061035156
 20
-2.132596492767333
 30
-57.43090438842774
 10
-1000.000061035156
 20
0.0000038207654143
 30
-47.37995910644531
 10
-1000.000061035156
 20
-48.29683685302734
 30
-11.50838661193847
 10
-1000.000061035156
 20
-44.10381698608398
 30
0.0000400338285544
 10
-1000.000061035156
 20
-50.27386474609375
 30
-8.871959686279296
 10
-1000.000061035156
 20
-28.87704849243164
 30
-30.09233856201172
 10
-1000.000061035156
 20
-35.60499954223633
 30
-25.15151405334473
 93
      917
 90
        4
 90
       28
 90
       29
 90
      117
 90
      102
 90
        4
 90
       29
 90
      113
 90
      104
 90
      117
 90
        4
 90
      113
 90
       30
 90
       99
 90
      104
 90
        4
 90
       30
 90
      166
 90
      100
 90
       99
 90
        4
 90
      166
 90
       31
 90
      101
 90
      100
 90
        4
 90
       31
 90
       32
 90
       93
 90
      101
 90
        4
 90
       32
 90
       33
 90
       95
 90
       93
 90
        4
 90
       33
 90
       34
 90
       96
 90
       95
 90
        4
 90
       34
 90
      167
 90
       97
 90
       96
 90
        4
 90
      167
 90
      114
 90
      116
 90
       97
 90
        4
 90
      114
 90
      115
 90
       38
 90
      116
 90
        4
 90
      115
 90
      168
 90
       39
 90
       38
 90
        4
 90
      168
 90
      135
 90
       36
 90
       39
 90
        4
 90
      135
 90
        0
 90
       35
 90
       36
 90
        4
 90
        0
 90
        1
 90
       40
 90
       35
 90
        4
 90
        1
 90
        2
 90
       42
 90
       40
 90
        4
 90
        2
 90
      172
 90
       48
 90
       42
 90
        4
 90
        3
 90
        4
 90
       55
 90
      129
 90
        4
 90
        4
 90
      173
 90
       57
 90
       55
 90
        4
 90
        5
 90
      130
 90
       59
 90
      132
 90
        4
 90
        6
 90
      131
 90
       62
 90
      133
 90
        4
 90
      136
 90
      137
 90
       65
 90
      134
 90
        4
 90
      137
 90
      138
 90
       68
 90
       65
 90
        4
 90
      138
 90
      170
 90
      110
 90
       68
 90
        4
 90
      170
 90
      108
 90
      111
 90
      110
 90
        4
 90
      108
 90
      139
 90
       69
 90
      111
 90
        4
 90
      139
 90
        7
 90
       70
 90
       69
 90
        4
 90
        7
 90
      140
 90
       81
 90
       70
 90
        4
 90
      140
 90
      141
 90
       82
 90
       81
 90
        4
 90
      141
 90
      142
 90
       83
 90
       82
 90
        4
 90
      142
 90
        8
 90
       84
 90
       83
 90
        4
 90
        8
 90
        9
 90
       85
 90
       84
 90
        4
 90
        9
 90
      143
 90
      112
 90
       85
 90
        4
 90
      143
 90
      109
 90
       86
 90
      112
 90
        4
 90
      109
 90
      144
 90
       80
 90
       86
 90
        4
 90
      144
 90
      145
 90
       76
 90
       80
 90
        4
 90
      145
 90
      146
 90
       77
 90
       76
 90
        4
 90
      146
 90
      147
 90
       78
 90
       77
 90
        4
 90
      147
 90
       10
 90
       79
 90
       78
 90
        4
 90
       10
 90
      148
 90
       71
 90
       79
 90
        4
 90
      148
 90
      171
 90
       72
 90
       71
 90
        4
 90
      149
 90
      128
 90
       73
 90
      126
 90
        4
 90
      169
 90
       11
 90
      107
 90
      127
 90
        4
 90
       11
 90
       12
 90
       74
 90
      107
 90
        4
 90
       12
 90
      150
 90
       75
 90
       74
 90
        4
 90
      150
 90
      151
 90
       64
 90
       75
 90
        4
 90
      151
 90
       13
 90
       66
 90
       64
 90
        4
 90
       13
 90
      152
 90
       67
 90
       66
 90
        4
 90
      152
 90
      153
 90
       61
 90
       67
 90
        4
 90
      153
 90
       14
 90
       63
 90
       61
 90
        4
 90
       14
 90
       15
 90
       58
 90
       63
 90
        4
 90
       15
 90
      154
 90
       60
 90
       58
 90
        4
 90
      154
 90
      155
 90
       56
 90
       60
 90
        4
 90
      155
 90
       16
 90
       54
 90
       56
 90
        4
 90
       16
 90
       17
 90
       47
 90
       54
 90
        4
 90
       17
 90
      156
 90
       49
 90
       47
 90
        4
 90
      156
 90
      157
 90
       50
 90
       49
 90
        4
 90
      157
 90
       18
 90
       51
 90
       50
 90
        4
 90
       18
 90
       19
 90
       87
 90
       51
 90
        4
 90
       19
 90
      158
 90
       88
 90
       87
 90
        4
 90
      158
 90
       20
 90
       52
 90
       88
 90
        4
 90
       20
 90
       21
 90
       53
 90
       52
 90
        4
 90
       21
 90
       22
 90
       41
 90
       53
 90
        4
 90
       22
 90
       23
 90
       43
 90
       41
 90
        4
 90
       23
 90
       24
 90
       44
 90
       43
 90
        4
 90
       24
 90
       25
 90
       45
 90
       44
 90
        4
 90
       25
 90
      159
 90
       46
 90
       45
 90
        4
 90
      159
 90
      105
 90
      106
 90
       46
 90
        4
 90
      105
 90
      160
 90
       89
 90
      106
 90
        4
 90
      160
 90
      161
 90
       37
 90
       89
 90
        4
 90
      161
 90
      162
 90
       90
 90
       37
 90
        4
 90
      162
 90
      118
 90
       91
 90
       90
 90
        4
 90
       26
 90
      119
 90
       92
 90
      122
 90
        4
 90
      163
 90
      120
 90
       94
 90
      123
 90
        4
 90
       27
 90
      121
 90
       98
 90
      124
 90
        4
 90
      164
 90
      165
 90
      103
 90
      125
 90
        4
 90
      165
 90
       28
 90
      102
 90
      103
 90
        4
 90
      118
 90
       26
 90
      122
 90
       91
 90
        4
 90
      119
 90
      163
 90
      123
 90
       92
 90
        4
 90
      120
 90
       27
 90
      124
 90
       94
 90
        4
 90
      121
 90
      164
 90
      125
 90
       98
 90
        4
 90
      171
 90
      149
 90
      126
 90
       72
 90
        4
 90
      128
 90
      169
 90
      127
 90
       73
 90
        4
 90
      172
 90
        3
 90
      129
 90
       48
 90
        4
 90
      173
 90
        5
 90
      132
 90
       57
 90
        4
 90
      130
 90
        6
 90
      133
 90
       59
 90
        4
 90
      131
 90
      136
 90
      134
 90
       62
 90
        4
 90
       35
 90
       90
 90
       91
 90
       36
 90
        4
 90
      112
 90
       86
 90
       80
 90
       76
 90
        4
 90
      110
 90
      111
 90
      127
 90
      107
 90
        4
 90
      111
 90
       69
 90
       73
 90
      127
 90
        4
 90
       69
 90
       70
 90
      126
 90
       73
 90
        4
 90
       70
 90
       81
 90
       72
 90
      126
 90
        4
 90
       81
 90
       82
 90
       71
 90
       72
 90
        4
 90
       82
 90
       83
 90
       79
 90
       71
 90
        4
 90
       83
 90
       84
 90
       78
 90
       79
 90
        4
 90
       84
 90
       85
 90
       77
 90
       78
 90
        4
 90
       85
 90
      112
 90
       76
 90
       77
 90
        4
 90
       65
 90
       68
 90
      110
 90
      107
 90
        4
 90
      134
 90
       65
 90
      107
 90
       74
 90
        3
 90
       42
 90
       44
 90
       45
 90
        4
 90
       40
 90
      106
 90
       89
 90
       37
 90
        3
 90
       40
 90
       46
 90
      106
 90
        4
 90
       40
 90
       42
 90
       45
 90
       46
 90
        3
 90
      102
 90
      117
 90
      104
 90
        3
 90
      102
 90
      104
 90
       99
 90
        4
 90
      103
 90
      102
 90
       99
 90
      100
 90
        4
 90
       35
 90
       40
 90
       37
 90
       90
 90
        3
 90
       91
 90
      122
 90
       36
 90
        4
 90
      116
 90
       38
 90
       39
 90
       36
 90
        4
 90
      125
 90
      103
 90
      100
 90
      101
 90
        4
 90
       98
 90
      125
 90
      101
 90
       93
 90
        4
 90
      124
 90
       98
 90
       93
 90
       95
 90
        4
 90
       94
 90
      124
 90
       95
 90
       96
 90
        4
 90
      123
 90
       94
 90
       96
 90
       97
 90
        3
 90
       92
 90
      123
 90
       97
 90
        3
 90
      122
 90
       92
 90
       36
 90
        4
 90
       92
 90
       97
 90
      116
 90
       36
 90
        3
 90
       42
 90
       43
 90
       44
 90
        4
 90
       42
 90
       48
 90
       41
 90
       43
 90
        3
 90
       48
 90
       53
 90
       41
 90
        4
 90
       48
 90
      129
 90
       52
 90
       53
 90
        4
 90
      129
 90
       55
 90
       88
 90
       52
 90
        3
 90
       55
 90
       87
 90
       88
 90
        4
 90
       55
 90
       57
 90
       51
 90
       87
 90
        3
 90
       57
 90
       50
 90
       51
 90
        4
 90
       57
 90
      132
 90
       49
 90
       50
 90
        3
 90
      132
 90
       47
 90
       49
 90
        3
 90
      132
 90
       54
 90
       47
 90
        4
 90
      132
 90
       59
 90
       56
 90
       54
 90
        3
 90
       59
 90
       60
 90
       56
 90
        3
 90
       59
 90
       58
 90
       60
 90
        4
 90
       59
 90
      133
 90
       63
 90
       58
 90
        3
 90
      133
 90
       61
 90
       63
 90
        3
 90
      133
 90
       67
 90
       61
 90
        4
 90
      133
 90
       62
 90
       66
 90
       67
 90
        4
 90
       62
 90
      134
 90
       74
 90
       75
 90
        3
 90
       62
 90
       75
 90
       64
 90
        3
 90
       62
 90
       64
 90
       66
 90
        4
 90
      135
 90
      118
 90
      162
 90
        0
 90
        4
 90
      145
 90
      144
 90
      109
 90
      143
 90
        4
 90
       11
 90
      169
 90
      108
 90
      170
 90
        4
 90
      169
 90
      128
 90
      139
 90
      108
 90
        4
 90
      128
 90
      149
 90
        7
 90
      139
 90
        4
 90
      149
 90
      171
 90
      140
 90
        7
 90
        4
 90
      171
 90
      148
 90
      141
 90
      140
 90
        4
 90
      148
 90
       10
 90
      142
 90
      141
 90
        4
 90
       10
 90
      147
 90
        8
 90
      142
 90
        4
 90
      147
 90
      146
 90
        9
 90
        8
 90
        4
 90
      146
 90
      145
 90
      143
 90
        9
 90
        4
 90
       11
 90
      170
 90
      138
 90
      137
 90
        4
 90
       12
 90
       11
 90
      137
 90
      136
 90
        3
 90
       25
 90
       24
 90
        2
 90
        4
 90
      161
 90
      160
 90
      105
 90
        1
 90
        3
 90
      105
 90
      159
 90
        1
 90
        4
 90
      159
 90
       25
 90
        2
 90
        1
 90
        3
 90
      113
 90
       29
 90
       28
 90
        3
 90
       30
 90
      113
 90
       28
 90
        4
 90
      166
 90
       30
 90
       28
 90
      165
 90
        4
 90
      162
 90
      161
 90
        1
 90
        0
 90
        3
 90
      135
 90
       26
 90
      118
 90
        4
 90
      135
 90
      168
 90
      115
 90
      114
 90
        4
 90
       31
 90
      166
 90
      165
 90
      164
 90
        4
 90
       32
 90
       31
 90
      164
 90
      121
 90
        4
 90
       33
 90
       32
 90
      121
 90
       27
 90
        4
 90
       34
 90
       33
 90
       27
 90
      120
 90
        4
 90
      167
 90
       34
 90
      120
 90
      163
 90
        3
 90
      167
 90
      163
 90
      119
 90
        3
 90
      135
 90
      119
 90
       26
 90
        4
 90
      135
 90
      114
 90
      167
 90
      119
 90
        3
 90
       24
 90
       23
 90
        2
 90
        4
 90
       23
 90
       22
 90
      172
 90
        2
 90
        3
 90
       22
 90
       21
 90
      172
 90
        4
 90
       21
 90
       20
 90
        3
 90
      172
 90
        4
 90
       20
 90
      158
 90
        4
 90
        3
 90
        3
 90
      158
 90
       19
 90
        4
 90
        4
 90
       19
 90
       18
 90
      173
 90
        4
 90
        3
 90
       18
 90
      157
 90
      173
 90
        4
 90
      157
 90
      156
 90
        5
 90
      173
 90
        3
 90
      156
 90
       17
 90
        5
 90
        3
 90
       17
 90
       16
 90
        5
 90
        4
 90
       16
 90
      155
 90
      130
 90
        5
 90
        3
 90
      155
 90
      154
 90
      130
 90
        3
 90
      154
 90
       15
 90
      130
 90
        4
 90
       15
 90
       14
 90
        6
 90
      130
 90
        3
 90
       14
 90
      153
 90
        6
 90
        3
 90
      153
 90
      152
 90
        6
 90
        4
 90
      152
 90
       13
 90
      131
 90
        6
 90
        4
 90
      150
 90
       12
 90
      136
 90
      131
 90
        3
 90
      151
 90
      150
 90
      131
 90
        3
 90
       13
 90
      151
 90
      131
 94
      363
 90
       28
 90
       29
 90
       29
 90
      117
 90
      102
 90
      117
 90
       28
 90
      102
 90
       29
 90
      113
 90
      104
 90
      113
 90
      104
 90
      117
 90
       30
 90
      113
 90
       30
 90
       99
 90
       99
 90
      104
 90
       30
 90
      166
 90
      100
 90
      166
 90
       99
 90
      100
 90
       31
 90
      166
 90
       31
 90
      101
 90
      100
 90
      101
 90
       31
 90
       32
 90
       32
 90
       93
 90
       93
 90
      101
 90
       32
 90
       33
 90
       33
 90
       95
 90
       93
 90
       95
 90
       33
 90
       34
 90
       34
 90
       96
 90
       95
 90
       96
 90
       34
 90
      167
 90
       97
 90
      167
 90
       96
 90
       97
 90
      114
 90
      167
 90
      114
 90
      116
 90
       97
 90
      116
 90
      114
 90
      115
 90
       38
 90
      115
 90
       38
 90
      116
 90
      115
 90
      168
 90
       39
 90
      168
 90
       38
 90
       39
 90
      135
 90
      168
 90
       36
 90
      135
 90
       36
 90
       39
 90
        0
 90
      135
 90
        0
 90
       35
 90
       35
 90
       36
 90
        0
 90
        1
 90
        1
 90
       40
 90
       35
 90
       40
 90
        1
 90
        2
 90
        2
 90
       42
 90
       40
 90
       42
 90
        2
 90
      172
 90
       48
 90
      172
 90
       42
 90
       48
 90
        3
 90
        4
 90
        4
 90
       55
 90
       55
 90
      129
 90
        3
 90
      129
 90
        4
 90
      173
 90
       57
 90
      173
 90
       55
 90
       57
 90
        5
 90
      130
 90
       59
 90
      130
 90
       59
 90
      132
 90
        5
 90
      132
 90
        6
 90
      131
 90
       62
 90
      131
 90
       62
 90
      133
 90
        6
 90
      133
 90
      136
 90
      137
 90
       65
 90
      137
 90
       65
 90
      134
 90
      134
 90
      136
 90
      137
 90
      138
 90
       68
 90
      138
 90
       65
 90
       68
 90
      138
 90
      170
 90
      110
 90
      170
 90
       68
 90
      110
 90
      108
 90
      170
 90
      108
 90
      111
 90
      110
 90
      111
 90
      108
 90
      139
 90
       69
 90
      139
 90
       69
 90
      111
 90
        7
 90
      139
 90
        7
 90
       70
 90
       69
 90
       70
 90
        7
 90
      140
 90
       81
 90
      140
 90
       70
 90
       81
 90
      140
 90
      141
 90
       82
 90
      141
 90
       81
 90
       82
 90
      141
 90
      142
 90
       83
 90
      142
 90
       82
 90
       83
 90
        8
 90
      142
 90
        8
 90
       84
 90
       83
 90
       84
 90
        8
 90
        9
 90
        9
 90
       85
 90
       84
 90
       85
 90
        9
 90
      143
 90
      112
 90
      143
 90
       85
 90
      112
 90
      109
 90
      143
 90
       86
 90
      109
 90
       86
 90
      112
 90
      109
 90
      144
 90
       80
 90
      144
 90
       80
 90
       86
 90
      144
 90
      145
 90
       76
 90
      145
 90
       76
 90
       80
 90
      145
 90
      146
 90
       77
 90
      146
 90
       76
 90
       77
 90
      146
 90
      147
 90
       78
 90
      147
 90
       77
 90
       78
 90
       10
 90
      147
 90
       10
 90
       79
 90
       78
 90
       79
 90
       10
 90
      148
 90
       71
 90
      148
 90
       71
 90
       79
 90
      148
 90
      171
 90
       72
 90
      171
 90
       71
 90
       72
 90
      128
 90
      149
 90
       73
 90
      128
 90
       73
 90
      126
 90
      126
 90
      149
 90
       11
 90
      169
 90
       11
 90
      107
 90
      107
 90
      127
 90
      127
 90
      169
 90
       11
 90
       12
 90
       12
 90
       74
 90
       74
 90
      107
 90
       12
 90
      150
 90
       75
 90
      150
 90
       74
 90
       75
 90
      150
 90
      151
 90
       64
 90
      151
 90
       64
 90
       75
 90
       13
 90
      151
 90
       13
 90
       66
 90
       64
 90
       66
 90
       13
 90
      152
 90
       67
 90
      152
 90
       66
 90
       67
 90
      152
 90
      153
 90
       61
 90
      153
 90
       61
 90
       67
 90
       14
 90
      153
 90
       14
 90
       63
 90
       61
 90
       63
 90
       14
 90
       15
 90
       15
 90
       58
 90
       58
 90
       63
 90
       15
 90
      154
 90
       60
 90
      154
 90
       58
 90
       60
 90
      154
 90
      155
 90
       56
 90
      155
 90
       56
 90
       60
 90
       16
 90
      155
 90
       16
 90
       54
 90
       54
 90
       56
 90
       16
 90
       17
 90
       17
 90
       47
 90
       47
 90
       54
 90
       17
 90
      156
 90
       49
 90
      156
 90
       47
 90
       49
 90
      156
 90
      157
 90
       50
 90
      157
 90
       49
 90
       50
 90
       18
 90
      157
 90
       18
 90
       51
 90
       50
 90
       51
 90
       18
 90
       19
 90
       19
 90
       87
 90
       51
 90
       87
 90
       19
 90
      158
 90
       88
 90
      158
 90
       87
 90
       88
 90
       20
 90
      158
 90
       20
 90
       52
 90
       52
 90
       88
 90
       20
 90
       21
 90
       21
 90
       53
 90
       52
 90
       53
 90
       21
 90
       22
 90
       22
 90
       41
 90
       41
 90
       53
 90
       22
 90
       23
 90
       23
 90
       43
 90
       41
 90
       43
 90
       23
 90
       24
 90
       24
 90
       44
 90
       43
 90
       44
 90
       24
 90
       25
 90
       25
 90
       45
 90
       44
 90
       45
 90
       25
 90
      159
 90
       46
 90
      159
 90
       45
 90
       46
 90
      105
 90
      159
 90
      105
 90
      106
 90
       46
 90
      106
 90
      105
 90
      160
 90
       89
 90
      160
 90
       89
 90
      106
 90
      160
 90
      161
 90
       37
 90
      161
 90
       37
 90
       89
 90
      161
 90
      162
 90
       90
 90
      162
 90
       37
 90
       90
 90
      118
 90
      162
 90
       91
 90
      118
 90
       90
 90
       91
 90
       26
 90
      119
 90
       92
 90
      119
 90
       92
 90
      122
 90
       26
 90
      122
 90
      120
 90
      163
 90
       94
 90
      120
 90
       94
 90
      123
 90
      123
 90
      163
 90
       27
 90
      121
 90
       98
 90
      121
 90
       98
 90
      124
 90
       27
 90
      124
 90
      164
 90
      165
 90
      103
 90
      165
 90
      103
 90
      125
 90
      125
 90
      164
 90
       28
 90
      165
 90
      102
 90
      103
 90
       26
 90
      118
 90
       91
 90
      122
 90
      119
 90
      163
 90
       92
 90
      123
 90
       27
 90
      120
 90
       94
 90
      124
 90
      121
 90
      164
 90
       98
 90
      125
 90
      149
 90
      171
 90
       72
 90
      126
 90
      128
 90
      169
 90
       73
 90
      127
 90
        3
 90
      172
 90
       48
 90
      129
 90
        5
 90
      173
 90
       57
 90
      132
 90
        6
 90
      130
 90
       59
 90
      133
 90
      131
 90
      136
 90
       62
 90
      134
 90
       35
 90
       90
 90
       36
 90
       91
 90
       76
 90
      112
 90
      111
 90
      127
 90
      107
 90
      110
 90
       69
 90
       73
 90
       70
 90
      126
 90
       72
 90
       81
 90
       71
 90
       82
 90
       79
 90
       83
 90
       78
 90
       84
 90
       77
 90
       85
 90
       65
 90
      107
 90
       74
 90
      134
 90
       42
 90
       44
 90
       42
 90
       45
 90
       40
 90
      106
 90
       37
 90
       40
 90
       40
 90
       46
 90
      102
 90
      104
 90
       99
 90
      102
 90
      100
 90
      103
 90
       36
 90
      122
 90
       36
 90
      116
 90
      101
 90
      125
 90
       93
 90
       98
 90
       95
 90
      124
 90
       94
 90
       96
 90
       97
 90
      123
 90
       92
 90
       97
 90
       36
 90
       92
 90
       42
 90
       43
 90
       41
 90
       48
 90
       48
 90
       53
 90
       52
 90
      129
 90
       55
 90
       88
 90
       55
 90
       87
 90
       51
 90
       57
 90
       50
 90
       57
 90
       49
 90
      132
 90
       47
 90
      132
 90
       54
 90
      132
 90
       56
 90
       59
 90
       59
 90
       60
 90
       58
 90
       59
 90
       63
 90
      133
 90
       61
 90
      133
 90
       67
 90
      133
 90
       62
 90
       66
 90
       62
 90
       75
 90
       62
 90
       64
 90
      118
 90
      135
 90
        0
 90
      162
 90
      143
 90
      145
 90
      108
 90
      169
 90
       11
 90
      170
 90
      128
 90
      139
 90
        7
 90
      149
 90
      140
 90
      171
 90
      141
 90
      148
 90
       10
 90
      142
 90
        8
 90
      147
 90
        9
 90
      146
 90
       11
 90
      137
 90
       12
 90
      136
 90
        2
 90
       24
 90
        2
 90
       25
 90
        1
 90
      105
 90
        1
 90
      161
 90
        1
 90
      159
 90
       28
 90
      113
 90
       28
 90
       30
 90
      165
 90
      166
 90
       26
 90
      135
 90
      114
 90
      135
 90
       31
 90
      164
 90
       32
 90
      121
 90
       27
 90
       33
 90
       34
 90
      120
 90
      163
 90
      167
 90
      119
 90
      167
 90
      119
 90
      135
 90
        2
 90
       23
 90
       22
 90
      172
 90
       21
 90
      172
 90
        3
 90
       20
 90
        4
 90
      158
 90
        4
 90
       19
 90
       18
 90
      173
 90
      157
 90
      173
 90
        5
 90
      156
 90
        5
 90
       17
 90
        5
 90
       16
 90
      130
 90
      155
 90
      130
 90
      154
 90
       15
 90
      130
 90
        6
 90
       14
 90
        6
 90
      153
 90
        6
 90
      152
 90
       13
 90
      131
 90
      131
 90
      150
 90
      131
 90
      151
 95
      363
140
0.0
140
0.0
140
0.0
140
0.0
140
0.0
140
0.0
140
0.0
140
0.0
140
0.0
140
0.0
140
0.0
140
0.0
140
0.0
140
0.0
140
0.0
140
0.0
140
0.0
140
0.0
140
0.0
140
0.0
140
0.0
140
0.0
140
0.0
140
0.0
140
0.0
140
0.0
140
0.0
140
0.0
140
0.0
140
0.0
140
0.0
140
0.0
140
0.0
140
0.0
140
0.0
140
0.0
140
0.0
140
0.0
140
0.0
140
0.0
140
0.0
140
0.0
140
0.0
140
0.0
140
0.0
140
0.0
140
0.0
140
0.0
140
0.0
140
0.0
140
0.0
140
0.0
140
0.0
140
0.0
140
0.0
140
0.0
140
0.0
140
0.0
140
0.0
140
0.0
140
0.0
140
0.0
140
0.0
140
0.0
140
0.0
140
0.0
140
0.0
140
0.0
140
0.0
140
0.0
140
0.0
140
0.0
140
0.0
140
0.0
140
0.0
140
0.0
140
0.0
140
0.0
140
0.0
140
0.0
140
0.0
140
0.0
140
0.0
140
0.0
140
0.0
140
0.0
140
0.0
140
0.0
140
0.0
140
0.0
140
0.0
140
0.0
140
0.0
140
0.0
140
0.0
140
0.0
140
0.0
140
0.0
140
0.0
140
0.0
140
0.0
140
0.0
140
0.0
140
0.0
140
0.0
140
0.0
140
0.0
140
0.0
140
0.0
140
0.0
140
0.0
140
0.0
140
0.0
140
0.0
140
0.0
140
0.0
140
0.0
140
0.0
140
0.0
140
0.0
140
0.0
140
0.0
140
0.0
140
0.0
140
0.0
140
0.0
140
0.0
140
0.0
140
0.0
140
0.0
140
0.0
140
0.0
140
0.0
140
0.0
140
0.0
140
0.0
140
0.0
140
0.0
140
0.0
140
0.0
140
0.0
140
0.0
140
0.0
140
0.0
140
0.0
140
0.0
140
0.0
140
0.0
140
0.0
140
0.0
140
0.0
140
0.0
140
0.0
140
0.0
140
0.0
140
0.0
140
0.0
140
0.0
140
0.0
140
0.0
140
0.0
140
0.0
140
0.0
140
0.0
140
0.0
140
0.0
140
0.0
140
0.0
140
0.0
140
0.0
140
0.0
140
0.0
140
0.0
140
0.0
140
0.0
140
0.0
140
0.0
140
0.0
140
0.0
140
0.0
140
0.0
140
0.0
140
0.0
140
0.0
140
0.0
140
0.0
140
0.0
140
0.0
140
0.0
140
0.0
140
0.0
140
0.0
140
0.0
140
0.0
140
0.0
140
0.0
140
0.0
140
0.0
140
0.0
140
0.0
140
0.0
140
0.0
140
0.0
140
0.0
140
0.0
140
0.0
140
0.0
140
0.0
140
0.0
140
0.0
140
0.0
140
0.0
140
0.0
140
0.0
140
0.0
140
0.0
140
0.0
140
0.0
140
0.0
140
0.0
140
0.0
140
0.0
140
0.0
140
0.0
140
0.0
140
0.0
140
0.0
140
0.0
140
0.0
140
0.0
140
0.0
140
0.0
140
0.0
140
0.0
140
0.0
140
0.0
140
0.0
140
0.0
140
0.0
140
0.0
140
0.0
140
0.0
140
0.0
140
0.0
140
0.0
140
0.0
140
0.0
140
0.0
140
0.0
140
0.0
140
0.0
140
0.0
140
0.0
140
0.0
140
0.0
140
0.0
140
0.0
140
0.0
140
0.0
140
0.0
140
0.0
140
0.0
140
0.0
140
0.0
140
0.0
140
0.0
140
0.0
140
0.0
140
0.0
140
0.0
140
0.0
140
0.0
140
0.0
140
0.0
140
0.0
140
0.0
140
0.0
140
0.0
140
0.0
140
0.0
140
0.0
140
0.0
140
0.0
140
0.0
140
0.0
140
0.0
140
0.0
140
0.0
140
0.0
140
0.0
140
0.0
140
0.0
140
0.0
140
0.0
140
0.0
140
0.0
140
0.0
140
0.0
140
0.0
140
0.0
140
0.0
140
0.0
140
0.0
140
0.0
140
0.0
140
0.0
140
0.0
140
0.0
140
0.0
140
0.0
140
0.0
140
0.0
140
0.0
140
0.0
140
0.0
140
0.0
140
0.0
140
0.0
140
0.0
140
0.0
140
0.0
140
0.0
140
0.0
140
0.0
140
0.0
140
0.0
140
0.0
140
0.0
140
0.0
140
0.0
140
0.0
140
0.0
140
0.0
140
0.0
140
0.0
140
0.0
140
0.0
140
0.0
140
0.0
140
0.0
140
0.0
140
0.0
140
0.0
140
0.0
140
0.0
140
0.0
140
0.0
140
0.0
140
0.0
140
0.0
140
0.0
140
0.0
140
0.0
140
0.0
140
0.0
140
0.0
140
0.0
140
0.0
140
0.0
140
0.0
140
0.0
140
0.0
140
0.0
 90
        0
  0
POLYLINE
  5
FA
330
1F
100
AcDbEntity
  8
OracDecor_cornice_mouldings
 62
    41
420
 14997145
100
AcDb2dPolyline
 66
     1
 10
0.0
 20
0.0
 30
0.0000061831465246
 70
     1
210
-0.9999999999999769
220
0.0000001788139343
230
-0.0000001192092896
  0
VERTEX
  5
FB
330
FA
100
AcDbEntity
  8
OracDecor_cornice_mouldings
 62
    41
420
 14997145
100
AcDbVertex
100
AcDb2dVertex
 10
-12.46695899963379
 20
-47.37995910644531
 30
0.0000061831465246
  0
VERTEX
  5
FC
330
FA
100
AcDbEntity
  8
OracDecor_cornice_mouldings
 62
    41
420
 14997145
100
AcDbVertex
100
AcDb2dVertex
 10
-13.27823829650879
 20
-47.20286560058593
 30
0.0000061831465246
  0
VERTEX
  5
FD
330
FA
100
AcDbEntity
  8
OracDecor_cornice_mouldings
 62
    41
420
 14997145
100
AcDbVertex
100
AcDb2dVertex
 10
-13.95002937316894
 20
-46.70204162597656
 30
0.0000061831465246
  0
VERTEX
  5
FE
330
FA
100
AcDbEntity
  8
OracDecor_cornice_mouldings
 62
    41
420
 14997145
100
AcDbVertex
100
AcDb2dVertex
 10
-26.77280807495117
 20
-32.10432434082032
 30
0.0000061831465246
  0
VERTEX
  5
FF
330
FA
100
AcDbEntity
  8
OracDecor_cornice_mouldings
 62
    41
420
 14997145
100
AcDbVertex
100
AcDb2dVertex
 10
-28.87704849243164
 20
-30.09234046936035
 30
0.0000061831465246
  0
VERTEX
  5
100
330
FA
100
AcDbEntity
  8
OracDecor_cornice_mouldings
 62
    41
420
 14997145
100
AcDbVertex
100
AcDb2dVertex
 10
-31.20965385437012
 20
-28.22421646118164
 30
0.0000061831465246
  0
VERTEX
  5
101
330
FA
100
AcDbEntity
  8
OracDecor_cornice_mouldings
 62
    41
420
 14997145
100
AcDbVertex
100
AcDb2dVertex
 10
-33.61444091796875
 20
-26.62256622314453
 30
0.0000061831465246
  0
VERTEX
  5
102
330
FA
100
AcDbEntity
  8
OracDecor_cornice_mouldings
 62
    41
420
 14997145
100
AcDbVertex
100
AcDb2dVertex
 10
-35.60499954223633
 20
-25.15151596069336
 30
0.0000061831465246
  0
VERTEX
  5
103
330
FA
100
AcDbEntity
  8
OracDecor_cornice_mouldings
 62
    41
420
 14997145
100
AcDbVertex
100
AcDb2dVertex
 10
-36.74079895019531
 20
-24.04556274414062
 30
0.0000061831465246
  0
VERTEX
  5
104
330
FA
100
AcDbEntity
  8
OracDecor_cornice_mouldings
 62
    41
420
 14997145
100
AcDbVertex
100
AcDb2dVertex
 10
-37.78797149658203
 20
-22.70479583740234
 30
0.0000061831465246
  0
VERTEX
  5
105
330
FA
100
AcDbEntity
  8
OracDecor_cornice_mouldings
 62
    41
420
 14997145
100
AcDbVertex
100
AcDb2dVertex
 10
-38.58885955810547
 20
-21.33616638183594
 30
0.0000061831465246
  0
VERTEX
  5
106
330
FA
100
AcDbEntity
  8
OracDecor_cornice_mouldings
 62
    41
420
 14997145
100
AcDbVertex
100
AcDb2dVertex
 10
-39.25364685058594
 20
-19.74538803100586
 30
0.0000061831465246
  0
VERTEX
  5
107
330
FA
100
AcDbEntity
  8
OracDecor_cornice_mouldings
 62
    41
420
 14997145
100
AcDbVertex
100
AcDb2dVertex
 10
-39.66708374023438
 20
-18.21416854858398
 30
0.0000061831465246
  0
VERTEX
  5
108
330
FA
100
AcDbEntity
  8
OracDecor_cornice_mouldings
 62
    41
420
 14997145
100
AcDbVertex
100
AcDb2dVertex
 10
-39.99999237060547
 20
-15.69883823394775
 30
0.0000061831465246
  0
VERTEX
  5
109
330
FA
100
AcDbEntity
  8
OracDecor_cornice_mouldings
 62
    41
420
 14997145
100
AcDbVertex
100
AcDb2dVertex
 10
-39.99999618530273
 20
0.0000378290278604
 30
0.0000061831465246
  0
VERTEX
  5
10A
330
FA
100
AcDbEntity
  8
OracDecor_cornice_mouldings
 62
    41
420
 14997145
100
AcDbVertex
100
AcDb2dVertex
 10
-44.10381698608398
 20
0.0000374050359824
 30
0.0000061831465246
  0
VERTEX
  5
10B
330
FA
100
AcDbEntity
  8
OracDecor_cornice_mouldings
 62
    41
420
 14997145
100
AcDbVertex
100
AcDb2dVertex
 10
-46.37060165405273
 20
-1.957257270812988
 30
0.0000061831465246
  0
VERTEX
  5
10C
330
FA
100
AcDbEntity
  8
OracDecor_cornice_mouldings
 62
    41
420
 14997145
100
AcDbVertex
100
AcDb2dVertex
 10
-46.75819778442383
 20
-2.196543931961059
 30
0.0000061831465246
  0
VERTEX
  5
10D
330
FA
100
AcDbEntity
  8
OracDecor_cornice_mouldings
 62
    41
420
 14997145
100
AcDbVertex
100
AcDb2dVertex
 10
-47.29241561889648
 20
-2.349568605422973
 30
0.0000061831465246
  0
VERTEX
  5
10E
330
FA
100
AcDbEntity
  8
OracDecor_cornice_mouldings
 62
    41
420
 14997145
100
AcDbVertex
100
AcDb2dVertex
 10
-47.84646987915039
 20
-2.327182054519653
 30
0.0000061831465246
  0
VERTEX
  5
10F
330
FA
100
AcDbEntity
  8
OracDecor_cornice_mouldings
 62
    41
420
 14997145
100
AcDbVertex
100
AcDb2dVertex
 10
-48.36741256713867
 20
-2.131522417068481
 30
0.0000061831465246
  0
VERTEX
  5
110
330
FA
100
AcDbEntity
  8
OracDecor_cornice_mouldings
 62
    41
420
 14997145
100
AcDbVertex
100
AcDb2dVertex
 10
-48.8054084777832
 20
-1.781300783157348
 30
0.0000061831465246
  0
VERTEX
  5
111
330
FA
100
AcDbEntity
  8
OracDecor_cornice_mouldings
 62
    41
420
 14997145
100
AcDbVertex
100
AcDb2dVertex
 10
-49.11859512329101
 20
-1.310000777244567
 30
0.0000061831465246
  0
VERTEX
  5
112
330
FA
100
AcDbEntity
  8
OracDecor_cornice_mouldings
 62
    41
420
 14997145
100
AcDbVertex
100
AcDb2dVertex
 10
-49.27701950073242
 20
-0.762740433216095
 30
0.0000061831465246
  0
VERTEX
  5
113
330
FA
100
AcDbEntity
  8
OracDecor_cornice_mouldings
 62
    41
420
 14997145
100
AcDbVertex
100
AcDb2dVertex
 10
-49.29681015014648
 20
-0.4046872556209565
 30
0.0000061831465246
  0
VERTEX
  5
114
330
FA
100
AcDbEntity
  8
OracDecor_cornice_mouldings
 62
    41
420
 14997145
100
AcDbVertex
100
AcDb2dVertex
 10
-49.27339553833007
 20
0.0000368709370377
 30
0.0000061831465246
  0
VERTEX
  5
115
330
FA
100
AcDbEntity
  8
OracDecor_cornice_mouldings
 62
    41
420
 14997145
100
AcDbVertex
100
AcDb2dVertex
 10
-56.99999618530274
 20
0.0000379800039809
 30
0.0000061831465246
  0
VERTEX
  5
116
330
FA
100
AcDbEntity
  8
OracDecor_cornice_mouldings
 62
    41
420
 14997145
100
AcDbVertex
100
AcDb2dVertex
 10
-56.99999237060547
 20
-6.179964065551757
 30
0.0000061831465246
  0
VERTEX
  5
117
330
FA
100
AcDbEntity
  8
OracDecor_cornice_mouldings
 62
    41
420
 14997145
100
AcDbVertex
100
AcDb2dVertex
 10
-55.26804733276367
 20
-6.427824020385742
 30
0.0000061831465246
  0
VERTEX
  5
118
330
FA
100
AcDbEntity
  8
OracDecor_cornice_mouldings
 62
    41
420
 14997145
100
AcDbVertex
100
AcDb2dVertex
 10
-53.82529067993164
 20
-6.802112579345703
 30
0.0000061831465246
  0
VERTEX
  5
119
330
FA
100
AcDbEntity
  8
OracDecor_cornice_mouldings
 62
    41
420
 14997145
100
AcDbVertex
100
AcDb2dVertex
 10
-52.60479736328125
 20
-7.27685546875
 30
0.0000061831465246
  0
VERTEX
  5
11A
330
FA
100
AcDbEntity
  8
OracDecor_cornice_mouldings
 62
    41
420
 14997145
100
AcDbVertex
100
AcDb2dVertex
 10
-51.55717849731445
 20
-7.838683605194091
 30
0.0000061831465246
  0
VERTEX
  5
11B
330
FA
100
AcDbEntity
  8
OracDecor_cornice_mouldings
 62
    41
420
 14997145
100
AcDbVertex
100
AcDb2dVertex
 10
-50.27386474609375
 20
-8.871962547302246
 30
0.0000061831465246
  0
VERTEX
  5
11C
330
FA
100
AcDbEntity
  8
OracDecor_cornice_mouldings
 62
    41
420
 14997145
100
AcDbVertex
100
AcDb2dVertex
 10
-49.51620483398437
 20
-9.657439231872558
 30
0.0000061831465246
  0
VERTEX
  5
11D
330
FA
100
AcDbEntity
  8
OracDecor_cornice_mouldings
 62
    41
420
 14997145
100
AcDbVertex
100
AcDb2dVertex
 10
-48.84059143066406
 20
-10.56138515472412
 30
0.0000061831465246
  0
VERTEX
  5
11E
330
FA
100
AcDbEntity
  8
OracDecor_cornice_mouldings
 62
    41
420
 14997145
100
AcDbVertex
100
AcDb2dVertex
 10
-48.29683685302734
 20
-11.50838947296142
 30
0.0000061831465246
  0
VERTEX
  5
11F
330
FA
100
AcDbEntity
  8
OracDecor_cornice_mouldings
 62
    41
420
 14997145
100
AcDbVertex
100
AcDb2dVertex
 10
-47.49999237060547
 20
-13.38996410369873
 30
0.0000061831465246
  0
VERTEX
  5
120
330
FA
100
AcDbEntity
  8
OracDecor_cornice_mouldings
 62
    41
420
 14997145
100
AcDbVertex
100
AcDb2dVertex
 10
-48.22186279296875
 20
-14.10706996917724
 30
0.0000061831465246
  0
VERTEX
  5
121
330
FA
100
AcDbEntity
  8
OracDecor_cornice_mouldings
 62
    41
420
 14997145
100
AcDbVertex
100
AcDb2dVertex
 10
-49.04943084716797
 20
-14.95815086364746
 30
0.0000061831465246
  0
VERTEX
  5
122
330
FA
100
AcDbEntity
  8
OracDecor_cornice_mouldings
 62
    41
420
 14997145
100
AcDbVertex
100
AcDb2dVertex
 10
-49.97735595703125
 20
-15.97411632537841
 30
0.0000061831465246
  0
VERTEX
  5
123
330
FA
100
AcDbEntity
  8
OracDecor_cornice_mouldings
 62
    41
420
 14997145
100
AcDbVertex
100
AcDb2dVertex
 10
-50.86497497558593
 20
-17.03880882263183
 30
0.0000061831465246
  0
VERTEX
  5
124
330
FA
100
AcDbEntity
  8
OracDecor_cornice_mouldings
 62
    41
420
 14997145
100
AcDbVertex
100
AcDb2dVertex
 10
-52.12662506103516
 20
-18.87397956848144
 30
0.0000061831465246
  0
VERTEX
  5
125
330
FA
100
AcDbEntity
  8
OracDecor_cornice_mouldings
 62
    41
420
 14997145
100
AcDbVertex
100
AcDb2dVertex
 10
-52.84973907470703
 20
-20.38237571716309
 30
0.0000061831465246
  0
VERTEX
  5
126
330
FA
100
AcDbEntity
  8
OracDecor_cornice_mouldings
 62
    41
420
 14997145
100
AcDbVertex
100
AcDb2dVertex
 10
-53.24140930175781
 20
-21.74881553649902
 30
0.0000061831465246
  0
VERTEX
  5
127
330
FA
100
AcDbEntity
  8
OracDecor_cornice_mouldings
 62
    41
420
 14997145
100
AcDbVertex
100
AcDb2dVertex
 10
-53.38452911376953
 20
-23.09246635437012
 30
0.0000061831465246
  0
VERTEX
  5
128
330
FA
100
AcDbEntity
  8
OracDecor_cornice_mouldings
 62
    41
420
 14997145
100
AcDbVertex
100
AcDb2dVertex
 10
-53.29029083251953
 20
-24.50854682922364
 30
0.0000061831465246
  0
VERTEX
  5
129
330
FA
100
AcDbEntity
  8
OracDecor_cornice_mouldings
 62
    41
420
 14997145
100
AcDbVertex
100
AcDb2dVertex
 10
-52.90855407714843
 20
-26.11186790466309
 30
0.0000061831465246
  0
VERTEX
  5
12A
330
FA
100
AcDbEntity
  8
OracDecor_cornice_mouldings
 62
    41
420
 14997145
100
AcDbVertex
100
AcDb2dVertex
 10
-52.21250915527344
 20
-27.81303977966309
 30
0.0000061831465246
  0
VERTEX
  5
12B
330
FA
100
AcDbEntity
  8
OracDecor_cornice_mouldings
 62
    41
420
 14997145
100
AcDbVertex
100
AcDb2dVertex
 10
-51.35855102539062
 20
-29.22177886962891
 30
0.0000061831465246
  0
VERTEX
  5
12C
330
FA
100
AcDbEntity
  8
OracDecor_cornice_mouldings
 62
    41
420
 14997145
100
AcDbVertex
100
AcDb2dVertex
 10
-50.32924652099609
 20
-30.41007232666016
 30
0.0000061831465246
  0
VERTEX
  5
12D
330
FA
100
AcDbEntity
  8
OracDecor_cornice_mouldings
 62
    41
420
 14997145
100
AcDbVertex
100
AcDb2dVertex
 10
-49.01618194580078
 20
-31.49285697937012
 30
0.0000061831465246
  0
VERTEX
  5
12E
330
FA
100
AcDbEntity
  8
OracDecor_cornice_mouldings
 62
    41
420
 14997145
100
AcDbVertex
100
AcDb2dVertex
 10
-47.22666931152343
 20
-32.53518676757813
 30
0.0000061831465246
  0
VERTEX
  5
12F
330
FA
100
AcDbEntity
  8
OracDecor_cornice_mouldings
 62
    41
420
 14997145
100
AcDbVertex
100
AcDb2dVertex
 10
-46.04204940795898
 20
-33.06233596801758
 30
0.0000061831465246
  0
VERTEX
  5
130
330
FA
100
AcDbEntity
  8
OracDecor_cornice_mouldings
 62
    41
420
 14997145
100
AcDbVertex
100
AcDb2dVertex
 10
-43.80128860473632
 20
-33.86603546142578
 30
0.0000061831465246
  0
VERTEX
  5
131
330
FA
100
AcDbEntity
  8
OracDecor_cornice_mouldings
 62
    41
420
 14997145
100
AcDbVertex
100
AcDb2dVertex
 10
-35.8841781616211
 20
-36.32724380493164
 30
0.0000061831465246
  0
VERTEX
  5
132
330
FA
100
AcDbEntity
  8
OracDecor_cornice_mouldings
 62
    41
420
 14997145
100
AcDbVertex
100
AcDb2dVertex
 10
-32.67215347290039
 20
-37.41511154174805
 30
0.0000061831465246
  0
VERTEX
  5
133
330
FA
100
AcDbEntity
  8
OracDecor_cornice_mouldings
 62
    41
420
 14997145
100
AcDbVertex
100
AcDb2dVertex
 10
-30.86275863647461
 20
-38.2203369140625
 30
0.0000061831465246
  0
VERTEX
  5
134
330
FA
100
AcDbEntity
  8
OracDecor_cornice_mouldings
 62
    41
420
 14997145
100
AcDbVertex
100
AcDb2dVertex
 10
-29.11487197875977
 20
-39.30705261230469
 30
0.0000061831465246
  0
VERTEX
  5
135
330
FA
100
AcDbEntity
  8
OracDecor_cornice_mouldings
 62
    41
420
 14997145
100
AcDbVertex
100
AcDb2dVertex
 10
-27.55306243896484
 20
-40.66628265380859
 30
0.0000061831465246
  0
VERTEX
  5
136
330
FA
100
AcDbEntity
  8
OracDecor_cornice_mouldings
 62
    41
420
 14997145
100
AcDbVertex
100
AcDb2dVertex
 10
-26.10514068603516
 20
-42.36580657958984
 30
0.0000061831465246
  0
VERTEX
  5
137
330
FA
100
AcDbEntity
  8
OracDecor_cornice_mouldings
 62
    41
420
 14997145
100
AcDbVertex
100
AcDb2dVertex
 10
-24.79432678222656
 20
-44.67300415039062
 30
0.0000061831465246
  0
VERTEX
  5
138
330
FA
100
AcDbEntity
  8
OracDecor_cornice_mouldings
 62
    41
420
 14997145
100
AcDbVertex
100
AcDb2dVertex
 10
-24.13982009887695
 20
-46.91217803955078
 30
0.0000061831465246
  0
VERTEX
  5
139
330
FA
100
AcDbEntity
  8
OracDecor_cornice_mouldings
 62
    41
420
 14997145
100
AcDbVertex
100
AcDb2dVertex
 10
-23.9999942779541
 20
-48.92495727539063
 30
0.0000061831465246
  0
VERTEX
  5
13A
330
FA
100
AcDbEntity
  8
OracDecor_cornice_mouldings
 62
    41
420
 14997145
100
AcDbVertex
100
AcDb2dVertex
 10
-18.9999942779541
 20
-48.92495727539063
 30
0.0000061831465246
  0
VERTEX
  5
13B
330
FA
100
AcDbEntity
  8
OracDecor_cornice_mouldings
 62
    41
420
 14997145
100
AcDbVertex
100
AcDb2dVertex
 10
-18.9999942779541
 20
-54.07495880126953
 30
0.0000061831465246
  0
VERTEX
  5
13C
330
FA
100
AcDbEntity
  8
OracDecor_cornice_mouldings
 62
    41
420
 14997145
100
AcDbVertex
100
AcDb2dVertex
 10
-16.84404373168945
 20
-54.75037384033203
 30
0.0000061831465246
  0
VERTEX
  5
13D
330
FA
100
AcDbEntity
  8
OracDecor_cornice_mouldings
 62
    41
420
 14997145
100
AcDbVertex
100
AcDb2dVertex
 10
-15.50611305236816
 20
-55.39331817626953
 30
0.0000061831465246
  0
VERTEX
  5
13E
330
FA
100
AcDbEntity
  8
OracDecor_cornice_mouldings
 62
    41
420
 14997145
100
AcDbVertex
100
AcDb2dVertex
 10
-14.23773002624512
 20
-56.24685668945312
 30
0.0000061831465246
  0
VERTEX
  5
13F
330
FA
100
AcDbEntity
  8
OracDecor_cornice_mouldings
 62
    41
420
 14997145
100
AcDbVertex
100
AcDb2dVertex
 10
-13.13575553894043
 20
-57.24207305908203
 30
0.0000061831465246
  0
VERTEX
  5
140
330
FA
100
AcDbEntity
  8
OracDecor_cornice_mouldings
 62
    41
420
 14997145
100
AcDbVertex
100
AcDb2dVertex
 10
-12.14180850982666
 20
-58.43647003173828
 30
0.0000061831465246
  0
VERTEX
  5
141
330
FA
100
AcDbEntity
  8
OracDecor_cornice_mouldings
 62
    41
420
 14997145
100
AcDbVertex
100
AcDb2dVertex
 10
-11.36023616790771
 20
-59.69954681396484
 30
0.0000061831465246
  0
VERTEX
  5
142
330
FA
100
AcDbEntity
  8
OracDecor_cornice_mouldings
 62
    41
420
 14997145
100
AcDbVertex
100
AcDb2dVertex
 10
-10.72578907012939
 20
-61.14277267456055
 30
0.0000061831465246
  0
VERTEX
  5
143
330
FA
100
AcDbEntity
  8
OracDecor_cornice_mouldings
 62
    41
420
 14997145
100
AcDbVertex
100
AcDb2dVertex
 10
-10.32105159759521
 20
-62.572265625
 30
0.0000061831465246
  0
VERTEX
  5
144
330
FA
100
AcDbEntity
  8
OracDecor_cornice_mouldings
 62
    41
420
 14997145
100
AcDbVertex
100
AcDb2dVertex
 10
-9.999993324279785
 20
-64.88995361328125
 30
0.0000061831465246
  0
VERTEX
  5
145
330
FA
100
AcDbEntity
  8
OracDecor_cornice_mouldings
 62
    41
420
 14997145
100
AcDbVertex
100
AcDb2dVertex
 10
0.0000084008488557
 20
-64.88995361328125
 30
0.0000061831465246
  0
VERTEX
  5
146
330
FA
100
AcDbEntity
  8
OracDecor_cornice_mouldings
 62
    41
420
 14997145
100
AcDbVertex
100
AcDb2dVertex
 10
0.0000043733484745
 20
-60.02156066894531
 30
0.0000061831465246
  0
VERTEX
  5
147
330
FA
100
AcDbEntity
  8
OracDecor_cornice_mouldings
 62
    41
420
 14997145
100
AcDbVertex
100
AcDb2dVertex
 10
-0.3929323256015777
 20
-60.04566955566406
 30
0.0000061831465246
  0
VERTEX
  5
148
330
FA
100
AcDbEntity
  8
OracDecor_cornice_mouldings
 62
    41
420
 14997145
100
AcDbVertex
100
AcDb2dVertex
 10
-0.7405523657798767
 20
-60.02529144287109
 30
0.0000061831465246
  0
VERTEX
  5
149
330
FA
100
AcDbEntity
  8
OracDecor_cornice_mouldings
 62
    41
420
 14997145
100
AcDbVertex
100
AcDb2dVertex
 10
-1.271874785423278
 20
-59.86211395263672
 30
0.0000061831465246
  0
VERTEX
  5
14A
330
FA
100
AcDbEntity
  8
OracDecor_cornice_mouldings
 62
    41
420
 14997145
100
AcDbVertex
100
AcDb2dVertex
 10
-1.729447722434997
 20
-59.53953170776367
 30
0.0000061831465246
  0
VERTEX
  5
14B
330
FA
100
AcDbEntity
  8
OracDecor_cornice_mouldings
 62
    41
420
 14997145
100
AcDbVertex
100
AcDb2dVertex
 10
-2.069468975067138
 20
-59.0883903503418
 30
0.0000061831465246
  0
VERTEX
  5
14C
330
FA
100
AcDbEntity
  8
OracDecor_cornice_mouldings
 62
    41
420
 14997145
100
AcDbVertex
100
AcDb2dVertex
 10
-2.259427547454833
 20
-58.55182647705078
 30
0.0000061831465246
  0
VERTEX
  5
14D
330
FA
100
AcDbEntity
  8
OracDecor_cornice_mouldings
 62
    41
420
 14997145
100
AcDbVertex
100
AcDb2dVertex
 10
-2.281161785125732
 20
-57.98114395141602
 30
0.0000061831465246
  0
VERTEX
  5
14E
330
FA
100
AcDbEntity
  8
OracDecor_cornice_mouldings
 62
    41
420
 14997145
100
AcDbVertex
100
AcDb2dVertex
 10
-2.132596492767333
 20
-57.43090438842774
 30
0.0000061831465246
  0
VERTEX
  5
14F
330
FA
100
AcDbEntity
  8
OracDecor_cornice_mouldings
 62
    41
420
 14997145
100
AcDbVertex
100
AcDb2dVertex
 10
-1.900279521942138
 20
-57.03167724609375
 30
0.0000061831465246
  0
VERTEX
  5
150
330
FA
100
AcDbEntity
  8
OracDecor_cornice_mouldings
 62
    41
420
 14997145
100
AcDbVertex
100
AcDb2dVertex
 10
0.0000041405978664
 20
-54.69689178466797
 30
0.0000061831465246
  0
VERTEX
  5
151
330
FA
100
AcDbEntity
  8
OracDecor_cornice_mouldings
 62
    41
420
 14997145
100
AcDbVertex
100
AcDb2dVertex
 10
0.0000038207649595
 20
-47.37995910644531
 30
0.0000061831465246
  0
SEQEND
  5
152
330
FA
100
AcDbEntity
  8
OracDecor_cornice_mouldings
 62
    41
420
 14997145
  0
ENDSEC
  0
SECTION
  2
OBJECTS
  0
DICTIONARY
  5
C
330
0
100
AcDbDictionary
281
     1
  3
ACAD_COLOR
350
DC
  3
ACAD_DETAILVIEWSTYLE
350
F5
  3
ACAD_GROUP
350
D
  3
ACAD_LAYOUT
350
1A
  3
ACAD_MATERIAL
350
AA
  3
ACAD_MLEADERSTYLE
350
F1
  3
ACAD_MLINESTYLE
350
17
  3
ACAD_PLOTSETTINGS
350
19
  3
ACAD_PLOTSTYLENAME
350
E
  3
ACAD_SCALELIST
350
DF
  3
ACAD_SECTIONVIEWSTYLE
350
F3
  3
ACAD_TABLESTYLE
350
DD
  3
ACAD_VISUALSTYLE
350
C3
  3
ACDB_RECOMPOSE_DATA
350
15F
  3
AcDbVariableDictionary
350
153
  0
DICTIONARY
  5
DC
102
{ACAD_REACTORS
330
C
102
}
330
C
100
AcDbDictionary
281
     1
  0
DICTIONARY
  5
F5
102
{ACAD_REACTORS
330
C
102
}
330
C
100
AcDbDictionary
281
     1
  3
Imperial24
350
F6
  0
DICTIONARY
  5
D
102
{ACAD_REACTORS
330
C
102
}
330
C
100
AcDbDictionary
281
     1
  0
DICTIONARY
  5
1A
102
{ACAD_REACTORS
330
C
102
}
330
C
100
AcDbDictionary
281
     1
  3
Layout1
350
1E
  3
Layout2
350
26
  3
Model
350
22
  0
DICTIONARY
  5
AA
102
{ACAD_REACTORS
330
C
102
}
330
C
100
AcDbDictionary
281
     1
  3
ByBlock
350
B3
  3
ByLayer
350
AB
  3
Global
350
BB
  0
DICTIONARY
  5
F1
102
{ACAD_REACTORS
330
C
102
}
330
C
100
AcDbDictionary
281
     1
  3
Standard
350
F2
  0
DICTIONARY
  5
17
102
{ACAD_REACTORS
330
C
102
}
330
C
100
AcDbDictionary
281
     1
  3
Standard
350
18
  0
DICTIONARY
  5
19
102
{ACAD_REACTORS
330
C
102
}
330
C
100
AcDbDictionary
281
     1
  0
ACDBDICTIONARYWDFLT
  5
E
102
{ACAD_REACTORS
330
C
102
}
330
C
100
AcDbDictionary
281
     1
  3
ByLayer
350
2D
  3
Normal
350
F
100
AcDbDictionaryWithDefault
340
F
  0
DICTIONARY
  5
DF
102
{ACAD_REACTORS
330
C
102
}
330
C
100
AcDbDictionary
281
     1
  3
A0
350
E0
  3
A1
350
E1
  3
A2
350
E2
  3
A3
350
E3
  3
A4
350
E4
  3
A5
350
E5
  3
A6
350
E6
  3
A7
350
E7
  3
A8
350
E8
  3
A9
350
E9
  3
B0
350
EA
  3
B1
350
EB
  3
B2
350
EC
  3
B3
350
ED
  3
B4
350
EE
  3
B5
350
EF
  3
B6
350
F0
  0
DICTIONARY
  5
F3
102
{ACAD_REACTORS
330
C
102
}
330
C
100
AcDbDictionary
281
     1
  3
Imperial24
350
F4
  0
DICTIONARY
  5
DD
102
{ACAD_REACTORS
330
C
102
}
330
C
100
AcDbDictionary
281
     1
  3
Standard
350
DE
  0
DICTIONARY
  5
C3
102
{ACAD_REACTORS
330
C
102
}
330
C
100
AcDbDictionary
281
     1
  3
2dWireframe
350
C9
  3
Basic
350
C8
  3
Brighten
350
CF
  3
ColorChange
350
D3
  3
Conceptual
350
CC
  3
Dim
350
CE
  3
EdgeColorOff
350
DB
  3
Facepattern
350
D2
  3
Flat
350
C4
  3
FlatWithEdges
350
C5
  3
Gouraud
350
C6
  3
GouraudWithEdges
350
C7
  3
Hidden
350
CB
  3
JitterOff
350
D9
  3
Linepattern
350
D1
  3
OverhangOff
350
DA
  3
Realistic
350
CD
  3
Shaded
350
D8
  3
Shaded with edges
350
D7
  3
Shades of Gray
350
D4
  3
Sketchy
350
D5
  3
Thicken
350
D0
  3
Wireframe
350
CA
  3
X-Ray
350
D6
  0
XRECORD
  5
15F
102
{ACAD_REACTORS
330
C
102
}
330
C
100
AcDbXrecord
280
     1
 90
        1
330
DE
  0
DICTIONARY
  5
153
102
{ACAD_REACTORS
330
C
102
}
330
C
100
AcDbDictionary
281
     1
  3
CANNOSCALE
350
159
  3
CMLEADERSTYLE
350
155
  3
CTABLESTYLE
350
154
  3
CVIEWDETAILSTYLE
350
156
  3
CVIEWSECTIONSTYLE
350
157
  3
LAYEREVAL
350
15B
  3
LAYERNOTIFY
350
15C
  3
LIGHTINGUNITS
350
15A
  3
MSLTSCALE
350
158
  0
ACDBDETAILVIEWSTYLE
  5
F6
102
{ACAD_XDICTIONARY
360
194
102
}
102
{ACAD_REACTORS
330
F5
102
}
330
F5
100
AcDbModelDocViewStyle
 70
     0
  3
Imperial24
290
     0
100
AcDbDetailViewStyle
 70
     0
 71
     0
 90
        3
 71
     1
340
11
 62
   256
 40
0.24
340
0
 62
   256
 40
0.24
300

 40
0.36
280
     3
 71
     2
340
16
 90
       25
 62
   256
 71
     3
340
11
 62
   256
 40
0.24
 90
        1
 40
0.75
 90
        1
300
%<\AcVar ViewType \f "%tc1">% %<\AcVar ViewDetailId>%\PSCALE %<\AcVar ViewScale \f "%sn">%
 71
     4
340
16
 90
       25
 62
   256
340
16
 90
       25
 62
   256
280
     0
  0
LAYOUT
  5
1E
102
{ACAD_REACTORS
330
1A
102
}
330
1A
100
AcDbPlotSettings
  1

  2
\\KTXNTBDC\CASF2PN1
  4

  6

 40
0.0
 41
0.0
 42
0.0
 43
0.0
 44
0.0
 45
0.0
 46
0.0
 47
0.0
 48
0.0
 49
0.0
140
0.0
141
0.0
142
1.0
143
1.0
 70
   688
 72
     0
 73
     0
 74
     5
  7

 75
    16
147
1.0
 76
     0
 77
     2
 78
   300
148
0.0
149
0.0
100
AcDbLayout
  1
Layout1
 70
     1
 71
     1
 10
0.0
 20
0.0
 11
12.0
 21
9.0
 12
0.0
 22
0.0
 32
0.0
 14
1.000000000000000E+20
 24
1.000000000000000E+20
 34
1.000000000000000E+20
 15
-1.000000000000000E+20
 25
-1.000000000000000E+20
 35
-1.000000000000000E+20
146
0.0
 13
0.0
 23
0.0
 33
0.0
 16
1.0
 26
0.0
 36
0.0
 17
0.0
 27
1.0
 37
0.0
 76
     0
330
1B
  0
LAYOUT
  5
26
102
{ACAD_REACTORS
330
1A
102
}
330
1A
100
AcDbPlotSettings
  1

  2
\\KTXNTBDC\CASF2PN1
  4

  6

 40
0.0
 41
0.0
 42
0.0
 43
0.0
 44
0.0
 45
0.0
 46
0.0
 47
0.0
 48
0.0
 49
0.0
140
0.0
141
0.0
142
1.0
143
1.0
 70
   688
 72
     0
 73
     0
 74
     5
  7

 75
    16
147
1.0
 76
     0
 77
     2
 78
   300
148
0.0
149
0.0
100
AcDbLayout
  1
Layout2
 70
     1
 71
     2
 10
0.0
 20
0.0
 11
12.0
 21
9.0
 12
0.0
 22
0.0
 32
0.0
 14
0.0
 24
0.0
 34
0.0
 15
0.0
 25
0.0
 35
0.0
146
0.0
 13
0.0
 23
0.0
 33
0.0
 16
1.0
 26
0.0
 36
0.0
 17
0.0
 27
1.0
 37
0.0
 76
     0
330
23
  0
LAYOUT
  5
22
102
{ACAD_REACTORS
330
1A
102
}
330
1A
100
AcDbPlotSettings
  1

  2
\\KTXNTBDC\CASF2PN1
  4

  6

 40
0.0
 41
0.0
 42
0.0
 43
0.0
 44
0.0
 45
0.0
 46
0.0
 47
0.0
 48
0.0
 49
0.0
140
0.0
141
0.0
142
1.0
143
1.0
 70
  1712
 72
     0
 73
     0
 74
     0
  7

 75
     0
147
1.0
 76
     0
 77
     2
 78
   300
148
0.0
149
0.0
100
AcDbLayout
  1
Model
 70
     1
 71
     0
 10
0.0
 20
0.0
 11
12.0
 21
9.0
 12
0.0
 22
0.0
 32
0.0
 14
0.0
 24
0.0
 34
0.0
 15
0.0
 25
0.0
 35
0.0
146
0.0
 13
0.0
 23
0.0
 33
0.0
 16
1.0
 26
0.0
 36
0.0
 17
0.0
 27
1.0
 37
0.0
 76
     0
330
1F
  0
MATERIAL
  5
B3
102
{ACAD_XDICTIONARY
360
B4
102
}
102
{ACAD_REACTORS
330
AA
102
}
330
AA
100
AcDbMaterial
  1
ByBlock
 72
     0
 43
0.0208333333333333
 43
0.0
 43
0.0
 43
0.0
 43
0.0
 43
0.0208333333333333
 43
0.0
 43
0.0
 43
0.0
 43
0.0
 43
1.0
 43
0.0
 43
0.0
 43
0.0
 43
0.0
 43
1.0
 77
     0
 47
0.0208333333333333
 47
0.0
 47
0.0
 47
0.0
 47
0.0
 47
0.0208333333333333
 47
0.0
 47
0.0
 47
0.0
 47
0.0
 47
1.0
 47
0.0
 47
0.0
 47
0.0
 47
0.0
 47
1.0
171
     0
 49
0.0208333333333333
 49
0.0
 49
0.0
 49
0.0
 49
0.0
 49
0.0208333333333333
 49
0.0
 49
0.0
 49
0.0
 49
0.0
 49
1.0
 49
0.0
 49
0.0
 49
0.0
 49
0.0
 49
1.0
175
     0
142
0.0208333333333333
142
0.0
142
0.0
142
0.0
142
0.0
142
0.0208333333333333
142
0.0
142
0.0
142
0.0
142
0.0
142
1.0
142
0.0
142
0.0
142
0.0
142
0.0
142
1.0
179
     0
144
0.0208333333333333
144
0.0
144
0.0
144
0.0
144
0.0
144
0.0208333333333333
144
0.0
144
0.0
144
0.0
144
0.0
144
1.0
144
0.0
144
0.0
144
0.0
144
0.0
144
1.0
147
0.0208333333333333
147
0.0
147
0.0
147
0.0
147
0.0
147
0.0208333333333333
147
0.0
147
0.0
147
0.0
147
0.0
147
1.0
147
0.0
147
0.0
147
0.0
147
0.0
147
1.0
  0
MATERIAL
  5
AB
102
{ACAD_XDICTIONARY
360
AC
102
}
102
{ACAD_REACTORS
330
AA
102
}
330
AA
100
AcDbMaterial
  1
ByLayer
 72
     0
 43
0.0208333333333333
 43
0.0
 43
0.0
 43
0.0
 43
0.0
 43
0.0208333333333333
 43
0.0
 43
0.0
 43
0.0
 43
0.0
 43
1.0
 43
0.0
 43
0.0
 43
0.0
 43
0.0
 43
1.0
 77
     0
 47
0.0208333333333333
 47
0.0
 47
0.0
 47
0.0
 47
0.0
 47
0.0208333333333333
 47
0.0
 47
0.0
 47
0.0
 47
0.0
 47
1.0
 47
0.0
 47
0.0
 47
0.0
 47
0.0
 47
1.0
171
     0
 49
0.0208333333333333
 49
0.0
 49
0.0
 49
0.0
 49
0.0
 49
0.0208333333333333
 49
0.0
 49
0.0
 49
0.0
 49
0.0
 49
1.0
 49
0.0
 49
0.0
 49
0.0
 49
0.0
 49
1.0
175
     0
142
0.0208333333333333
142
0.0
142
0.0
142
0.0
142
0.0
142
0.0208333333333333
142
0.0
142
0.0
142
0.0
142
0.0
142
1.0
142
0.0
142
0.0
142
0.0
142
0.0
142
1.0
179
     0
144
0.0208333333333333
144
0.0
144
0.0
144
0.0
144
0.0
144
0.0208333333333333
144
0.0
144
0.0
144
0.0
144
0.0
144
1.0
144
0.0
144
0.0
144
0.0
144
0.0
144
1.0
147
0.0208333333333333
147
0.0
147
0.0
147
0.0
147
0.0
147
0.0208333333333333
147
0.0
147
0.0
147
0.0
147
0.0
147
1.0
147
0.0
147
0.0
147
0.0
147
0.0
147
1.0
  0
MATERIAL
  5
BB
102
{ACAD_XDICTIONARY
360
BC
102
}
102
{ACAD_REACTORS
330
AA
102
}
330
AA
100
AcDbMaterial
  1
Global
 72
     0
 43
0.0208333333333333
 43
0.0
 43
0.0
 43
0.0
 43
0.0
 43
0.0208333333333333
 43
0.0
 43
0.0
 43
0.0
 43
0.0
 43
1.0
 43
0.0
 43
0.0
 43
0.0
 43
0.0
 43
1.0
 77
     0
 47
0.0208333333333333
 47
0.0
 47
0.0
 47
0.0
 47
0.0
 47
0.0208333333333333
 47
0.0
 47
0.0
 47
0.0
 47
0.0
 47
1.0
 47
0.0
 47
0.0
 47
0.0
 47
0.0
 47
1.0
171
     0
 49
0.0208333333333333
 49
0.0
 49
0.0
 49
0.0
 49
0.0
 49
0.0208333333333333
 49
0.0
 49
0.0
 49
0.0
 49
0.0
 49
1.0
 49
0.0
 49
0.0
 49
0.0
 49
0.0
 49
1.0
175
     0
142
0.0208333333333333
142
0.0
142
0.0
142
0.0
142
0.0
142
0.0208333333333333
142
0.0
142
0.0
142
0.0
142
0.0
142
1.0
142
0.0
142
0.0
142
0.0
142
0.0
142
1.0
179
     0
144
0.0208333333333333
144
0.0
144
0.0
144
0.0
144
0.0
144
0.0208333333333333
144
0.0
144
0.0
144
0.0
144
0.0
144
1.0
144
0.0
144
0.0
144
0.0
144
0.0
144
1.0
147
0.0208333333333333
147
0.0
147
0.0
147
0.0
147
0.0
147
0.0208333333333333
147
0.0
147
0.0
147
0.0
147
0.0
147
1.0
147
0.0
147
0.0
147
0.0
147
0.0
147
1.0
  0
MLEADERSTYLE
  5
F2
102
{ACAD_XDICTIONARY
360
190
102
}
102
{ACAD_REACTORS
330
F1
102
}
330
F1
100
AcDbMLeaderStyle
179
     2
170
     2
171
     1
172
     0
 90
        2
 40
0.0
 41
0.0
173
     1
 91
-1056964608
340
14
 92
       -2
290
     1
 42
0.09
291
     1
 43
0.36
  3
Standard
 44
0.18
300

342
11
174
     1
178
     6
175
     1
176
     0
 93
-1056964608
 45
0.18
292
     0
297
     0
 46
0.18
 94
-1056964608
 47
1.0
 49
1.0
140
1.0
293
     1
141
0.0
294
     1
177
     0
142
1.0
295
     0
296
     0
143
0.125
271
     0
272
     9
273
     9
  0
MLINESTYLE
  5
18
102
{ACAD_REACTORS
330
17
102
}
330
17
100
AcDbMlineStyle
  2
STANDARD
 70
     0
  3

 62
   256
 51
90.0
 52
90.0
 71
     2
 49
0.5
 62
   256
  6
BYLAYER
 49
-0.5
 62
   256
  6
BYLAYER
  0
ACDBPLACEHOLDER
  5
2D
102
{ACAD_REACTORS
330
E
102
}
330
E
  0
ACDBPLACEHOLDER
  5
F
102
{ACAD_REACTORS
330
E
102
}
330
E
  0
SCALE
  5
E0
102
{ACAD_REACTORS
330
DF
102
}
330
DF
100
AcDbScale
 70
     0
300
1:1
140
1.0
141
1.0
290
     1
  0
SCALE
  5
E1
102
{ACAD_REACTORS
330
DF
102
}
330
DF
100
AcDbScale
 70
     0
300
1/128" = 1'-0"
140
0.0078125
141
12.0
290
     0
  0
SCALE
  5
E2
102
{ACAD_REACTORS
330
DF
102
}
330
DF
100
AcDbScale
 70
     0
300
1/64" = 1'-0"
140
0.015625
141
12.0
290
     0
  0
SCALE
  5
E3
102
{ACAD_REACTORS
330
DF
102
}
330
DF
100
AcDbScale
 70
     0
300
1/32" = 1'-0"
140
0.03125
141
12.0
290
     0
  0
SCALE
  5
E4
102
{ACAD_REACTORS
330
DF
102
}
330
DF
100
AcDbScale
 70
     0
300
1/16" = 1'-0"
140
0.0625
141
12.0
290
     0
  0
SCALE
  5
E5
102
{ACAD_REACTORS
330
DF
102
}
330
DF
100
AcDbScale
 70
     0
300
3/32" = 1'-0"
140
0.09375
141
12.0
290
     0
  0
SCALE
  5
E6
102
{ACAD_REACTORS
330
DF
102
}
330
DF
100
AcDbScale
 70
     0
300
1/8" = 1'-0"
140
0.125
141
12.0
290
     0
  0
SCALE
  5
E7
102
{ACAD_REACTORS
330
DF
102
}
330
DF
100
AcDbScale
 70
     0
300
3/16" = 1'-0"
140
0.1875
141
12.0
290
     0
  0
SCALE
  5
E8
102
{ACAD_REACTORS
330
DF
102
}
330
DF
100
AcDbScale
 70
     0
300
1/4" = 1'-0"
140
0.25
141
12.0
290
     0
  0
SCALE
  5
E9
102
{ACAD_REACTORS
330
DF
102
}
330
DF
100
AcDbScale
 70
     0
300
3/8" = 1'-0"
140
0.375
141
12.0
290
     0
  0
SCALE
  5
EA
102
{ACAD_REACTORS
330
DF
102
}
330
DF
100
AcDbScale
 70
     0
300
1/2" = 1'-0"
140
0.5
141
12.0
290
     0
  0
SCALE
  5
EB
102
{ACAD_REACTORS
330
DF
102
}
330
DF
100
AcDbScale
 70
     0
300
3/4" = 1'-0"
140
0.75
141
12.0
290
     0
  0
SCALE
  5
EC
102
{ACAD_REACTORS
330
DF
102
}
330
DF
100
AcDbScale
 70
     0
300
1" = 1'-0"
140
1.0
141
12.0
290
     0
  0
SCALE
  5
ED
102
{ACAD_REACTORS
330
DF
102
}
330
DF
100
AcDbScale
 70
     0
300
1-1/2" = 1'-0"
140
1.5
141
12.0
290
     0
  0
SCALE
  5
EE
102
{ACAD_REACTORS
330
DF
102
}
330
DF
100
AcDbScale
 70
     0
300
3" = 1'-0"
140
3.0
141
12.0
290
     0
  0
SCALE
  5
EF
102
{ACAD_REACTORS
330
DF
102
}
330
DF
100
AcDbScale
 70
     0
300
6" = 1'-0"
140
6.0
141
12.0
290
     0
  0
SCALE
  5
F0
102
{ACAD_REACTORS
330
DF
102
}
330
DF
100
AcDbScale
 70
     0
300
1'-0" = 1'-0"
140
12.0
141
12.0
290
     0
  0
ACDBSECTIONVIEWSTYLE
  5
F4
102
{ACAD_XDICTIONARY
360
192
102
}
102
{ACAD_REACTORS
330
F3
102
}
330
F3
100
AcDbModelDocViewStyle
 70
     0
  3
Imperial24
290
     0
100
AcDbSectionViewStyle
 70
     0
 71
     0
 90
       78
 71
     1
340
11
 62
   256
 40
0.24
340
0
340
0
 62
   256
 40
0.24
300
I, O, Q, S, X, Z
 40
0.48
 90
        3
 40
0.18
 90
        1
 71
     2
340
16
 90
       25
 62
   256
340
16
 90
       50
 62
   256
 40
0.24
 40
0.0
 40
0.24
 71
     3
340
11
 62
   256
 40
0.24
 90
        1
 40
0.75
 90
        1
300
%<\AcVar ViewType \f "%tc1">% %<\AcVar ViewSectionStartId>%-%<\AcVar ViewSectionEndId>%\PSCALE %<\AcVar ViewScale \f "%sn">%
 71
     4
 62
   256
 62
   257
300
ANSI31
 40
1.0
 90
        0
290
     0
290
     0
 90
        6
 40
0.0
 40
1.570796326794896
 40
0.2617993877991494
 40
1.308996938995747
 40
-0.2617993877991494
 40
1.832595714594046
  0
TABLESTYLE
  5
DE
102
{ACAD_XDICTIONARY
360
15D
102
}
102
{ACAD_REACTORS
330
DD
102
}
330
DD
100
AcDbTableStyle
280
     0
  3
Standard
 70
     0
 71
     0
 40
0.06
 41
0.06
280
     0
281
     0
  7
Standard
140
0.18
170
     2
 62
     0
 63
     7
283
     0
 90
      512
 91
        0
  1

274
    -2
284
     1
 64
     0
275
    -2
285
     1
 65
     0
276
    -2
286
     1
 66
     0
277
    -2
287
     1
 67
     0
278
    -2
288
     1
 68
     0
279
    -2
289
     1
 69
     0
  7
Standard
140
0.25
170
     5
 62
     0
 63
     7
283
     0
 90
      512
 91
        0
  1

274
    -2
284
     1
 64
     0
275
    -2
285
     1
 65
     0
276
    -2
286
     1
 66
     0
277
    -2
287
     1
 67
     0
278
    -2
288
     1
 68
     0
279
    -2
289
     1
 69
     0
  7
Standard
140
0.18
170
     5
 62
     0
 63
     7
283
     0
 90
      512
 91
        0
  1

274
    -2
284
     1
 64
     0
275
    -2
285
     1
 65
     0
276
    -2
286
     1
 66
     0
277
    -2
287
     1
 67
     0
278
    -2
288
     1
 68
     0
279
    -2
289
     1
 69
     0
  0
VISUALSTYLE
  5
C9
102
{ACAD_XDICTIONARY
360
16A
102
}
102
{ACAD_REACTORS
330
C3
102
}
330
C3
100
AcDbVisualStyle
  2
2dWireframe
 70
     4
177
     2
291
     0
 71
     0
176
     1
 72
     2
176
     1
 73
     0
176
     1
 90
        0
176
     1
 40
0.6
176
     1
 41
30.0
176
     1
 63
     7
421
 16777215
176
     1
 74
     1
176
     1
 91
        4
176
     1
 64
     7
176
     1
 65
   257
176
     1
 75
     1
176
     1
175
     1
176
     1
 42
1.0
176
     1
 92
        0
176
     1
 66
   257
176
     1
 43
1.0
176
     1
 76
     1
176
     1
 77
     6
176
     1
 78
     2
176
     1
 67
     7
176
     1
 79
     5
176
     1
170
     0
176
     1
171
     0
176
     1
290
     0
176
     1
 93
        1
176
     1
 44
0.0
176
     1
173
     0
176
     1
1001
ACAD
1000
AcDbSavedByObjectVersion
1070
     0
  0
VISUALSTYLE
  5
C8
102
{ACAD_XDICTIONARY
360
168
102
}
102
{ACAD_REACTORS
330
C3
102
}
330
C3
100
AcDbVisualStyle
  2
Basic
 70
     7
177
     2
291
     1
 71
     1
176
     1
 72
     0
176
     1
 73
     1
176
     1
 90
        0
176
     1
 40
0.6
176
     1
 41
30.0
176
     1
 63
     7
421
 16777215
176
     1
 74
     0
176
     1
 91
        4
176
     1
 64
     7
176
     1
 65
   257
176
     1
 75
     1
176
     1
175
     1
176
     1
 42
1.0
176
     1
 92
        8
176
     1
 66
     7
176
     1
 43
1.0
176
     1
 76
     1
176
     1
 77
     6
176
     1
 78
     2
176
     1
 67
     7
176
     1
 79
     5
176
     1
170
     0
176
     1
171
     0
176
     1
290
     0
176
     1
 93
        1
176
     1
 44
0.0
176
     1
173
     0
176
     1
1001
ACAD
1000
AcDbSavedByObjectVersion
1070
     0
  0
VISUALSTYLE
  5
CF
102
{ACAD_XDICTIONARY
360
176
102
}
102
{ACAD_REACTORS
330
C3
102
}
330
C3
100
AcDbVisualStyle
  2
Brighten
 70
    12
177
     2
291
     1
 71
     2
176
     1
 72
     2
176
     1
 73
     0
176
     1
 90
        0
176
     1
 40
0.6
176
     1
 41
30.0
176
     1
 63
     7
421
 16777215
176
     1
 74
     1
176
     1
 91
        4
176
     1
 64
     7
176
     1
 65
   257
176
     1
 75
     1
176
     1
175
     1
176
     1
 42
1.0
176
     1
 92
        8
176
     1
 66
     7
176
     1
 43
1.0
176
     1
 76
     1
176
     1
 77
     6
176
     1
 78
     2
176
     1
 67
     7
176
     1
 79
     5
176
     1
170
     0
176
     1
171
     0
176
     1
290
     0
176
     1
 93
        1
176
     1
 44
50.0
176
     1
173
     0
176
     1
1001
ACAD
1000
AcDbSavedByObjectVersion
1070
     0
  0
VISUALSTYLE
  5
D3
102
{ACAD_XDICTIONARY
360
17E
102
}
102
{ACAD_REACTORS
330
C3
102
}
330
C3
100
AcDbVisualStyle
  2
ColorChange
 70
    16
177
     2
291
     1
 71
     2
176
     1
 72
     2
176
     1
 73
     3
176
     1
 90
        0
176
     1
 40
0.6
176
     1
 41
30.0
176
     1
 63
     8
421
  8421504
176
     1
 74
     1
176
     1
 91
        4
176
     1
 64
     7
176
     1
 65
   257
176
     1
 75
     1
176
     1
175
     1
176
     1
 42
1.0
176
     1
 92
        8
176
     1
 66
     8
424
  8421504
176
     1
 43
1.0
176
     1
 76
     1
176
     1
 77
     6
176
     1
 78
     2
176
     1
 67
     7
176
     1
 79
     5
176
     1
170
     0
176
     1
171
     0
176
     1
290
     0
176
     1
 93
        1
176
     1
 44
0.0
176
     1
173
     0
176
     1
1001
ACAD
1000
AcDbSavedByObjectVersion
1070
     0
  0
VISUALSTYLE
  5
CC
102
{ACAD_XDICTIONARY
360
170
102
}
102
{ACAD_REACTORS
330
C3
102
}
330
C3
100
AcDbVisualStyle
  2
Conceptual
 70
     9
177
     2
291
     0
 71
     3
176
     1
 72
     2
176
     1
 73
     0
176
     1
 90
        0
176
     1
 40
0.6
176
     1
 41
30.0
176
     1
 63
     7
421
 16777215
176
     1
 74
     2
176
     1
 91
        2
176
     1
 64
     7
176
     1
 65
   257
176
     1
 75
     1
176
     1
175
     1
176
     1
 42
179.0
176
     1
 92
        8
176
     1
 66
     7
176
     1
 43
1.0
176
     1
 76
     1
176
     1
 77
     6
176
     1
 78
     2
176
     1
 67
     7
176
     1
 79
     3
176
     1
170
     0
176
     1
171
     0
176
     1
290
     0
176
     1
 93
        1
176
     1
 44
0.0
176
     1
173
     0
176
     1
1001
ACAD
1000
AcDbSavedByObjectVersion
1070
     0
  0
VISUALSTYLE
  5
CE
102
{ACAD_XDICTIONARY
360
174
102
}
102
{ACAD_REACTORS
330
C3
102
}
330
C3
100
AcDbVisualStyle
  2
Dim
 70
    11
177
     2
291
     1
 71
     2
176
     1
 72
     2
176
     1
 73
     0
176
     1
 90
        0
176
     1
 40
0.6
176
     1
 41
30.0
176
     1
 63
     7
421
 16777215
176
     1
 74
     1
176
     1
 91
        4
176
     1
 64
     7
176
     1
 65
   257
176
     1
 75
     1
176
     1
175
     1
176
     1
 42
1.0
176
     1
 92
        8
176
     1
 66
     7
176
     1
 43
1.0
176
     1
 76
     1
176
     1
 77
     6
176
     1
 78
     2
176
     1
 67
     7
176
     1
 79
     5
176
     1
170
     0
176
     1
171
     0
176
     1
290
     0
176
     1
 93
        1
176
     1
 44
-50.0
176
     1
173
     0
176
     1
1001
ACAD
1000
AcDbSavedByObjectVersion
1070
     0
  0
VISUALSTYLE
  5
DB
102
{ACAD_XDICTIONARY
360
18E
102
}
102
{ACAD_REACTORS
330
C3
102
}
330
C3
100
AcDbVisualStyle
  2
EdgeColorOff
 70
    22
177
     2
291
     1
 71
     2
176
     0
 72
     2
176
     0
 73
     0
176
     0
 90
        0
176
     0
 40
0.6
176
     0
 41
30.0
176
     0
 63
     7
421
 16777215
176
     0
 74
     1
176
     0
 91
        4
176
     0
 64
     7
176
     0
 65
   257
176
     0
 75
     1
176
     0
175
     1
176
     0
 42
1.0
176
     0
 92
        8
176
     2
 66
     7
176
     0
 43
1.0
176
     0
 76
     1
176
     0
 77
     6
176
     0
 78
     2
176
     0
 67
     7
176
     0
 79
     5
176
     0
170
     0
176
     0
171
     0
176
     0
290
     0
176
     0
 93
        1
176
     0
 44
0.0
176
     0
173
     0
176
     0
1001
ACAD
1000
AcDbSavedByObjectVersion
1070
     0
  0
VISUALSTYLE
  5
D2
102
{ACAD_XDICTIONARY
360
17C
102
}
102
{ACAD_REACTORS
330
C3
102
}
330
C3
100
AcDbVisualStyle
  2
Facepattern
 70
    15
177
     2
291
     1
 71
     2
176
     1
 72
     2
176
     1
 73
     0
176
     1
 90
        0
176
     1
 40
0.6
176
     1
 41
30.0
176
     1
 63
     7
421
 16777215
176
     1
 74
     1
176
     1
 91
        4
176
     1
 64
     7
176
     1
 65
   257
176
     1
 75
     1
176
     1
175
     1
176
     1
 42
1.0
176
     1
 92
        8
176
     1
 66
     7
176
     1
 43
1.0
176
     1
 76
     1
176
     1
 77
     6
176
     1
 78
     2
176
     1
 67
     7
176
     1
 79
     5
176
     1
170
     0
176
     1
171
     0
176
     1
290
     0
176
     1
 93
        1
176
     1
 44
0.0
176
     1
173
     0
176
     1
1001
ACAD
1000
AcDbSavedByObjectVersion
1070
     0
  0
VISUALSTYLE
  5
C4
102
{ACAD_XDICTIONARY
360
160
102
}
102
{ACAD_REACTORS
330
C3
102
}
330
C3
100
AcDbVisualStyle
  2
Flat
 70
     0
177
     2
291
     1
 71
     2
176
     1
 72
     1
176
     1
 73
     1
176
     1
 90
        2
176
     1
 40
0.6
176
     1
 41
30.0
176
     1
 63
     7
421
 16777215
176
     1
 74
     0
176
     1
 91
        0
176
     1
 64
     7
176
     1
 65
   257
176
     1
 75
     1
176
     1
175
     1
176
     1
 42
1.0
176
     1
 92
        8
176
     1
 66
     7
176
     1
 43
1.0
176
     1
 76
     1
176
     1
 77
     6
176
     1
 78
     2
176
     1
 67
     7
176
     1
 79
     5
176
     1
170
     0
176
     1
171
     0
176
     1
290
     0
176
     1
 93
       13
176
     1
 44
0.0
176
     1
173
     0
176
     1
1001
ACAD
1000
AcDbSavedByObjectVersion
1070
     0
  0
VISUALSTYLE
  5
C5
102
{ACAD_XDICTIONARY
360
162
102
}
102
{ACAD_REACTORS
330
C3
102
}
330
C3
100
AcDbVisualStyle
  2
FlatWithEdges
 70
     1
177
     2
291
     1
 71
     2
176
     1
 72
     1
176
     1
 73
     1
176
     1
 90
        2
176
     1
 40
0.6
176
     1
 41
30.0
176
     1
 63
     7
421
 16777215
176
     1
 74
     1
176
     1
 91
        0
176
     1
 64
     7
176
     1
 65
   257
176
     1
 75
     1
176
     1
175
     1
176
     1
 42
1.0
176
     1
 92
        0
176
     1
 66
   257
176
     1
 43
1.0
176
     1
 76
     1
176
     1
 77
     6
176
     1
 78
     2
176
     1
 67
     7
176
     1
 79
     5
176
     1
170
     0
176
     1
171
     0
176
     1
290
     0
176
     1
 93
       13
176
     1
 44
0.0
176
     1
173
     0
176
     1
1001
ACAD
1000
AcDbSavedByObjectVersion
1070
     0
  0
VISUALSTYLE
  5
C6
102
{ACAD_XDICTIONARY
360
164
102
}
102
{ACAD_REACTORS
330
C3
102
}
330
C3
100
AcDbVisualStyle
  2
Gouraud
 70
     2
177
     2
291
     1
 71
     2
176
     1
 72
     2
176
     1
 73
     1
176
     1
 90
        2
176
     1
 40
0.6
176
     1
 41
30.0
176
     1
 63
     7
421
 16777215
176
     1
 74
     0
176
     1
 91
        0
176
     1
 64
     7
176
     1
 65
   257
176
     1
 75
     1
176
     1
175
     1
176
     1
 42
1.0
176
     1
 92
        0
176
     1
 66
     7
176
     1
 43
1.0
176
     1
 76
     1
176
     1
 77
     6
176
     1
 78
     2
176
     1
 67
     7
176
     1
 79
     5
176
     1
170
     0
176
     1
171
     0
176
     1
290
     0
176
     1
 93
       13
176
     1
 44
0.0
176
     1
173
     0
176
     1
1001
ACAD
1000
AcDbSavedByObjectVersion
1070
     0
  0
VISUALSTYLE
  5
C7
102
{ACAD_XDICTIONARY
360
166
102
}
102
{ACAD_REACTORS
330
C3
102
}
330
C3
100
AcDbVisualStyle
  2
GouraudWithEdges
 70
     3
177
     2
291
     1
 71
     2
176
     1
 72
     2
176
     1
 73
     1
176
     1
 90
        2
176
     1
 40
0.6
176
     1
 41
30.0
176
     1
 63
     7
421
 16777215
176
     1
 74
     1
176
     1
 91
        0
176
     1
 64
     7
176
     1
 65
   257
176
     1
 75
     1
176
     1
175
     1
176
     1
 42
1.0
176
     1
 92
        0
176
     1
 66
   257
176
     1
 43
1.0
176
     1
 76
     1
176
     1
 77
     6
176
     1
 78
     2
176
     1
 67
     7
176
     1
 79
     5
176
     1
170
     0
176
     1
171
     0
176
     1
290
     0
176
     1
 93
       13
176
     1
 44
0.0
176
     1
173
     0
176
     1
1001
ACAD
1000
AcDbSavedByObjectVersion
1070
     0
  0
VISUALSTYLE
  5
CB
102
{ACAD_XDICTIONARY
360
16E
102
}
102
{ACAD_REACTORS
330
C3
102
}
330
C3
100
AcDbVisualStyle
  2
Hidden
 70
     6
177
     2
291
     0
 71
     1
176
     1
 72
     2
176
     1
 73
     2
176
     1
 90
        0
176
     1
 40
0.6
176
     1
 41
30.0
176
     1
 63
     7
421
 16777215
176
     1
 74
     2
176
     1
 91
        2
176
     1
 64
     7
176
     1
 65
   257
176
     1
 75
     2
176
     1
175
     1
176
     1
 42
40.0
176
     1
 92
        0
176
     1
 66
   257
176
     1
 43
1.0
176
     1
 76
     1
176
     1
 77
     6
176
     1
 78
     2
176
     1
 67
     7
176
     1
 79
     3
176
     1
170
     0
176
     1
171
     0
176
     1
290
     0
176
     1
 93
        1
176
     1
 44
0.0
176
     1
173
     0
176
     1
1001
ACAD
1000
AcDbSavedByObjectVersion
1070
     0
  0
VISUALSTYLE
  5
D9
102
{ACAD_XDICTIONARY
360
18A
102
}
102
{ACAD_REACTORS
330
C3
102
}
330
C3
100
AcDbVisualStyle
  2
JitterOff
 70
    20
177
     2
291
     1
 71
     2
176
     0
 72
     2
176
     0
 73
     0
176
     0
 90
        0
176
     0
 40
0.6
176
     0
 41
30.0
176
     0
 63
     7
421
 16777215
176
     0
 74
     1
176
     0
 91
        4
176
     0
 64
     7
176
     0
 65
   257
176
     0
 75
     1
176
     0
175
     1
176
     0
 42
1.0
176
     0
 92
       10
176
     2
 66
     7
176
     0
 43
1.0
176
     0
 76
     1
176
     0
 77
     6
176
     0
 78
     2
176
     0
 67
     7
176
     0
 79
     5
176
     0
170
     0
176
     0
171
     0
176
     0
290
     0
176
     0
 93
        1
176
     0
 44
0.0
176
     0
173
     0
176
     0
1001
ACAD
1000
AcDbSavedByObjectVersion
1070
     0
  0
VISUALSTYLE
  5
D1
102
{ACAD_XDICTIONARY
360
17A
102
}
102
{ACAD_REACTORS
330
C3
102
}
330
C3
100
AcDbVisualStyle
  2
Linepattern
 70
    14
177
     2
291
     1
 71
     2
176
     1
 72
     2
176
     1
 73
     0
176
     1
 90
        0
176
     1
 40
0.6
176
     1
 41
30.0
176
     1
 63
     7
421
 16777215
176
     1
 74
     1
176
     1
 91
        4
176
     1
 64
     7
176
     1
 65
   257
176
     1
 75
     7
176
     1
175
     7
176
     1
 42
1.0
176
     1
 92
        8
176
     1
 66
     7
176
     1
 43
1.0
176
     1
 76
     1
176
     1
 77
     6
176
     1
 78
     2
176
     1
 67
     7
176
     1
 79
     5
176
     1
170
     0
176
     1
171
     0
176
     1
290
     0
176
     1
 93
        1
176
     1
 44
0.0
176
     1
173
     0
176
     1
1001
ACAD
1000
AcDbSavedByObjectVersion
1070
     0
  0
VISUALSTYLE
  5
DA
102
{ACAD_XDICTIONARY
360
18C
102
}
102
{ACAD_REACTORS
330
C3
102
}
330
C3
100
AcDbVisualStyle
  2
OverhangOff
 70
    21
177
     2
291
     1
 71
     2
176
     0
 72
     2
176
     0
 73
     0
176
     0
 90
        0
176
     0
 40
0.6
176
     0
 41
30.0
176
     0
 63
     7
421
 16777215
176
     0
 74
     1
176
     0
 91
        4
176
     0
 64
     7
176
     0
 65
   257
176
     0
 75
     1
176
     0
175
     1
176
     0
 42
1.0
176
     0
 92
        9
176
     2
 66
     7
176
     0
 43
1.0
176
     0
 76
     1
176
     0
 77
     6
176
     0
 78
     2
176
     0
 67
     7
176
     0
 79
     5
176
     0
170
     0
176
     0
171
     0
176
     0
290
     0
176
     0
 93
        1
176
     0
 44
0.0
176
     0
173
     0
176
     0
1001
ACAD
1000
AcDbSavedByObjectVersion
1070
     0
  0
VISUALSTYLE
  5
CD
102
{ACAD_XDICTIONARY
360
172
102
}
102
{ACAD_REACTORS
330
C3
102
}
330
C3
100
AcDbVisualStyle
  2
Realistic
 70
     8
177
     2
291
     0
 71
     2
176
     1
 72
     3
176
     1
 73
     0
176
     1
 90
        2
176
     1
 40
0.6
176
     1
 41
30.0
176
     1
 63
     7
421
 16777215
176
     1
 74
     0
176
     1
 91
        0
176
     1
 64
     7
176
     1
 65
   257
176
     1
 75
     1
176
     1
175
     1
176
     1
 42
1.0
176
     1
 92
        8
176
     1
 66
   257
176
     1
 43
1.0
176
     1
 76
     1
176
     1
 77
     6
176
     1
 78
     2
176
     1
 67
     7
176
     1
 79
     3
176
     1
170
     0
176
     1
171
     0
176
     1
290
     0
176
     1
 93
       13
176
     1
 44
0.0
176
     1
173
     0
176
     1
1001
ACAD
1000
AcDbSavedByObjectVersion
1070
     0
  0
VISUALSTYLE
  5
D8
102
{ACAD_XDICTIONARY
360
188
102
}
102
{ACAD_REACTORS
330
C3
102
}
330
C3
100
AcDbVisualStyle
  2
Shaded
 70
    27
177
     2
291
     0
 71
     2
176
     1
 72
     2
176
     1
 73
     1
176
     1
 90
        2
176
     1
 40
0.6
176
     1
 41
30.0
176
     1
 63
     7
421
 16777215
176
     1
 74
     0
176
     1
 91
        4
176
     1
 64
     7
176
     1
 65
   257
176
     1
 75
     1
176
     1
175
     1
176
     1
 42
1.0
176
     1
 92
        8
176
     1
 66
   257
176
     1
 43
1.0
176
     1
 76
     1
176
     1
 77
     6
176
     1
 78
     2
176
     1
 67
     8
425
  7895160
176
     1
 79
     3
176
     1
170
     0
176
     1
171
     0
176
     1
290
     0
176
     1
 93
        5
176
     1
 44
0.0
176
     1
173
     0
176
     1
1001
ACAD
1000
AcDbSavedByObjectVersion
1070
     0
  0
VISUALSTYLE
  5
D7
102
{ACAD_XDICTIONARY
360
186
102
}
102
{ACAD_REACTORS
330
C3
102
}
330
C3
100
AcDbVisualStyle
  2
Shaded with edges
 70
    26
177
     2
291
     0
 71
     2
176
     1
 72
     2
176
     1
 73
     1
176
     1
 90
        2
176
     1
 40
0.6
176
     1
 41
30.0
176
     1
 63
     7
421
 16777215
176
     1
 74
     1
176
     1
 91
       10
176
     1
 64
     7
176
     1
 65
   257
176
     1
 75
     2
176
     1
175
     1
176
     1
 42
1.0
176
     1
 92
        8
176
     1
 66
   257
176
     1
 43
1.0
176
     1
 76
     1
176
     1
 77
     6
176
     1
 78
     2
176
     1
 67
     7
176
     1
 79
     3
176
     1
170
     0
176
     1
171
     0
176
     1
290
     0
176
     1
 93
        5
176
     1
 44
0.0
176
     1
173
     0
176
     1
1001
ACAD
1000
AcDbSavedByObjectVersion
1070
     0
  0
VISUALSTYLE
  5
D4
102
{ACAD_XDICTIONARY
360
180
102
}
102
{ACAD_REACTORS
330
C3
102
}
330
C3
100
AcDbVisualStyle
  2
Shades of Gray
 70
    23
177
     2
291
     0
 71
     2
176
     1
 72
     2
176
     1
 73
     3
176
     1
 90
        0
176
     1
 40
0.6
176
     1
 41
30.0
176
     1
 63
     7
421
 16777215
176
     1
 74
     2
176
     1
 91
        2
176
     1
 64
     7
176
     1
 65
     7
176
     1
 75
     1
176
     1
175
     1
176
     1
 42
40.0
176
     1
 92
        8
176
     1
 66
     7
176
     1
 43
1.0
176
     1
 76
     1
176
     1
 77
     6
176
     1
 78
     2
176
     1
 67
     7
176
     1
 79
     3
176
     1
170
     0
176
     1
171
     0
176
     1
290
     0
176
     1
 93
        1
176
     1
 44
0.0
176
     1
173
     0
176
     1
1001
ACAD
1000
AcDbSavedByObjectVersion
1070
     0
  0
VISUALSTYLE
  5
D5
102
{ACAD_XDICTIONARY
360
182
102
}
102
{ACAD_REACTORS
330
C3
102
}
330
C3
100
AcDbVisualStyle
  2
Sketchy
 70
    24
177
     2
291
     0
 71
     1
176
     1
 72
     2
176
     1
 73
     2
176
     1
 90
        0
176
     1
 40
0.6
176
     1
 41
30.0
176
     1
 63
     7
421
 16777215
176
     1
 74
     2
176
     1
 91
        2
176
     1
 64
     7
176
     1
 65
     7
176
     1
 75
     1
176
     1
175
     1
176
     1
 42
40.0
176
     1
 92
       11
176
     1
 66
     7
176
     1
 43
1.0
176
     1
 76
     1
176
     1
 77
     6
176
     1
 78
     2
176
     1
 67
     7
176
     1
 79
     6
176
     1
170
     0
176
     1
171
     0
176
     1
290
     0
176
     1
 93
        1
176
     1
 44
0.0
176
     1
173
     0
176
     1
1001
ACAD
1000
AcDbSavedByObjectVersion
1070
     0
  0
VISUALSTYLE
  5
D0
102
{ACAD_XDICTIONARY
360
178
102
}
102
{ACAD_REACTORS
330
C3
102
}
330
C3
100
AcDbVisualStyle
  2
Thicken
 70
    13
177
     2
291
     1
 71
     2
176
     1
 72
     2
176
     1
 73
     0
176
     1
 90
        0
176
     1
 40
0.6
176
     1
 41
30.0
176
     1
 63
     7
421
 16777215
176
     1
 74
     1
176
     1
 91
        4
176
     1
 64
     7
176
     1
 65
   257
176
     1
 75
     1
176
     1
175
     1
176
     1
 42
1.0
176
     1
 92
       12
176
     1
 66
     7
176
     1
 43
1.0
176
     1
 76
     1
176
     1
 77
     6
176
     1
 78
     2
176
     1
 67
     7
176
     1
 79
     5
176
     1
170
     0
176
     1
171
     0
176
     1
290
     0
176
     1
 93
        1
176
     1
 44
0.0
176
     1
173
     0
176
     1
1001
ACAD
1000
AcDbSavedByObjectVersion
1070
     0
  0
VISUALSTYLE
  5
CA
102
{ACAD_XDICTIONARY
360
16C
102
}
102
{ACAD_REACTORS
330
C3
102
}
330
C3
100
AcDbVisualStyle
  2
Wireframe
 70
     5
177
     2
291
     0
 71
     0
176
     1
 72
     2
176
     1
 73
     0
176
     1
 90
        0
176
     1
 40
0.6
176
     1
 41
30.0
176
     1
 63
     7
421
 16777215
176
     1
 74
     1
176
     1
 91
        4
176
     1
 64
     7
176
     1
 65
   257
176
     1
 75
     1
176
     1
175
     1
176
     1
 42
1.0
176
     1
 92
        0
176
     1
 66
   257
176
     1
 43
1.0
176
     1
 76
     1
176
     1
 77
     6
176
     1
 78
     2
176
     1
 67
     7
176
     1
 79
     3
176
     1
170
     0
176
     1
171
     0
176
     1
290
     0
176
     1
 93
        1
176
     1
 44
0.0
176
     1
173
     0
176
     1
1001
ACAD
1000
AcDbSavedByObjectVersion
1070
     0
  0
VISUALSTYLE
  5
D6
102
{ACAD_XDICTIONARY
360
184
102
}
102
{ACAD_REACTORS
330
C3
102
}
330
C3
100
AcDbVisualStyle
  2
X-Ray
 70
    25
177
     2
291
     0
 71
     2
176
     1
 72
     2
176
     1
 73
     1
176
     1
 90
        1
176
     1
 40
0.5
176
     1
 41
30.0
176
     1
 63
     7
421
 16777215
176
     1
 74
     1
176
     1
 91
        0
176
     1
 64
     7
176
     1
 65
   257
176
     1
 75
     1
176
     1
175
     1
176
     1
 42
1.0
176
     1
 92
        8
176
     1
 66
     7
176
     1
 43
1.0
176
     1
 76
     1
176
     1
 77
     6
176
     1
 78
     2
176
     1
 67
     7
176
     1
 79
     3
176
     1
170
     0
176
     1
171
     0
176
     1
290
     0
176
     1
 93
       13
176
     1
 44
0.0
176
     1
173
     0
176
     1
1001
ACAD
1000
AcDbSavedByObjectVersion
1070
     0
  0
DICTIONARYVAR
  5
159
102
{ACAD_REACTORS
330
153
102
}
330
153
100
DictionaryVariables
280
     0
  1
1:1
  0
DICTIONARYVAR
  5
155
102
{ACAD_REACTORS
330
153
102
}
330
153
100
DictionaryVariables
280
     0
  1
STANDARD
  0
DICTIONARYVAR
  5
154
102
{ACAD_REACTORS
330
153
102
}
330
153
100
DictionaryVariables
280
     0
  1
STANDARD
  0
DICTIONARYVAR
  5
156
102
{ACAD_REACTORS
330
153
102
}
330
153
100
DictionaryVariables
280
     0
  1
Imperial24
  0
DICTIONARYVAR
  5
157
102
{ACAD_REACTORS
330
153
102
}
330
153
100
DictionaryVariables
280
     0
  1
Imperial24
  0
DICTIONARYVAR
  5
15B
102
{ACAD_REACTORS
330
153
102
}
330
153
100
DictionaryVariables
280
     0
  1
1
  0
DICTIONARYVAR
  5
15C
102
{ACAD_REACTORS
330
153
102
}
330
153
100
DictionaryVariables
280
     0
  1
15
  0
DICTIONARYVAR
  5
15A
102
{ACAD_REACTORS
330
153
102
}
330
153
100
DictionaryVariables
280
     0
  1
0
  0
DICTIONARYVAR
  5
158
102
{ACAD_REACTORS
330
153
102
}
330
153
100
DictionaryVariables
280
     0
  1
0
  0
DICTIONARY
  5
194
330
F6
100
AcDbDictionary
280
     1
281
     1
  3
ACAD_XREC_ROUNDTRIP
360
195
  0
DICTIONARY
  5
B4
330
B3
100
AcDbDictionary
280
     1
281
     1
  3
BUMPTILE
360
B6
  3
DIFFUSETILE
360
B5
  3
OPACITYTILE
360
B9
  3
REFLECTIONTILE
360
B8
  3
REFRACTIONTILE
360
BA
  3
SPECULARTILE
360
B7
  0
DICTIONARY
  5
AC
330
AB
100
AcDbDictionary
280
     1
281
     1
  3
BUMPTILE
360
AE
  3
DIFFUSETILE
360
AD
  3
OPACITYTILE
360
B1
  3
REFLECTIONTILE
360
B0
  3
REFRACTIONTILE
360
B2
  3
SPECULARTILE
360
AF
  0
DICTIONARY
  5
BC
330
BB
100
AcDbDictionary
280
     1
281
     1
  3
BUMPTILE
360
BE
  3
DIFFUSETILE
360
BD
  3
OPACITYTILE
360
C1
  3
REFLECTIONTILE
360
C0
  3
REFRACTIONTILE
360
C2
  3
SPECULARTILE
360
BF
  0
DICTIONARY
  5
190
330
F2
100
AcDbDictionary
280
     1
281
     1
  3
ACAD_XREC_ROUNDTRIP
360
191
  0
DICTIONARY
  5
192
330
F4
100
AcDbDictionary
280
     1
281
     1
  3
ACAD_XREC_ROUNDTRIP
360
193
  0
DICTIONARY
  5
15D
330
DE
100
AcDbDictionary
280
     1
281
     1
  3
ACAD_ROUNDTRIP_2008_TABLESTYLE_CELLSTYLEMAP
360
15E
  0
DICTIONARY
  5
16A
330
C9
100
AcDbDictionary
280
     1
281
     1
  3
ACAD_XREC_ROUNDTRIP
360
16B
  0
DICTIONARY
  5
168
330
C8
100
AcDbDictionary
280
     1
281
     1
  3
ACAD_XREC_ROUNDTRIP
360
169
  0
DICTIONARY
  5
176
330
CF
100
AcDbDictionary
280
     1
281
     1
  3
ACAD_XREC_ROUNDTRIP
360
177
  0
DICTIONARY
  5
17E
330
D3
100
AcDbDictionary
280
     1
281
     1
  3
ACAD_XREC_ROUNDTRIP
360
17F
  0
DICTIONARY
  5
170
330
CC
100
AcDbDictionary
280
     1
281
     1
  3
ACAD_XREC_ROUNDTRIP
360
171
  0
DICTIONARY
  5
174
330
CE
100
AcDbDictionary
280
     1
281
     1
  3
ACAD_XREC_ROUNDTRIP
360
175
  0
DICTIONARY
  5
18E
330
DB
100
AcDbDictionary
280
     1
281
     1
  3
ACAD_XREC_ROUNDTRIP
360
18F
  0
DICTIONARY
  5
17C
330
D2
100
AcDbDictionary
280
     1
281
     1
  3
ACAD_XREC_ROUNDTRIP
360
17D
  0
DICTIONARY
  5
160
330
C4
100
AcDbDictionary
280
     1
281
     1
  3
ACAD_XREC_ROUNDTRIP
360
161
  0
DICTIONARY
  5
162
330
C5
100
AcDbDictionary
280
     1
281
     1
  3
ACAD_XREC_ROUNDTRIP
360
163
  0
DICTIONARY
  5
164
330
C6
100
AcDbDictionary
280
     1
281
     1
  3
ACAD_XREC_ROUNDTRIP
360
165
  0
DICTIONARY
  5
166
330
C7
100
AcDbDictionary
280
     1
281
     1
  3
ACAD_XREC_ROUNDTRIP
360
167
  0
DICTIONARY
  5
16E
330
CB
100
AcDbDictionary
280
     1
281
     1
  3
ACAD_XREC_ROUNDTRIP
360
16F
  0
DICTIONARY
  5
18A
330
D9
100
AcDbDictionary
280
     1
281
     1
  3
ACAD_XREC_ROUNDTRIP
360
18B
  0
DICTIONARY
  5
17A
330
D1
100
AcDbDictionary
280
     1
281
     1
  3
ACAD_XREC_ROUNDTRIP
360
17B
  0
DICTIONARY
  5
18C
330
DA
100
AcDbDictionary
280
     1
281
     1
  3
ACAD_XREC_ROUNDTRIP
360
18D
  0
DICTIONARY
  5
172
330
CD
100
AcDbDictionary
280
     1
281
     1
  3
ACAD_XREC_ROUNDTRIP
360
173
  0
DICTIONARY
  5
188
330
D8
100
AcDbDictionary
280
     1
281
     1
  3
ACAD_XREC_ROUNDTRIP
360
189
  0
DICTIONARY
  5
186
330
D7
100
AcDbDictionary
280
     1
281
     1
  3
ACAD_XREC_ROUNDTRIP
360
187
  0
DICTIONARY
  5
180
330
D4
100
AcDbDictionary
280
     1
281
     1
  3
ACAD_XREC_ROUNDTRIP
360
181
  0
DICTIONARY
  5
182
330
D5
100
AcDbDictionary
280
     1
281
     1
  3
ACAD_XREC_ROUNDTRIP
360
183
  0
DICTIONARY
  5
178
330
D0
100
AcDbDictionary
280
     1
281
     1
  3
ACAD_XREC_ROUNDTRIP
360
179
  0
DICTIONARY
  5
16C
330
CA
100
AcDbDictionary
280
     1
281
     1
  3
ACAD_XREC_ROUNDTRIP
360
16D
  0
DICTIONARY
  5
184
330
D6
100
AcDbDictionary
280
     1
281
     1
  3
ACAD_XREC_ROUNDTRIP
360
185
  0
XRECORD
  5
195
102
{ACAD_REACTORS
330
194
102
}
330
194
100
AcDbXrecord
280
     1
102
DISPLAYNAME
  1
Imperial24
102
FLAGS
 90
        0
  0
XRECORD
  5
B6
102
{ACAD_REACTORS
330
B4
102
}
330
B4
100
AcDbXrecord
280
     1
270
     1
271
     1
  0
XRECORD
  5
B5
102
{ACAD_REACTORS
330
B4
102
}
330
B4
100
AcDbXrecord
280
     1
270
     1
271
     1
  0
XRECORD
  5
B9
102
{ACAD_REACTORS
330
B4
102
}
330
B4
100
AcDbXrecord
280
     1
270
     1
271
     1
  0
XRECORD
  5
B8
102
{ACAD_REACTORS
330
B4
102
}
330
B4
100
AcDbXrecord
280
     1
270
     1
271
     1
  0
XRECORD
  5
BA
102
{ACAD_REACTORS
330
B4
102
}
330
B4
100
AcDbXrecord
280
     1
270
     1
271
     1
  0
XRECORD
  5
B7
102
{ACAD_REACTORS
330
B4
102
}
330
B4
100
AcDbXrecord
280
     1
270
     1
271
     1
  0
XRECORD
  5
AE
102
{ACAD_REACTORS
330
AC
102
}
330
AC
100
AcDbXrecord
280
     1
270
     1
271
     1
  0
XRECORD
  5
AD
102
{ACAD_REACTORS
330
AC
102
}
330
AC
100
AcDbXrecord
280
     1
270
     1
271
     1
  0
XRECORD
  5
B1
102
{ACAD_REACTORS
330
AC
102
}
330
AC
100
AcDbXrecord
280
     1
270
     1
271
     1
  0
XRECORD
  5
B0
102
{ACAD_REACTORS
330
AC
102
}
330
AC
100
AcDbXrecord
280
     1
270
     1
271
     1
  0
XRECORD
  5
B2
102
{ACAD_REACTORS
330
AC
102
}
330
AC
100
AcDbXrecord
280
     1
270
     1
271
     1
  0
XRECORD
  5
AF
102
{ACAD_REACTORS
330
AC
102
}
330
AC
100
AcDbXrecord
280
     1
270
     1
271
     1
  0
XRECORD
  5
BE
102
{ACAD_REACTORS
330
BC
102
}
330
BC
100
AcDbXrecord
280
     1
270
     1
271
     1
  0
XRECORD
  5
BD
102
{ACAD_REACTORS
330
BC
102
}
330
BC
100
AcDbXrecord
280
     1
270
     1
271
     1
  0
XRECORD
  5
C1
102
{ACAD_REACTORS
330
BC
102
}
330
BC
100
AcDbXrecord
280
     1
270
     1
271
     1
  0
XRECORD
  5
C0
102
{ACAD_REACTORS
330
BC
102
}
330
BC
100
AcDbXrecord
280
     1
270
     1
271
     1
  0
XRECORD
  5
C2
102
{ACAD_REACTORS
330
BC
102
}
330
BC
100
AcDbXrecord
280
     1
270
     1
271
     1
  0
XRECORD
  5
BF
102
{ACAD_REACTORS
330
BC
102
}
330
BC
100
AcDbXrecord
280
     1
270
     1
271
     1
  0
XRECORD
  5
191
102
{ACAD_REACTORS
330
190
102
}
330
190
100
AcDbXrecord
280
     1
102
ACAD_ROUNDTRIP_2012_MLEADER_STYLE
298
     1
  0
XRECORD
  5
193
102
{ACAD_REACTORS
330
192
102
}
330
192
100
AcDbXrecord
280
     1
102
DISPLAYNAME
  1
Imperial24
102
FLAGS
 90
        0
  0
CELLSTYLEMAP
  5
15E
102
{ACAD_REACTORS
330
15D
102
}
330
15D
100
AcDbCellStyleMap
 90
        3
300
CELLSTYLE
  1
TABLEFORMAT_BEGIN
 90
        5
170
     1
 91
        0
 92
    32768
 62
   257
 93
        1
300
CONTENTFORMAT
  1
CONTENTFORMAT_BEGIN
 90
        0
 91
        0
 92
      512
 93
        0
300

 40
0.0
140
1.0
 94
        5
 62
     0
340
11
144
0.25
309
CONTENTFORMAT_END
171
     0
 94
        0
309
TABLEFORMAT_END
  1
CELLSTYLE_BEGIN
 90
        1
 91
        1
300
_TITLE
309
CELLSTYLE_END
300
CELLSTYLE
  1
TABLEFORMAT_BEGIN
 90
        5
170
     1
 91
        0
 92
        0
 62
   257
 93
        1
300
CONTENTFORMAT
  1
CONTENTFORMAT_BEGIN
 90
        0
 91
        0
 92
      512
 93
        0
300

 40
0.0
140
1.0
 94
        5
 62
     0
340
11
144
0.18
309
CONTENTFORMAT_END
171
     0
 94
        0
309
TABLEFORMAT_END
  1
CELLSTYLE_BEGIN
 90
        2
 91
        1
300
_HEADER
309
CELLSTYLE_END
300
CELLSTYLE
  1
TABLEFORMAT_BEGIN
 90
        5
170
     1
 91
        0
 92
        0
 62
   257
 93
        1
300
CONTENTFORMAT
  1
CONTENTFORMAT_BEGIN
 90
        0
 91
        0
 92
      512
 93
        0
300

 40
0.0
140
1.0
 94
        2
 62
     0
340
11
144
0.18
309
CONTENTFORMAT_END
171
     0
 94
        0
309
TABLEFORMAT_END
  1
CELLSTYLE_BEGIN
 90
        3
 91
        2
300
_DATA
309
CELLSTYLE_END
  0
XRECORD
  5
16B
102
{ACAD_REACTORS
330
16A
102
}
330
16A
100
AcDbXrecord
280
     1
102
RTVSPost2010Prop28
280
     1
102
RTVSPost2010PropOp28
 70
     1
102
RTVSPost2010Prop29
280
     1
102
RTVSPost2010PropOp29
 70
     1
102
RTVSPost2010Prop30
280
     0
102
RTVSPost2010PropOp30
 70
     1
102
RTVSPost2010Prop31
280
     0
102
RTVSPost2010PropOp31
 70
     1
102
RTVSPost2010Prop32
280
     0
102
RTVSPost2010PropOp32
 70
     1
102
RTVSPost2010Prop33
280
     0
102
RTVSPost2010PropOp33
 70
     1
102
RTVSPost2010Prop34
280
     0
102
RTVSPost2010PropOp34
 70
     1
102
RTVSPost2010Prop35
280
     0
102
RTVSPost2010PropOp35
 70
     1
102
RTVSPost2010Prop36
280
     0
102
RTVSPost2010PropOp36
 70
     1
102
RTVSPost2010Prop37
 90
       50
102
RTVSPost2010PropOp37
 70
     1
102
RTVSPost2010Prop38
140
0.0
102
RTVSPost2010PropOp38
 70
     1
102
RTVSPost2010Prop39
140
1.0
102
RTVSPost2010PropOp39
 70
     1
102
RTVSPost2010Prop40
 90
        0
102
RTVSPost2010PropOp40
 70
     1
102
RTVSPost2010Prop41ColorIndex
 90
       18
102
RTVSPost2010Prop41ColorRGB
 90
        0
102
RTVSPost2010PropOp41
 70
     1
102
RTVSPost2010Prop42
 90
       50
102
RTVSPost2010PropOp42
 70
     1
102
RTVSPost2010Prop43
 90
        3
102
RTVSPost2010PropOp43
 70
     1
102
RTVSPost2010Prop44ColorIndex
 90
        5
102
RTVSPost2010Prop44ColorRGB
 90
      255
102
RTVSPost2010PropOp44
 70
     1
102
RTVSPost2010Prop45
280
     0
102
RTVSPost2010PropOp45
 70
     1
102
RTVSPost2010Prop46
 90
       50
102
RTVSPost2010PropOp46
 70
     1
102
RTVSPost2010Prop47
 90
       50
102
RTVSPost2010PropOp47
 70
     1
102
RTVSPost2010Prop48
 90
       50
102
RTVSPost2010PropOp48
 70
     1
102
RTVSPost2010Prop49
280
     0
102
RTVSPost2010PropOp49
 70
     1
102
RTVSPost2010Prop50
 90
       50
102
RTVSPost2010PropOp50
 70
     1
102
RTVSPost2010Prop51ColorIndex
 90
      256
102
RTVSPost2010Prop51ColorRGB
 90
-16777216
102
RTVSPost2010PropOp51
 70
     0
102
RTVSPost2010Prop52
140
1.0
102
RTVSPost2010PropOp52
 70
     0
102
RTVSPost2010Prop53
 90
        2
102
RTVSPost2010PropOp53
 70
     1
102
RTVSPost2010Prop54
  1
strokes_ogs.tif
102
RTVSPost2010PropOp54
 70
     1
102
RTVSPost2010Prop55
280
     0
102
RTVSPost2010PropOp55
 70
     1
102
RTVSPost2010Prop56
140
1.0
102
RTVSPost2010PropOp56
 70
     1
102
RTVSPost2010Prop57
140
1.0
102
RTVSPost2010PropOp57
 70
     1
  0
XRECORD
  5
169
102
{ACAD_REACTORS
330
168
102
}
330
168
100
AcDbXrecord
280
     1
102
RTVSPost2010Prop28
280
     0
102
RTVSPost2010PropOp28
 70
     1
102
RTVSPost2010Prop29
280
     1
102
RTVSPost2010PropOp29
 70
     1
102
RTVSPost2010Prop30
280
     1
102
RTVSPost2010PropOp30
 70
     1
102
RTVSPost2010Prop31
280
     0
102
RTVSPost2010PropOp31
 70
     1
102
RTVSPost2010Prop32
280
     0
102
RTVSPost2010PropOp32
 70
     1
102
RTVSPost2010Prop33
280
     0
102
RTVSPost2010PropOp33
 70
     1
102
RTVSPost2010Prop34
280
     0
102
RTVSPost2010PropOp34
 70
     1
102
RTVSPost2010Prop35
280
     0
102
RTVSPost2010PropOp35
 70
     1
102
RTVSPost2010Prop36
280
     0
102
RTVSPost2010PropOp36
 70
     1
102
RTVSPost2010Prop37
 90
       50
102
RTVSPost2010PropOp37
 70
     1
102
RTVSPost2010Prop38
140
0.0
102
RTVSPost2010PropOp38
 70
     1
102
RTVSPost2010Prop39
140
1.0
102
RTVSPost2010PropOp39
 70
     1
102
RTVSPost2010Prop40
 90
        0
102
RTVSPost2010PropOp40
 70
     1
102
RTVSPost2010Prop41ColorIndex
 90
       18
102
RTVSPost2010Prop41ColorRGB
 90
        0
102
RTVSPost2010PropOp41
 70
     1
102
RTVSPost2010Prop42
 90
       50
102
RTVSPost2010PropOp42
 70
     1
102
RTVSPost2010Prop43
 90
        3
102
RTVSPost2010PropOp43
 70
     1
102
RTVSPost2010Prop44ColorIndex
 90
        5
102
RTVSPost2010Prop44ColorRGB
 90
      255
102
RTVSPost2010PropOp44
 70
     1
102
RTVSPost2010Prop45
280
     0
102
RTVSPost2010PropOp45
 70
     1
102
RTVSPost2010Prop46
 90
       50
102
RTVSPost2010PropOp46
 70
     1
102
RTVSPost2010Prop47
 90
       50
102
RTVSPost2010PropOp47
 70
     1
102
RTVSPost2010Prop48
 90
       50
102
RTVSPost2010PropOp48
 70
     1
102
RTVSPost2010Prop49
280
     0
102
RTVSPost2010PropOp49
 70
     1
102
RTVSPost2010Prop50
 90
       50
102
RTVSPost2010PropOp50
 70
     1
102
RTVSPost2010Prop51ColorIndex
 90
      256
102
RTVSPost2010Prop51ColorRGB
 90
-16777216
102
RTVSPost2010PropOp51
 70
     0
102
RTVSPost2010Prop52
140
1.0
102
RTVSPost2010PropOp52
 70
     0
102
RTVSPost2010Prop53
 90
        2
102
RTVSPost2010PropOp53
 70
     1
102
RTVSPost2010Prop54
  1
strokes_ogs.tif
102
RTVSPost2010PropOp54
 70
     1
102
RTVSPost2010Prop55
280
     0
102
RTVSPost2010PropOp55
 70
     1
102
RTVSPost2010Prop56
140
1.0
102
RTVSPost2010PropOp56
 70
     1
102
RTVSPost2010Prop57
140
1.0
102
RTVSPost2010PropOp57
 70
     1
  0
XRECORD
  5
177
102
{ACAD_REACTORS
330
176
102
}
330
176
100
AcDbXrecord
280
     1
102
RTVSPost2010Prop28
280
     0
102
RTVSPost2010PropOp28
 70
     1
102
RTVSPost2010Prop29
280
     1
102
RTVSPost2010PropOp29
 70
     1
102
RTVSPost2010Prop30
280
     1
102
RTVSPost2010PropOp30
 70
     1
102
RTVSPost2010Prop31
280
     0
102
RTVSPost2010PropOp31
 70
     1
102
RTVSPost2010Prop32
280
     0
102
RTVSPost2010PropOp32
 70
     1
102
RTVSPost2010Prop33
280
     0
102
RTVSPost2010PropOp33
 70
     1
102
RTVSPost2010Prop34
280
     0
102
RTVSPost2010PropOp34
 70
     1
102
RTVSPost2010Prop35
280
     0
102
RTVSPost2010PropOp35
 70
     1
102
RTVSPost2010Prop36
280
     0
102
RTVSPost2010PropOp36
 70
     1
102
RTVSPost2010Prop37
 90
       50
102
RTVSPost2010PropOp37
 70
     1
102
RTVSPost2010Prop38
140
0.0
102
RTVSPost2010PropOp38
 70
     1
102
RTVSPost2010Prop39
140
1.0
102
RTVSPost2010PropOp39
 70
     1
102
RTVSPost2010Prop40
 90
        0
102
RTVSPost2010PropOp40
 70
     1
102
RTVSPost2010Prop41ColorIndex
 90
       18
102
RTVSPost2010Prop41ColorRGB
 90
        0
102
RTVSPost2010PropOp41
 70
     1
102
RTVSPost2010Prop42
 90
       50
102
RTVSPost2010PropOp42
 70
     1
102
RTVSPost2010Prop43
 90
        3
102
RTVSPost2010PropOp43
 70
     1
102
RTVSPost2010Prop44ColorIndex
 90
        5
102
RTVSPost2010Prop44ColorRGB
 90
      255
102
RTVSPost2010PropOp44
 70
     1
102
RTVSPost2010Prop45
280
     0
102
RTVSPost2010PropOp45
 70
     1
102
RTVSPost2010Prop46
 90
       50
102
RTVSPost2010PropOp46
 70
     1
102
RTVSPost2010Prop47
 90
       50
102
RTVSPost2010PropOp47
 70
     1
102
RTVSPost2010Prop48
 90
       50
102
RTVSPost2010PropOp48
 70
     1
102
RTVSPost2010Prop49
280
     0
102
RTVSPost2010PropOp49
 70
     1
102
RTVSPost2010Prop50
 90
       50
102
RTVSPost2010PropOp50
 70
     1
102
RTVSPost2010Prop51ColorIndex
 90
      256
102
RTVSPost2010Prop51ColorRGB
 90
-16777216
102
RTVSPost2010PropOp51
 70
     0
102
RTVSPost2010Prop52
140
1.0
102
RTVSPost2010PropOp52
 70
     0
102
RTVSPost2010Prop53
 90
        2
102
RTVSPost2010PropOp53
 70
     1
102
RTVSPost2010Prop54
  1
strokes_ogs.tif
102
RTVSPost2010PropOp54
 70
     1
102
RTVSPost2010Prop55
280
     0
102
RTVSPost2010PropOp55
 70
     1
102
RTVSPost2010Prop56
140
1.0
102
RTVSPost2010PropOp56
 70
     1
102
RTVSPost2010Prop57
140
1.0
102
RTVSPost2010PropOp57
 70
     1
  0
XRECORD
  5
17F
102
{ACAD_REACTORS
330
17E
102
}
330
17E
100
AcDbXrecord
280
     1
102
RTVSPost2010Prop28
280
     0
102
RTVSPost2010PropOp28
 70
     1
102
RTVSPost2010Prop29
280
     1
102
RTVSPost2010PropOp29
 70
     1
102
RTVSPost2010Prop30
280
     1
102
RTVSPost2010PropOp30
 70
     1
102
RTVSPost2010Prop31
280
     0
102
RTVSPost2010PropOp31
 70
     1
102
RTVSPost2010Prop32
280
     0
102
RTVSPost2010PropOp32
 70
     1
102
RTVSPost2010Prop33
280
     0
102
RTVSPost2010PropOp33
 70
     1
102
RTVSPost2010Prop34
280
     0
102
RTVSPost2010PropOp34
 70
     1
102
RTVSPost2010Prop35
280
     0
102
RTVSPost2010PropOp35
 70
     1
102
RTVSPost2010Prop36
280
     0
102
RTVSPost2010PropOp36
 70
     1
102
RTVSPost2010Prop37
 90
       50
102
RTVSPost2010PropOp37
 70
     1
102
RTVSPost2010Prop38
140
0.0
102
RTVSPost2010PropOp38
 70
     1
102
RTVSPost2010Prop39
140
1.0
102
RTVSPost2010PropOp39
 70
     1
102
RTVSPost2010Prop40
 90
        0
102
RTVSPost2010PropOp40
 70
     1
102
RTVSPost2010Prop41ColorIndex
 90
       18
102
RTVSPost2010Prop41ColorRGB
 90
        0
102
RTVSPost2010PropOp41
 70
     1
102
RTVSPost2010Prop42
 90
       50
102
RTVSPost2010PropOp42
 70
     1
102
RTVSPost2010Prop43
 90
        3
102
RTVSPost2010PropOp43
 70
     1
102
RTVSPost2010Prop44ColorIndex
 90
        5
102
RTVSPost2010Prop44ColorRGB
 90
      255
102
RTVSPost2010PropOp44
 70
     1
102
RTVSPost2010Prop45
280
     0
102
RTVSPost2010PropOp45
 70
     1
102
RTVSPost2010Prop46
 90
       50
102
RTVSPost2010PropOp46
 70
     1
102
RTVSPost2010Prop47
 90
       50
102
RTVSPost2010PropOp47
 70
     1
102
RTVSPost2010Prop48
 90
       50
102
RTVSPost2010PropOp48
 70
     1
102
RTVSPost2010Prop49
280
     0
102
RTVSPost2010PropOp49
 70
     1
102
RTVSPost2010Prop50
 90
       50
102
RTVSPost2010PropOp50
 70
     1
102
RTVSPost2010Prop51ColorIndex
 90
      256
102
RTVSPost2010Prop51ColorRGB
 90
-16777216
102
RTVSPost2010PropOp51
 70
     0
102
RTVSPost2010Prop52
140
1.0
102
RTVSPost2010PropOp52
 70
     0
102
RTVSPost2010Prop53
 90
        2
102
RTVSPost2010PropOp53
 70
     1
102
RTVSPost2010Prop54
  1
strokes_ogs.tif
102
RTVSPost2010PropOp54
 70
     1
102
RTVSPost2010Prop55
280
     0
102
RTVSPost2010PropOp55
 70
     1
102
RTVSPost2010Prop56
140
1.0
102
RTVSPost2010PropOp56
 70
     1
102
RTVSPost2010Prop57
140
1.0
102
RTVSPost2010PropOp57
 70
     1
  0
XRECORD
  5
171
102
{ACAD_REACTORS
330
170
102
}
330
170
100
AcDbXrecord
280
     1
102
RTVSPost2010Prop28
280
     0
102
RTVSPost2010PropOp28
 70
     1
102
RTVSPost2010Prop29
280
     1
102
RTVSPost2010PropOp29
 70
     1
102
RTVSPost2010Prop30
280
     1
102
RTVSPost2010PropOp30
 70
     1
102
RTVSPost2010Prop31
280
     0
102
RTVSPost2010PropOp31
 70
     1
102
RTVSPost2010Prop32
280
     0
102
RTVSPost2010PropOp32
 70
     1
102
RTVSPost2010Prop33
280
     0
102
RTVSPost2010PropOp33
 70
     1
102
RTVSPost2010Prop34
280
     0
102
RTVSPost2010PropOp34
 70
     1
102
RTVSPost2010Prop35
280
     0
102
RTVSPost2010PropOp35
 70
     1
102
RTVSPost2010Prop36
280
     0
102
RTVSPost2010PropOp36
 70
     1
102
RTVSPost2010Prop37
 90
       50
102
RTVSPost2010PropOp37
 70
     1
102
RTVSPost2010Prop38
140
0.0
102
RTVSPost2010PropOp38
 70
     1
102
RTVSPost2010Prop39
140
1.0
102
RTVSPost2010PropOp39
 70
     1
102
RTVSPost2010Prop40
 90
        0
102
RTVSPost2010PropOp40
 70
     1
102
RTVSPost2010Prop41ColorIndex
 90
       18
102
RTVSPost2010Prop41ColorRGB
 90
        0
102
RTVSPost2010PropOp41
 70
     1
102
RTVSPost2010Prop42
 90
       50
102
RTVSPost2010PropOp42
 70
     1
102
RTVSPost2010Prop43
 90
        3
102
RTVSPost2010PropOp43
 70
     1
102
RTVSPost2010Prop44ColorIndex
 90
        5
102
RTVSPost2010Prop44ColorRGB
 90
      255
102
RTVSPost2010PropOp44
 70
     1
102
RTVSPost2010Prop45
280
     0
102
RTVSPost2010PropOp45
 70
     1
102
RTVSPost2010Prop46
 90
       50
102
RTVSPost2010PropOp46
 70
     1
102
RTVSPost2010Prop47
 90
       50
102
RTVSPost2010PropOp47
 70
     1
102
RTVSPost2010Prop48
 90
       50
102
RTVSPost2010PropOp48
 70
     1
102
RTVSPost2010Prop49
280
     0
102
RTVSPost2010PropOp49
 70
     1
102
RTVSPost2010Prop50
 90
       50
102
RTVSPost2010PropOp50
 70
     1
102
RTVSPost2010Prop51ColorIndex
 90
      256
102
RTVSPost2010Prop51ColorRGB
 90
-16777216
102
RTVSPost2010PropOp51
 70
     0
102
RTVSPost2010Prop52
140
1.0
102
RTVSPost2010PropOp52
 70
     0
102
RTVSPost2010Prop53
 90
        2
102
RTVSPost2010PropOp53
 70
     1
102
RTVSPost2010Prop54
  1
strokes_ogs.tif
102
RTVSPost2010PropOp54
 70
     1
102
RTVSPost2010Prop55
280
     0
102
RTVSPost2010PropOp55
 70
     1
102
RTVSPost2010Prop56
140
1.0
102
RTVSPost2010PropOp56
 70
     1
102
RTVSPost2010Prop57
140
1.0
102
RTVSPost2010PropOp57
 70
     1
  0
XRECORD
  5
175
102
{ACAD_REACTORS
330
174
102
}
330
174
100
AcDbXrecord
280
     1
102
RTVSPost2010Prop28
280
     0
102
RTVSPost2010PropOp28
 70
     1
102
RTVSPost2010Prop29
280
     1
102
RTVSPost2010PropOp29
 70
     1
102
RTVSPost2010Prop30
280
     1
102
RTVSPost2010PropOp30
 70
     1
102
RTVSPost2010Prop31
280
     0
102
RTVSPost2010PropOp31
 70
     1
102
RTVSPost2010Prop32
280
     0
102
RTVSPost2010PropOp32
 70
     1
102
RTVSPost2010Prop33
280
     0
102
RTVSPost2010PropOp33
 70
     1
102
RTVSPost2010Prop34
280
     0
102
RTVSPost2010PropOp34
 70
     1
102
RTVSPost2010Prop35
280
     0
102
RTVSPost2010PropOp35
 70
     1
102
RTVSPost2010Prop36
280
     0
102
RTVSPost2010PropOp36
 70
     1
102
RTVSPost2010Prop37
 90
       50
102
RTVSPost2010PropOp37
 70
     1
102
RTVSPost2010Prop38
140
0.0
102
RTVSPost2010PropOp38
 70
     1
102
RTVSPost2010Prop39
140
1.0
102
RTVSPost2010PropOp39
 70
     1
102
RTVSPost2010Prop40
 90
        0
102
RTVSPost2010PropOp40
 70
     1
102
RTVSPost2010Prop41ColorIndex
 90
       18
102
RTVSPost2010Prop41ColorRGB
 90
        0
102
RTVSPost2010PropOp41
 70
     1
102
RTVSPost2010Prop42
 90
       50
102
RTVSPost2010PropOp42
 70
     1
102
RTVSPost2010Prop43
 90
        3
102
RTVSPost2010PropOp43
 70
     1
102
RTVSPost2010Prop44ColorIndex
 90
        5
102
RTVSPost2010Prop44ColorRGB
 90
      255
102
RTVSPost2010PropOp44
 70
     1
102
RTVSPost2010Prop45
280
     0
102
RTVSPost2010PropOp45
 70
     1
102
RTVSPost2010Prop46
 90
       50
102
RTVSPost2010PropOp46
 70
     1
102
RTVSPost2010Prop47
 90
       50
102
RTVSPost2010PropOp47
 70
     1
102
RTVSPost2010Prop48
 90
       50
102
RTVSPost2010PropOp48
 70
     1
102
RTVSPost2010Prop49
280
     0
102
RTVSPost2010PropOp49
 70
     1
102
RTVSPost2010Prop50
 90
       50
102
RTVSPost2010PropOp50
 70
     1
102
RTVSPost2010Prop51ColorIndex
 90
      256
102
RTVSPost2010Prop51ColorRGB
 90
-16777216
102
RTVSPost2010PropOp51
 70
     0
102
RTVSPost2010Prop52
140
1.0
102
RTVSPost2010PropOp52
 70
     0
102
RTVSPost2010Prop53
 90
        2
102
RTVSPost2010PropOp53
 70
     1
102
RTVSPost2010Prop54
  1
strokes_ogs.tif
102
RTVSPost2010PropOp54
 70
     1
102
RTVSPost2010Prop55
280
     0
102
RTVSPost2010PropOp55
 70
     1
102
RTVSPost2010Prop56
140
1.0
102
RTVSPost2010PropOp56
 70
     1
102
RTVSPost2010Prop57
140
1.0
102
RTVSPost2010PropOp57
 70
     1
  0
XRECORD
  5
18F
102
{ACAD_REACTORS
330
18E
102
}
330
18E
100
AcDbXrecord
280
     1
102
RTVSPost2010Prop28
280
     0
102
RTVSPost2010PropOp28
 70
     0
102
RTVSPost2010Prop29
280
     1
102
RTVSPost2010PropOp29
 70
     0
102
RTVSPost2010Prop30
280
     1
102
RTVSPost2010PropOp30
 70
     0
102
RTVSPost2010Prop31
280
     0
102
RTVSPost2010PropOp31
 70
     0
102
RTVSPost2010Prop32
280
     0
102
RTVSPost2010PropOp32
 70
     0
102
RTVSPost2010Prop33
280
     0
102
RTVSPost2010PropOp33
 70
     0
102
RTVSPost2010Prop34
280
     0
102
RTVSPost2010PropOp34
 70
     0
102
RTVSPost2010Prop35
280
     0
102
RTVSPost2010PropOp35
 70
     0
102
RTVSPost2010Prop36
280
     0
102
RTVSPost2010PropOp36
 70
     0
102
RTVSPost2010Prop37
 90
       50
102
RTVSPost2010PropOp37
 70
     0
102
RTVSPost2010Prop38
140
0.0
102
RTVSPost2010PropOp38
 70
     0
102
RTVSPost2010Prop39
140
1.0
102
RTVSPost2010PropOp39
 70
     0
102
RTVSPost2010Prop40
 90
        0
102
RTVSPost2010PropOp40
 70
     0
102
RTVSPost2010Prop41ColorIndex
 90
       18
102
RTVSPost2010Prop41ColorRGB
 90
        0
102
RTVSPost2010PropOp41
 70
     0
102
RTVSPost2010Prop42
 90
       50
102
RTVSPost2010PropOp42
 70
     0
102
RTVSPost2010Prop43
 90
        3
102
RTVSPost2010PropOp43
 70
     0
102
RTVSPost2010Prop44ColorIndex
 90
        5
102
RTVSPost2010Prop44ColorRGB
 90
      255
102
RTVSPost2010PropOp44
 70
     0
102
RTVSPost2010Prop45
280
     0
102
RTVSPost2010PropOp45
 70
     0
102
RTVSPost2010Prop46
 90
       50
102
RTVSPost2010PropOp46
 70
     0
102
RTVSPost2010Prop47
 90
       50
102
RTVSPost2010PropOp47
 70
     0
102
RTVSPost2010Prop48
 90
       50
102
RTVSPost2010PropOp48
 70
     0
102
RTVSPost2010Prop49
280
     0
102
RTVSPost2010PropOp49
 70
     0
102
RTVSPost2010Prop50
 90
       50
102
RTVSPost2010PropOp50
 70
     0
102
RTVSPost2010Prop51ColorIndex
 90
      256
102
RTVSPost2010Prop51ColorRGB
 90
-16777216
102
RTVSPost2010PropOp51
 70
     0
102
RTVSPost2010Prop52
140
1.0
102
RTVSPost2010PropOp52
 70
     0
102
RTVSPost2010Prop53
 90
        2
102
RTVSPost2010PropOp53
 70
     0
102
RTVSPost2010Prop54
  1
strokes_ogs.tif
102
RTVSPost2010PropOp54
 70
     0
102
RTVSPost2010Prop55
280
     0
102
RTVSPost2010PropOp55
 70
     0
102
RTVSPost2010Prop56
140
1.0
102
RTVSPost2010PropOp56
 70
     0
102
RTVSPost2010Prop57
140
1.0
102
RTVSPost2010PropOp57
 70
     0
  0
XRECORD
  5
17D
102
{ACAD_REACTORS
330
17C
102
}
330
17C
100
AcDbXrecord
280
     1
102
RTVSPost2010Prop28
280
     0
102
RTVSPost2010PropOp28
 70
     1
102
RTVSPost2010Prop29
280
     1
102
RTVSPost2010PropOp29
 70
     1
102
RTVSPost2010Prop30
280
     1
102
RTVSPost2010PropOp30
 70
     1
102
RTVSPost2010Prop31
280
     0
102
RTVSPost2010PropOp31
 70
     1
102
RTVSPost2010Prop32
280
     0
102
RTVSPost2010PropOp32
 70
     1
102
RTVSPost2010Prop33
280
     0
102
RTVSPost2010PropOp33
 70
     1
102
RTVSPost2010Prop34
280
     0
102
RTVSPost2010PropOp34
 70
     1
102
RTVSPost2010Prop35
280
     0
102
RTVSPost2010PropOp35
 70
     1
102
RTVSPost2010Prop36
280
     0
102
RTVSPost2010PropOp36
 70
     1
102
RTVSPost2010Prop37
 90
       50
102
RTVSPost2010PropOp37
 70
     1
102
RTVSPost2010Prop38
140
0.0
102
RTVSPost2010PropOp38
 70
     1
102
RTVSPost2010Prop39
140
1.0
102
RTVSPost2010PropOp39
 70
     1
102
RTVSPost2010Prop40
 90
        0
102
RTVSPost2010PropOp40
 70
     1
102
RTVSPost2010Prop41ColorIndex
 90
       18
102
RTVSPost2010Prop41ColorRGB
 90
        0
102
RTVSPost2010PropOp41
 70
     1
102
RTVSPost2010Prop42
 90
       50
102
RTVSPost2010PropOp42
 70
     1
102
RTVSPost2010Prop43
 90
        3
102
RTVSPost2010PropOp43
 70
     1
102
RTVSPost2010Prop44ColorIndex
 90
        5
102
RTVSPost2010Prop44ColorRGB
 90
      255
102
RTVSPost2010PropOp44
 70
     1
102
RTVSPost2010Prop45
280
     0
102
RTVSPost2010PropOp45
 70
     1
102
RTVSPost2010Prop46
 90
       50
102
RTVSPost2010PropOp46
 70
     1
102
RTVSPost2010Prop47
 90
       50
102
RTVSPost2010PropOp47
 70
     1
102
RTVSPost2010Prop48
 90
       50
102
RTVSPost2010PropOp48
 70
     1
102
RTVSPost2010Prop49
280
     0
102
RTVSPost2010PropOp49
 70
     1
102
RTVSPost2010Prop50
 90
       50
102
RTVSPost2010PropOp50
 70
     1
102
RTVSPost2010Prop51ColorIndex
 90
      256
102
RTVSPost2010Prop51ColorRGB
 90
-16777216
102
RTVSPost2010PropOp51
 70
     0
102
RTVSPost2010Prop52
140
1.0
102
RTVSPost2010PropOp52
 70
     0
102
RTVSPost2010Prop53
 90
        2
102
RTVSPost2010PropOp53
 70
     1
102
RTVSPost2010Prop54
  1
strokes_ogs.tif
102
RTVSPost2010PropOp54
 70
     1
102
RTVSPost2010Prop55
280
     0
102
RTVSPost2010PropOp55
 70
     1
102
RTVSPost2010Prop56
140
1.0
102
RTVSPost2010PropOp56
 70
     1
102
RTVSPost2010Prop57
140
1.0
102
RTVSPost2010PropOp57
 70
     1
  0
XRECORD
  5
161
102
{ACAD_REACTORS
330
160
102
}
330
160
100
AcDbXrecord
280
     1
102
RTVSPost2010Prop28
280
     0
102
RTVSPost2010PropOp28
 70
     1
102
RTVSPost2010Prop29
280
     1
102
RTVSPost2010PropOp29
 70
     1
102
RTVSPost2010Prop30
280
     1
102
RTVSPost2010PropOp30
 70
     1
102
RTVSPost2010Prop31
280
     0
102
RTVSPost2010PropOp31
 70
     1
102
RTVSPost2010Prop32
280
     0
102
RTVSPost2010PropOp32
 70
     1
102
RTVSPost2010Prop33
280
     0
102
RTVSPost2010PropOp33
 70
     1
102
RTVSPost2010Prop34
280
     0
102
RTVSPost2010PropOp34
 70
     1
102
RTVSPost2010Prop35
280
     0
102
RTVSPost2010PropOp35
 70
     1
102
RTVSPost2010Prop36
280
     0
102
RTVSPost2010PropOp36
 70
     1
102
RTVSPost2010Prop37
 90
       50
102
RTVSPost2010PropOp37
 70
     1
102
RTVSPost2010Prop38
140
0.0
102
RTVSPost2010PropOp38
 70
     1
102
RTVSPost2010Prop39
140
1.0
102
RTVSPost2010PropOp39
 70
     1
102
RTVSPost2010Prop40
 90
        0
102
RTVSPost2010PropOp40
 70
     1
102
RTVSPost2010Prop41ColorIndex
 90
       18
102
RTVSPost2010Prop41ColorRGB
 90
        0
102
RTVSPost2010PropOp41
 70
     1
102
RTVSPost2010Prop42
 90
       50
102
RTVSPost2010PropOp42
 70
     1
102
RTVSPost2010Prop43
 90
        3
102
RTVSPost2010PropOp43
 70
     1
102
RTVSPost2010Prop44ColorIndex
 90
        5
102
RTVSPost2010Prop44ColorRGB
 90
      255
102
RTVSPost2010PropOp44
 70
     1
102
RTVSPost2010Prop45
280
     0
102
RTVSPost2010PropOp45
 70
     1
102
RTVSPost2010Prop46
 90
       50
102
RTVSPost2010PropOp46
 70
     1
102
RTVSPost2010Prop47
 90
       50
102
RTVSPost2010PropOp47
 70
     1
102
RTVSPost2010Prop48
 90
       50
102
RTVSPost2010PropOp48
 70
     1
102
RTVSPost2010Prop49
280
     0
102
RTVSPost2010PropOp49
 70
     1
102
RTVSPost2010Prop50
 90
       50
102
RTVSPost2010PropOp50
 70
     1
102
RTVSPost2010Prop51ColorIndex
 90
      256
102
RTVSPost2010Prop51ColorRGB
 90
-16777216
102
RTVSPost2010PropOp51
 70
     0
102
RTVSPost2010Prop52
140
1.0
102
RTVSPost2010PropOp52
 70
     0
102
RTVSPost2010Prop53
 90
        2
102
RTVSPost2010PropOp53
 70
     1
102
RTVSPost2010Prop54
  1
strokes_ogs.tif
102
RTVSPost2010PropOp54
 70
     1
102
RTVSPost2010Prop55
280
     0
102
RTVSPost2010PropOp55
 70
     1
102
RTVSPost2010Prop56
140
1.0
102
RTVSPost2010PropOp56
 70
     1
102
RTVSPost2010Prop57
140
1.0
102
RTVSPost2010PropOp57
 70
     1
  0
XRECORD
  5
163
102
{ACAD_REACTORS
330
162
102
}
330
162
100
AcDbXrecord
280
     1
102
RTVSPost2010Prop28
280
     0
102
RTVSPost2010PropOp28
 70
     1
102
RTVSPost2010Prop29
280
     1
102
RTVSPost2010PropOp29
 70
     1
102
RTVSPost2010Prop30
280
     1
102
RTVSPost2010PropOp30
 70
     1
102
RTVSPost2010Prop31
280
     0
102
RTVSPost2010PropOp31
 70
     1
102
RTVSPost2010Prop32
280
     0
102
RTVSPost2010PropOp32
 70
     1
102
RTVSPost2010Prop33
280
     0
102
RTVSPost2010PropOp33
 70
     1
102
RTVSPost2010Prop34
280
     0
102
RTVSPost2010PropOp34
 70
     1
102
RTVSPost2010Prop35
280
     0
102
RTVSPost2010PropOp35
 70
     1
102
RTVSPost2010Prop36
280
     0
102
RTVSPost2010PropOp36
 70
     1
102
RTVSPost2010Prop37
 90
       50
102
RTVSPost2010PropOp37
 70
     1
102
RTVSPost2010Prop38
140
0.0
102
RTVSPost2010PropOp38
 70
     1
102
RTVSPost2010Prop39
140
1.0
102
RTVSPost2010PropOp39
 70
     1
102
RTVSPost2010Prop40
 90
        0
102
RTVSPost2010PropOp40
 70
     1
102
RTVSPost2010Prop41ColorIndex
 90
       18
102
RTVSPost2010Prop41ColorRGB
 90
        0
102
RTVSPost2010PropOp41
 70
     1
102
RTVSPost2010Prop42
 90
       50
102
RTVSPost2010PropOp42
 70
     1
102
RTVSPost2010Prop43
 90
        3
102
RTVSPost2010PropOp43
 70
     1
102
RTVSPost2010Prop44ColorIndex
 90
        5
102
RTVSPost2010Prop44ColorRGB
 90
      255
102
RTVSPost2010PropOp44
 70
     1
102
RTVSPost2010Prop45
280
     0
102
RTVSPost2010PropOp45
 70
     1
102
RTVSPost2010Prop46
 90
       50
102
RTVSPost2010PropOp46
 70
     1
102
RTVSPost2010Prop47
 90
       50
102
RTVSPost2010PropOp47
 70
     1
102
RTVSPost2010Prop48
 90
       50
102
RTVSPost2010PropOp48
 70
     1
102
RTVSPost2010Prop49
280
     0
102
RTVSPost2010PropOp49
 70
     1
102
RTVSPost2010Prop50
 90
       50
102
RTVSPost2010PropOp50
 70
     1
102
RTVSPost2010Prop51ColorIndex
 90
      256
102
RTVSPost2010Prop51ColorRGB
 90
-16777216
102
RTVSPost2010PropOp51
 70
     0
102
RTVSPost2010Prop52
140
1.0
102
RTVSPost2010PropOp52
 70
     0
102
RTVSPost2010Prop53
 90
        2
102
RTVSPost2010PropOp53
 70
     1
102
RTVSPost2010Prop54
  1
strokes_ogs.tif
102
RTVSPost2010PropOp54
 70
     1
102
RTVSPost2010Prop55
280
     0
102
RTVSPost2010PropOp55
 70
     1
102
RTVSPost2010Prop56
140
1.0
102
RTVSPost2010PropOp56
 70
     1
102
RTVSPost2010Prop57
140
1.0
102
RTVSPost2010PropOp57
 70
     1
  0
XRECORD
  5
165
102
{ACAD_REACTORS
330
164
102
}
330
164
100
AcDbXrecord
280
     1
102
RTVSPost2010Prop28
280
     0
102
RTVSPost2010PropOp28
 70
     1
102
RTVSPost2010Prop29
280
     1
102
RTVSPost2010PropOp29
 70
     1
102
RTVSPost2010Prop30
280
     1
102
RTVSPost2010PropOp30
 70
     1
102
RTVSPost2010Prop31
280
     0
102
RTVSPost2010PropOp31
 70
     1
102
RTVSPost2010Prop32
280
     0
102
RTVSPost2010PropOp32
 70
     1
102
RTVSPost2010Prop33
280
     0
102
RTVSPost2010PropOp33
 70
     1
102
RTVSPost2010Prop34
280
     0
102
RTVSPost2010PropOp34
 70
     1
102
RTVSPost2010Prop35
280
     0
102
RTVSPost2010PropOp35
 70
     1
102
RTVSPost2010Prop36
280
     0
102
RTVSPost2010PropOp36
 70
     1
102
RTVSPost2010Prop37
 90
       50
102
RTVSPost2010PropOp37
 70
     1
102
RTVSPost2010Prop38
140
0.0
102
RTVSPost2010PropOp38
 70
     1
102
RTVSPost2010Prop39
140
1.0
102
RTVSPost2010PropOp39
 70
     1
102
RTVSPost2010Prop40
 90
        0
102
RTVSPost2010PropOp40
 70
     1
102
RTVSPost2010Prop41ColorIndex
 90
       18
102
RTVSPost2010Prop41ColorRGB
 90
        0
102
RTVSPost2010PropOp41
 70
     1
102
RTVSPost2010Prop42
 90
       50
102
RTVSPost2010PropOp42
 70
     1
102
RTVSPost2010Prop43
 90
        3
102
RTVSPost2010PropOp43
 70
     1
102
RTVSPost2010Prop44ColorIndex
 90
        5
102
RTVSPost2010Prop44ColorRGB
 90
      255
102
RTVSPost2010PropOp44
 70
     1
102
RTVSPost2010Prop45
280
     0
102
RTVSPost2010PropOp45
 70
     1
102
RTVSPost2010Prop46
 90
       50
102
RTVSPost2010PropOp46
 70
     1
102
RTVSPost2010Prop47
 90
       50
102
RTVSPost2010PropOp47
 70
     1
102
RTVSPost2010Prop48
 90
       50
102
RTVSPost2010PropOp48
 70
     1
102
RTVSPost2010Prop49
280
     0
102
RTVSPost2010PropOp49
 70
     1
102
RTVSPost2010Prop50
 90
       50
102
RTVSPost2010PropOp50
 70
     1
102
RTVSPost2010Prop51ColorIndex
 90
      256
102
RTVSPost2010Prop51ColorRGB
 90
-16777216
102
RTVSPost2010PropOp51
 70
     0
102
RTVSPost2010Prop52
140
1.0
102
RTVSPost2010PropOp52
 70
     0
102
RTVSPost2010Prop53
 90
        2
102
RTVSPost2010PropOp53
 70
     1
102
RTVSPost2010Prop54
  1
strokes_ogs.tif
102
RTVSPost2010PropOp54
 70
     1
102
RTVSPost2010Prop55
280
     0
102
RTVSPost2010PropOp55
 70
     1
102
RTVSPost2010Prop56
140
1.0
102
RTVSPost2010PropOp56
 70
     1
102
RTVSPost2010Prop57
140
1.0
102
RTVSPost2010PropOp57
 70
     1
  0
XRECORD
  5
167
102
{ACAD_REACTORS
330
166
102
}
330
166
100
AcDbXrecord
280
     1
102
RTVSPost2010Prop28
280
     0
102
RTVSPost2010PropOp28
 70
     1
102
RTVSPost2010Prop29
280
     1
102
RTVSPost2010PropOp29
 70
     1
102
RTVSPost2010Prop30
280
     1
102
RTVSPost2010PropOp30
 70
     1
102
RTVSPost2010Prop31
280
     0
102
RTVSPost2010PropOp31
 70
     1
102
RTVSPost2010Prop32
280
     0
102
RTVSPost2010PropOp32
 70
     1
102
RTVSPost2010Prop33
280
     0
102
RTVSPost2010PropOp33
 70
     1
102
RTVSPost2010Prop34
280
     0
102
RTVSPost2010PropOp34
 70
     1
102
RTVSPost2010Prop35
280
     0
102
RTVSPost2010PropOp35
 70
     1
102
RTVSPost2010Prop36
280
     0
102
RTVSPost2010PropOp36
 70
     1
102
RTVSPost2010Prop37
 90
       50
102
RTVSPost2010PropOp37
 70
     1
102
RTVSPost2010Prop38
140
0.0
102
RTVSPost2010PropOp38
 70
     1
102
RTVSPost2010Prop39
140
1.0
102
RTVSPost2010PropOp39
 70
     1
102
RTVSPost2010Prop40
 90
        0
102
RTVSPost2010PropOp40
 70
     1
102
RTVSPost2010Prop41ColorIndex
 90
       18
102
RTVSPost2010Prop41ColorRGB
 90
        0
102
RTVSPost2010PropOp41
 70
     1
102
RTVSPost2010Prop42
 90
       50
102
RTVSPost2010PropOp42
 70
     1
102
RTVSPost2010Prop43
 90
        3
102
RTVSPost2010PropOp43
 70
     1
102
RTVSPost2010Prop44ColorIndex
 90
        5
102
RTVSPost2010Prop44ColorRGB
 90
      255
102
RTVSPost2010PropOp44
 70
     1
102
RTVSPost2010Prop45
280
     0
102
RTVSPost2010PropOp45
 70
     1
102
RTVSPost2010Prop46
 90
       50
102
RTVSPost2010PropOp46
 70
     1
102
RTVSPost2010Prop47
 90
       50
102
RTVSPost2010PropOp47
 70
     1
102
RTVSPost2010Prop48
 90
       50
102
RTVSPost2010PropOp48
 70
     1
102
RTVSPost2010Prop49
280
     0
102
RTVSPost2010PropOp49
 70
     1
102
RTVSPost2010Prop50
 90
       50
102
RTVSPost2010PropOp50
 70
     1
102
RTVSPost2010Prop51ColorIndex
 90
      256
102
RTVSPost2010Prop51ColorRGB
 90
-16777216
102
RTVSPost2010PropOp51
 70
     0
102
RTVSPost2010Prop52
140
1.0
102
RTVSPost2010PropOp52
 70
     0
102
RTVSPost2010Prop53
 90
        2
102
RTVSPost2010PropOp53
 70
     1
102
RTVSPost2010Prop54
  1
strokes_ogs.tif
102
RTVSPost2010PropOp54
 70
     1
102
RTVSPost2010Prop55
280
     0
102
RTVSPost2010PropOp55
 70
     1
102
RTVSPost2010Prop56
140
1.0
102
RTVSPost2010PropOp56
 70
     1
102
RTVSPost2010Prop57
140
1.0
102
RTVSPost2010PropOp57
 70
     1
  0
XRECORD
  5
16F
102
{ACAD_REACTORS
330
16E
102
}
330
16E
100
AcDbXrecord
280
     1
102
RTVSPost2010Prop28
280
     0
102
RTVSPost2010PropOp28
 70
     1
102
RTVSPost2010Prop29
280
     1
102
RTVSPost2010PropOp29
 70
     1
102
RTVSPost2010Prop30
280
     1
102
RTVSPost2010PropOp30
 70
     1
102
RTVSPost2010Prop31
280
     0
102
RTVSPost2010PropOp31
 70
     1
102
RTVSPost2010Prop32
280
     0
102
RTVSPost2010PropOp32
 70
     1
102
RTVSPost2010Prop33
280
     0
102
RTVSPost2010PropOp33
 70
     1
102
RTVSPost2010Prop34
280
     0
102
RTVSPost2010PropOp34
 70
     1
102
RTVSPost2010Prop35
280
     0
102
RTVSPost2010PropOp35
 70
     1
102
RTVSPost2010Prop36
280
     0
102
RTVSPost2010PropOp36
 70
     1
102
RTVSPost2010Prop37
 90
       50
102
RTVSPost2010PropOp37
 70
     1
102
RTVSPost2010Prop38
140
0.0
102
RTVSPost2010PropOp38
 70
     1
102
RTVSPost2010Prop39
140
1.0
102
RTVSPost2010PropOp39
 70
     1
102
RTVSPost2010Prop40
 90
        0
102
RTVSPost2010PropOp40
 70
     1
102
RTVSPost2010Prop41ColorIndex
 90
       18
102
RTVSPost2010Prop41ColorRGB
 90
        0
102
RTVSPost2010PropOp41
 70
     1
102
RTVSPost2010Prop42
 90
       50
102
RTVSPost2010PropOp42
 70
     1
102
RTVSPost2010Prop43
 90
        3
102
RTVSPost2010PropOp43
 70
     1
102
RTVSPost2010Prop44ColorIndex
 90
        5
102
RTVSPost2010Prop44ColorRGB
 90
      255
102
RTVSPost2010PropOp44
 70
     1
102
RTVSPost2010Prop45
280
     0
102
RTVSPost2010PropOp45
 70
     1
102
RTVSPost2010Prop46
 90
       50
102
RTVSPost2010PropOp46
 70
     1
102
RTVSPost2010Prop47
 90
       50
102
RTVSPost2010PropOp47
 70
     1
102
RTVSPost2010Prop48
 90
       50
102
RTVSPost2010PropOp48
 70
     1
102
RTVSPost2010Prop49
280
     0
102
RTVSPost2010PropOp49
 70
     1
102
RTVSPost2010Prop50
 90
       50
102
RTVSPost2010PropOp50
 70
     1
102
RTVSPost2010Prop51ColorIndex
 90
      256
102
RTVSPost2010Prop51ColorRGB
 90
-16777216
102
RTVSPost2010PropOp51
 70
     0
102
RTVSPost2010Prop52
140
1.0
102
RTVSPost2010PropOp52
 70
     0
102
RTVSPost2010Prop53
 90
        2
102
RTVSPost2010PropOp53
 70
     1
102
RTVSPost2010Prop54
  1
strokes_ogs.tif
102
RTVSPost2010PropOp54
 70
     1
102
RTVSPost2010Prop55
280
     0
102
RTVSPost2010PropOp55
 70
     1
102
RTVSPost2010Prop56
140
1.0
102
RTVSPost2010PropOp56
 70
     1
102
RTVSPost2010Prop57
140
1.0
102
RTVSPost2010PropOp57
 70
     1
  0
XRECORD
  5
18B
102
{ACAD_REACTORS
330
18A
102
}
330
18A
100
AcDbXrecord
280
     1
102
RTVSPost2010Prop28
280
     0
102
RTVSPost2010PropOp28
 70
     0
102
RTVSPost2010Prop29
280
     1
102
RTVSPost2010PropOp29
 70
     0
102
RTVSPost2010Prop30
280
     1
102
RTVSPost2010PropOp30
 70
     0
102
RTVSPost2010Prop31
280
     0
102
RTVSPost2010PropOp31
 70
     0
102
RTVSPost2010Prop32
280
     0
102
RTVSPost2010PropOp32
 70
     0
102
RTVSPost2010Prop33
280
     0
102
RTVSPost2010PropOp33
 70
     0
102
RTVSPost2010Prop34
280
     0
102
RTVSPost2010PropOp34
 70
     0
102
RTVSPost2010Prop35
280
     0
102
RTVSPost2010PropOp35
 70
     0
102
RTVSPost2010Prop36
280
     0
102
RTVSPost2010PropOp36
 70
     0
102
RTVSPost2010Prop37
 90
       50
102
RTVSPost2010PropOp37
 70
     0
102
RTVSPost2010Prop38
140
0.0
102
RTVSPost2010PropOp38
 70
     0
102
RTVSPost2010Prop39
140
1.0
102
RTVSPost2010PropOp39
 70
     0
102
RTVSPost2010Prop40
 90
        0
102
RTVSPost2010PropOp40
 70
     0
102
RTVSPost2010Prop41ColorIndex
 90
       18
102
RTVSPost2010Prop41ColorRGB
 90
        0
102
RTVSPost2010PropOp41
 70
     0
102
RTVSPost2010Prop42
 90
       50
102
RTVSPost2010PropOp42
 70
     0
102
RTVSPost2010Prop43
 90
        3
102
RTVSPost2010PropOp43
 70
     0
102
RTVSPost2010Prop44ColorIndex
 90
        5
102
RTVSPost2010Prop44ColorRGB
 90
      255
102
RTVSPost2010PropOp44
 70
     0
102
RTVSPost2010Prop45
280
     0
102
RTVSPost2010PropOp45
 70
     0
102
RTVSPost2010Prop46
 90
       50
102
RTVSPost2010PropOp46
 70
     0
102
RTVSPost2010Prop47
 90
       50
102
RTVSPost2010PropOp47
 70
     0
102
RTVSPost2010Prop48
 90
       50
102
RTVSPost2010PropOp48
 70
     0
102
RTVSPost2010Prop49
280
     0
102
RTVSPost2010PropOp49
 70
     0
102
RTVSPost2010Prop50
 90
       50
102
RTVSPost2010PropOp50
 70
     0
102
RTVSPost2010Prop51ColorIndex
 90
      256
102
RTVSPost2010Prop51ColorRGB
 90
-16777216
102
RTVSPost2010PropOp51
 70
     0
102
RTVSPost2010Prop52
140
1.0
102
RTVSPost2010PropOp52
 70
     0
102
RTVSPost2010Prop53
 90
        2
102
RTVSPost2010PropOp53
 70
     0
102
RTVSPost2010Prop54
  1
strokes_ogs.tif
102
RTVSPost2010PropOp54
 70
     0
102
RTVSPost2010Prop55
280
     0
102
RTVSPost2010PropOp55
 70
     0
102
RTVSPost2010Prop56
140
1.0
102
RTVSPost2010PropOp56
 70
     0
102
RTVSPost2010Prop57
140
1.0
102
RTVSPost2010PropOp57
 70
     0
  0
XRECORD
  5
17B
102
{ACAD_REACTORS
330
17A
102
}
330
17A
100
AcDbXrecord
280
     1
102
RTVSPost2010Prop28
280
     0
102
RTVSPost2010PropOp28
 70
     1
102
RTVSPost2010Prop29
280
     1
102
RTVSPost2010PropOp29
 70
     1
102
RTVSPost2010Prop30
280
     1
102
RTVSPost2010PropOp30
 70
     1
102
RTVSPost2010Prop31
280
     0
102
RTVSPost2010PropOp31
 70
     1
102
RTVSPost2010Prop32
280
     0
102
RTVSPost2010PropOp32
 70
     1
102
RTVSPost2010Prop33
280
     0
102
RTVSPost2010PropOp33
 70
     1
102
RTVSPost2010Prop34
280
     0
102
RTVSPost2010PropOp34
 70
     1
102
RTVSPost2010Prop35
280
     0
102
RTVSPost2010PropOp35
 70
     1
102
RTVSPost2010Prop36
280
     0
102
RTVSPost2010PropOp36
 70
     1
102
RTVSPost2010Prop37
 90
       50
102
RTVSPost2010PropOp37
 70
     1
102
RTVSPost2010Prop38
140
0.0
102
RTVSPost2010PropOp38
 70
     1
102
RTVSPost2010Prop39
140
1.0
102
RTVSPost2010PropOp39
 70
     1
102
RTVSPost2010Prop40
 90
        0
102
RTVSPost2010PropOp40
 70
     1
102
RTVSPost2010Prop41ColorIndex
 90
       18
102
RTVSPost2010Prop41ColorRGB
 90
        0
102
RTVSPost2010PropOp41
 70
     1
102
RTVSPost2010Prop42
 90
       50
102
RTVSPost2010PropOp42
 70
     1
102
RTVSPost2010Prop43
 90
        3
102
RTVSPost2010PropOp43
 70
     1
102
RTVSPost2010Prop44ColorIndex
 90
        5
102
RTVSPost2010Prop44ColorRGB
 90
      255
102
RTVSPost2010PropOp44
 70
     1
102
RTVSPost2010Prop45
280
     0
102
RTVSPost2010PropOp45
 70
     1
102
RTVSPost2010Prop46
 90
       50
102
RTVSPost2010PropOp46
 70
     1
102
RTVSPost2010Prop47
 90
       50
102
RTVSPost2010PropOp47
 70
     1
102
RTVSPost2010Prop48
 90
       50
102
RTVSPost2010PropOp48
 70
     1
102
RTVSPost2010Prop49
280
     0
102
RTVSPost2010PropOp49
 70
     1
102
RTVSPost2010Prop50
 90
       50
102
RTVSPost2010PropOp50
 70
     1
102
RTVSPost2010Prop51ColorIndex
 90
      256
102
RTVSPost2010Prop51ColorRGB
 90
-16777216
102
RTVSPost2010PropOp51
 70
     0
102
RTVSPost2010Prop52
140
1.0
102
RTVSPost2010PropOp52
 70
     0
102
RTVSPost2010Prop53
 90
        2
102
RTVSPost2010PropOp53
 70
     1
102
RTVSPost2010Prop54
  1
strokes_ogs.tif
102
RTVSPost2010PropOp54
 70
     1
102
RTVSPost2010Prop55
280
     0
102
RTVSPost2010PropOp55
 70
     1
102
RTVSPost2010Prop56
140
1.0
102
RTVSPost2010PropOp56
 70
     1
102
RTVSPost2010Prop57
140
1.0
102
RTVSPost2010PropOp57
 70
     1
  0
XRECORD
  5
18D
102
{ACAD_REACTORS
330
18C
102
}
330
18C
100
AcDbXrecord
280
     1
102
RTVSPost2010Prop28
280
     0
102
RTVSPost2010PropOp28
 70
     0
102
RTVSPost2010Prop29
280
     1
102
RTVSPost2010PropOp29
 70
     0
102
RTVSPost2010Prop30
280
     1
102
RTVSPost2010PropOp30
 70
     0
102
RTVSPost2010Prop31
280
     0
102
RTVSPost2010PropOp31
 70
     0
102
RTVSPost2010Prop32
280
     0
102
RTVSPost2010PropOp32
 70
     0
102
RTVSPost2010Prop33
280
     0
102
RTVSPost2010PropOp33
 70
     0
102
RTVSPost2010Prop34
280
     0
102
RTVSPost2010PropOp34
 70
     0
102
RTVSPost2010Prop35
280
     0
102
RTVSPost2010PropOp35
 70
     0
102
RTVSPost2010Prop36
280
     0
102
RTVSPost2010PropOp36
 70
     0
102
RTVSPost2010Prop37
 90
       50
102
RTVSPost2010PropOp37
 70
     0
102
RTVSPost2010Prop38
140
0.0
102
RTVSPost2010PropOp38
 70
     0
102
RTVSPost2010Prop39
140
1.0
102
RTVSPost2010PropOp39
 70
     0
102
RTVSPost2010Prop40
 90
        0
102
RTVSPost2010PropOp40
 70
     0
102
RTVSPost2010Prop41ColorIndex
 90
       18
102
RTVSPost2010Prop41ColorRGB
 90
        0
102
RTVSPost2010PropOp41
 70
     0
102
RTVSPost2010Prop42
 90
       50
102
RTVSPost2010PropOp42
 70
     0
102
RTVSPost2010Prop43
 90
        3
102
RTVSPost2010PropOp43
 70
     0
102
RTVSPost2010Prop44ColorIndex
 90
        5
102
RTVSPost2010Prop44ColorRGB
 90
      255
102
RTVSPost2010PropOp44
 70
     0
102
RTVSPost2010Prop45
280
     0
102
RTVSPost2010PropOp45
 70
     0
102
RTVSPost2010Prop46
 90
       50
102
RTVSPost2010PropOp46
 70
     0
102
RTVSPost2010Prop47
 90
       50
102
RTVSPost2010PropOp47
 70
     0
102
RTVSPost2010Prop48
 90
       50
102
RTVSPost2010PropOp48
 70
     0
102
RTVSPost2010Prop49
280
     0
102
RTVSPost2010PropOp49
 70
     0
102
RTVSPost2010Prop50
 90
       50
102
RTVSPost2010PropOp50
 70
     0
102
RTVSPost2010Prop51ColorIndex
 90
      256
102
RTVSPost2010Prop51ColorRGB
 90
-16777216
102
RTVSPost2010PropOp51
 70
     0
102
RTVSPost2010Prop52
140
1.0
102
RTVSPost2010PropOp52
 70
     0
102
RTVSPost2010Prop53
 90
        2
102
RTVSPost2010PropOp53
 70
     0
102
RTVSPost2010Prop54
  1
strokes_ogs.tif
102
RTVSPost2010PropOp54
 70
     0
102
RTVSPost2010Prop55
280
     0
102
RTVSPost2010PropOp55
 70
     0
102
RTVSPost2010Prop56
140
1.0
102
RTVSPost2010PropOp56
 70
     0
102
RTVSPost2010Prop57
140
1.0
102
RTVSPost2010PropOp57
 70
     0
  0
XRECORD
  5
173
102
{ACAD_REACTORS
330
172
102
}
330
172
100
AcDbXrecord
280
     1
102
RTVSPost2010Prop28
280
     0
102
RTVSPost2010PropOp28
 70
     1
102
RTVSPost2010Prop29
280
     1
102
RTVSPost2010PropOp29
 70
     1
102
RTVSPost2010Prop30
280
     1
102
RTVSPost2010PropOp30
 70
     1
102
RTVSPost2010Prop31
280
     0
102
RTVSPost2010PropOp31
 70
     1
102
RTVSPost2010Prop32
280
     0
102
RTVSPost2010PropOp32
 70
     1
102
RTVSPost2010Prop33
280
     0
102
RTVSPost2010PropOp33
 70
     1
102
RTVSPost2010Prop34
280
     0
102
RTVSPost2010PropOp34
 70
     1
102
RTVSPost2010Prop35
280
     0
102
RTVSPost2010PropOp35
 70
     1
102
RTVSPost2010Prop36
280
     0
102
RTVSPost2010PropOp36
 70
     1
102
RTVSPost2010Prop37
 90
       50
102
RTVSPost2010PropOp37
 70
     1
102
RTVSPost2010Prop38
140
0.0
102
RTVSPost2010PropOp38
 70
     1
102
RTVSPost2010Prop39
140
1.0
102
RTVSPost2010PropOp39
 70
     1
102
RTVSPost2010Prop40
 90
        0
102
RTVSPost2010PropOp40
 70
     1
102
RTVSPost2010Prop41ColorIndex
 90
       18
102
RTVSPost2010Prop41ColorRGB
 90
        0
102
RTVSPost2010PropOp41
 70
     1
102
RTVSPost2010Prop42
 90
       50
102
RTVSPost2010PropOp42
 70
     1
102
RTVSPost2010Prop43
 90
        3
102
RTVSPost2010PropOp43
 70
     1
102
RTVSPost2010Prop44ColorIndex
 90
        5
102
RTVSPost2010Prop44ColorRGB
 90
      255
102
RTVSPost2010PropOp44
 70
     1
102
RTVSPost2010Prop45
280
     0
102
RTVSPost2010PropOp45
 70
     1
102
RTVSPost2010Prop46
 90
       50
102
RTVSPost2010PropOp46
 70
     1
102
RTVSPost2010Prop47
 90
       50
102
RTVSPost2010PropOp47
 70
     1
102
RTVSPost2010Prop48
 90
       50
102
RTVSPost2010PropOp48
 70
     1
102
RTVSPost2010Prop49
280
     0
102
RTVSPost2010PropOp49
 70
     1
102
RTVSPost2010Prop50
 90
       50
102
RTVSPost2010PropOp50
 70
     1
102
RTVSPost2010Prop51ColorIndex
 90
      256
102
RTVSPost2010Prop51ColorRGB
 90
-16777216
102
RTVSPost2010PropOp51
 70
     0
102
RTVSPost2010Prop52
140
1.0
102
RTVSPost2010PropOp52
 70
     0
102
RTVSPost2010Prop53
 90
        2
102
RTVSPost2010PropOp53
 70
     1
102
RTVSPost2010Prop54
  1
strokes_ogs.tif
102
RTVSPost2010PropOp54
 70
     1
102
RTVSPost2010Prop55
280
     0
102
RTVSPost2010PropOp55
 70
     1
102
RTVSPost2010Prop56
140
1.0
102
RTVSPost2010PropOp56
 70
     1
102
RTVSPost2010Prop57
140
1.0
102
RTVSPost2010PropOp57
 70
     1
  0
XRECORD
  5
189
102
{ACAD_REACTORS
330
188
102
}
330
188
100
AcDbXrecord
280
     1
102
RTVSPost2010Prop28
280
     0
102
RTVSPost2010PropOp28
 70
     1
102
RTVSPost2010Prop29
280
     1
102
RTVSPost2010PropOp29
 70
     1
102
RTVSPost2010Prop30
280
     1
102
RTVSPost2010PropOp30
 70
     1
102
RTVSPost2010Prop31
280
     0
102
RTVSPost2010PropOp31
 70
     1
102
RTVSPost2010Prop32
280
     0
102
RTVSPost2010PropOp32
 70
     1
102
RTVSPost2010Prop33
280
     0
102
RTVSPost2010PropOp33
 70
     1
102
RTVSPost2010Prop34
280
     0
102
RTVSPost2010PropOp34
 70
     1
102
RTVSPost2010Prop35
280
     0
102
RTVSPost2010PropOp35
 70
     1
102
RTVSPost2010Prop36
280
     0
102
RTVSPost2010PropOp36
 70
     1
102
RTVSPost2010Prop37
 90
       50
102
RTVSPost2010PropOp37
 70
     1
102
RTVSPost2010Prop38
140
0.0
102
RTVSPost2010PropOp38
 70
     1
102
RTVSPost2010Prop39
140
1.0
102
RTVSPost2010PropOp39
 70
     1
102
RTVSPost2010Prop40
 90
        0
102
RTVSPost2010PropOp40
 70
     1
102
RTVSPost2010Prop41ColorIndex
 90
       18
102
RTVSPost2010Prop41ColorRGB
 90
        0
102
RTVSPost2010PropOp41
 70
     1
102
RTVSPost2010Prop42
 90
       50
102
RTVSPost2010PropOp42
 70
     1
102
RTVSPost2010Prop43
 90
        3
102
RTVSPost2010PropOp43
 70
     1
102
RTVSPost2010Prop44ColorIndex
 90
        5
102
RTVSPost2010Prop44ColorRGB
 90
      255
102
RTVSPost2010PropOp44
 70
     1
102
RTVSPost2010Prop45
280
     0
102
RTVSPost2010PropOp45
 70
     1
102
RTVSPost2010Prop46
 90
       50
102
RTVSPost2010PropOp46
 70
     1
102
RTVSPost2010Prop47
 90
       50
102
RTVSPost2010PropOp47
 70
     1
102
RTVSPost2010Prop48
 90
       50
102
RTVSPost2010PropOp48
 70
     1
102
RTVSPost2010Prop49
280
     0
102
RTVSPost2010PropOp49
 70
     1
102
RTVSPost2010Prop50
 90
       50
102
RTVSPost2010PropOp50
 70
     1
102
RTVSPost2010Prop51ColorIndex
 90
      256
102
RTVSPost2010Prop51ColorRGB
 90
-16777216
102
RTVSPost2010PropOp51
 70
     0
102
RTVSPost2010Prop52
140
1.0
102
RTVSPost2010PropOp52
 70
     0
102
RTVSPost2010Prop53
 90
        2
102
RTVSPost2010PropOp53
 70
     1
102
RTVSPost2010Prop54
  1
strokes_ogs.tif
102
RTVSPost2010PropOp54
 70
     1
102
RTVSPost2010Prop55
280
     0
102
RTVSPost2010PropOp55
 70
     1
102
RTVSPost2010Prop56
140
1.0
102
RTVSPost2010PropOp56
 70
     1
102
RTVSPost2010Prop57
140
1.0
102
RTVSPost2010PropOp57
 70
     1
  0
XRECORD
  5
187
102
{ACAD_REACTORS
330
186
102
}
330
186
100
AcDbXrecord
280
     1
102
RTVSPost2010Prop28
280
     0
102
RTVSPost2010PropOp28
 70
     1
102
RTVSPost2010Prop29
280
     1
102
RTVSPost2010PropOp29
 70
     1
102
RTVSPost2010Prop30
280
     1
102
RTVSPost2010PropOp30
 70
     1
102
RTVSPost2010Prop31
280
     0
102
RTVSPost2010PropOp31
 70
     1
102
RTVSPost2010Prop32
280
     0
102
RTVSPost2010PropOp32
 70
     1
102
RTVSPost2010Prop33
280
     0
102
RTVSPost2010PropOp33
 70
     1
102
RTVSPost2010Prop34
280
     0
102
RTVSPost2010PropOp34
 70
     1
102
RTVSPost2010Prop35
280
     0
102
RTVSPost2010PropOp35
 70
     1
102
RTVSPost2010Prop36
280
     0
102
RTVSPost2010PropOp36
 70
     1
102
RTVSPost2010Prop37
 90
       50
102
RTVSPost2010PropOp37
 70
     1
102
RTVSPost2010Prop38
140
0.0
102
RTVSPost2010PropOp38
 70
     1
102
RTVSPost2010Prop39
140
1.0
102
RTVSPost2010PropOp39
 70
     1
102
RTVSPost2010Prop40
 90
        0
102
RTVSPost2010PropOp40
 70
     1
102
RTVSPost2010Prop41ColorIndex
 90
       18
102
RTVSPost2010Prop41ColorRGB
 90
        0
102
RTVSPost2010PropOp41
 70
     1
102
RTVSPost2010Prop42
 90
       50
102
RTVSPost2010PropOp42
 70
     1
102
RTVSPost2010Prop43
 90
        3
102
RTVSPost2010PropOp43
 70
     1
102
RTVSPost2010Prop44ColorIndex
 90
        5
102
RTVSPost2010Prop44ColorRGB
 90
      255
102
RTVSPost2010PropOp44
 70
     1
102
RTVSPost2010Prop45
280
     0
102
RTVSPost2010PropOp45
 70
     1
102
RTVSPost2010Prop46
 90
       50
102
RTVSPost2010PropOp46
 70
     1
102
RTVSPost2010Prop47
 90
       50
102
RTVSPost2010PropOp47
 70
     1
102
RTVSPost2010Prop48
 90
       50
102
RTVSPost2010PropOp48
 70
     1
102
RTVSPost2010Prop49
280
     0
102
RTVSPost2010PropOp49
 70
     1
102
RTVSPost2010Prop50
 90
       50
102
RTVSPost2010PropOp50
 70
     1
102
RTVSPost2010Prop51ColorIndex
 90
      256
102
RTVSPost2010Prop51ColorRGB
 90
-16777216
102
RTVSPost2010PropOp51
 70
     0
102
RTVSPost2010Prop52
140
1.0
102
RTVSPost2010PropOp52
 70
     0
102
RTVSPost2010Prop53
 90
        2
102
RTVSPost2010PropOp53
 70
     1
102
RTVSPost2010Prop54
  1
strokes_ogs.tif
102
RTVSPost2010PropOp54
 70
     1
102
RTVSPost2010Prop55
280
     0
102
RTVSPost2010PropOp55
 70
     1
102
RTVSPost2010Prop56
140
1.0
102
RTVSPost2010PropOp56
 70
     1
102
RTVSPost2010Prop57
140
1.0
102
RTVSPost2010PropOp57
 70
     1
  0
XRECORD
  5
181
102
{ACAD_REACTORS
330
180
102
}
330
180
100
AcDbXrecord
280
     1
102
RTVSPost2010Prop28
280
     0
102
RTVSPost2010PropOp28
 70
     1
102
RTVSPost2010Prop29
280
     1
102
RTVSPost2010PropOp29
 70
     1
102
RTVSPost2010Prop30
280
     1
102
RTVSPost2010PropOp30
 70
     1
102
RTVSPost2010Prop31
280
     0
102
RTVSPost2010PropOp31
 70
     1
102
RTVSPost2010Prop32
280
     0
102
RTVSPost2010PropOp32
 70
     1
102
RTVSPost2010Prop33
280
     0
102
RTVSPost2010PropOp33
 70
     1
102
RTVSPost2010Prop34
280
     0
102
RTVSPost2010PropOp34
 70
     1
102
RTVSPost2010Prop35
280
     0
102
RTVSPost2010PropOp35
 70
     1
102
RTVSPost2010Prop36
280
     0
102
RTVSPost2010PropOp36
 70
     1
102
RTVSPost2010Prop37
 90
       50
102
RTVSPost2010PropOp37
 70
     1
102
RTVSPost2010Prop38
140
0.0
102
RTVSPost2010PropOp38
 70
     1
102
RTVSPost2010Prop39
140
1.0
102
RTVSPost2010PropOp39
 70
     1
102
RTVSPost2010Prop40
 90
        0
102
RTVSPost2010PropOp40
 70
     1
102
RTVSPost2010Prop41ColorIndex
 90
       18
102
RTVSPost2010Prop41ColorRGB
 90
        0
102
RTVSPost2010PropOp41
 70
     1
102
RTVSPost2010Prop42
 90
       50
102
RTVSPost2010PropOp42
 70
     1
102
RTVSPost2010Prop43
 90
        3
102
RTVSPost2010PropOp43
 70
     1
102
RTVSPost2010Prop44ColorIndex
 90
        5
102
RTVSPost2010Prop44ColorRGB
 90
      255
102
RTVSPost2010PropOp44
 70
     1
102
RTVSPost2010Prop45
280
     0
102
RTVSPost2010PropOp45
 70
     1
102
RTVSPost2010Prop46
 90
       50
102
RTVSPost2010PropOp46
 70
     1
102
RTVSPost2010Prop47
 90
       50
102
RTVSPost2010PropOp47
 70
     1
102
RTVSPost2010Prop48
 90
       50
102
RTVSPost2010PropOp48
 70
     1
102
RTVSPost2010Prop49
280
     0
102
RTVSPost2010PropOp49
 70
     1
102
RTVSPost2010Prop50
 90
       50
102
RTVSPost2010PropOp50
 70
     1
102
RTVSPost2010Prop51ColorIndex
 90
      256
102
RTVSPost2010Prop51ColorRGB
 90
-16777216
102
RTVSPost2010PropOp51
 70
     0
102
RTVSPost2010Prop52
140
1.0
102
RTVSPost2010PropOp52
 70
     0
102
RTVSPost2010Prop53
 90
        2
102
RTVSPost2010PropOp53
 70
     1
102
RTVSPost2010Prop54
  1
strokes_ogs.tif
102
RTVSPost2010PropOp54
 70
     1
102
RTVSPost2010Prop55
280
     0
102
RTVSPost2010PropOp55
 70
     1
102
RTVSPost2010Prop56
140
1.0
102
RTVSPost2010PropOp56
 70
     1
102
RTVSPost2010Prop57
140
1.0
102
RTVSPost2010PropOp57
 70
     1
  0
XRECORD
  5
183
102
{ACAD_REACTORS
330
182
102
}
330
182
100
AcDbXrecord
280
     1
102
RTVSPost2010Prop28
280
     0
102
RTVSPost2010PropOp28
 70
     1
102
RTVSPost2010Prop29
280
     1
102
RTVSPost2010PropOp29
 70
     1
102
RTVSPost2010Prop30
280
     1
102
RTVSPost2010PropOp30
 70
     1
102
RTVSPost2010Prop31
280
     0
102
RTVSPost2010PropOp31
 70
     1
102
RTVSPost2010Prop32
280
     0
102
RTVSPost2010PropOp32
 70
     1
102
RTVSPost2010Prop33
280
     0
102
RTVSPost2010PropOp33
 70
     1
102
RTVSPost2010Prop34
280
     0
102
RTVSPost2010PropOp34
 70
     1
102
RTVSPost2010Prop35
280
     0
102
RTVSPost2010PropOp35
 70
     1
102
RTVSPost2010Prop36
280
     0
102
RTVSPost2010PropOp36
 70
     1
102
RTVSPost2010Prop37
 90
       50
102
RTVSPost2010PropOp37
 70
     1
102
RTVSPost2010Prop38
140
0.0
102
RTVSPost2010PropOp38
 70
     1
102
RTVSPost2010Prop39
140
1.0
102
RTVSPost2010PropOp39
 70
     1
102
RTVSPost2010Prop40
 90
        0
102
RTVSPost2010PropOp40
 70
     1
102
RTVSPost2010Prop41ColorIndex
 90
       18
102
RTVSPost2010Prop41ColorRGB
 90
        0
102
RTVSPost2010PropOp41
 70
     1
102
RTVSPost2010Prop42
 90
       50
102
RTVSPost2010PropOp42
 70
     1
102
RTVSPost2010Prop43
 90
        3
102
RTVSPost2010PropOp43
 70
     1
102
RTVSPost2010Prop44ColorIndex
 90
        5
102
RTVSPost2010Prop44ColorRGB
 90
      255
102
RTVSPost2010PropOp44
 70
     1
102
RTVSPost2010Prop45
280
     0
102
RTVSPost2010PropOp45
 70
     1
102
RTVSPost2010Prop46
 90
       50
102
RTVSPost2010PropOp46
 70
     1
102
RTVSPost2010Prop47
 90
       50
102
RTVSPost2010PropOp47
 70
     1
102
RTVSPost2010Prop48
 90
       50
102
RTVSPost2010PropOp48
 70
     1
102
RTVSPost2010Prop49
280
     0
102
RTVSPost2010PropOp49
 70
     1
102
RTVSPost2010Prop50
 90
       50
102
RTVSPost2010PropOp50
 70
     1
102
RTVSPost2010Prop51ColorIndex
 90
      256
102
RTVSPost2010Prop51ColorRGB
 90
-16777216
102
RTVSPost2010PropOp51
 70
     0
102
RTVSPost2010Prop52
140
1.0
102
RTVSPost2010PropOp52
 70
     0
102
RTVSPost2010Prop53
 90
        2
102
RTVSPost2010PropOp53
 70
     1
102
RTVSPost2010Prop54
  1
strokes_ogs.tif
102
RTVSPost2010PropOp54
 70
     1
102
RTVSPost2010Prop55
280
     0
102
RTVSPost2010PropOp55
 70
     1
102
RTVSPost2010Prop56
140
1.0
102
RTVSPost2010PropOp56
 70
     1
102
RTVSPost2010Prop57
140
1.0
102
RTVSPost2010PropOp57
 70
     1
  0
XRECORD
  5
179
102
{ACAD_REACTORS
330
178
102
}
330
178
100
AcDbXrecord
280
     1
102
RTVSPost2010Prop28
280
     0
102
RTVSPost2010PropOp28
 70
     1
102
RTVSPost2010Prop29
280
     1
102
RTVSPost2010PropOp29
 70
     1
102
RTVSPost2010Prop30
280
     1
102
RTVSPost2010PropOp30
 70
     1
102
RTVSPost2010Prop31
280
     0
102
RTVSPost2010PropOp31
 70
     1
102
RTVSPost2010Prop32
280
     0
102
RTVSPost2010PropOp32
 70
     1
102
RTVSPost2010Prop33
280
     0
102
RTVSPost2010PropOp33
 70
     1
102
RTVSPost2010Prop34
280
     0
102
RTVSPost2010PropOp34
 70
     1
102
RTVSPost2010Prop35
280
     0
102
RTVSPost2010PropOp35
 70
     1
102
RTVSPost2010Prop36
280
     0
102
RTVSPost2010PropOp36
 70
     1
102
RTVSPost2010Prop37
 90
       50
102
RTVSPost2010PropOp37
 70
     1
102
RTVSPost2010Prop38
140
0.0
102
RTVSPost2010PropOp38
 70
     1
102
RTVSPost2010Prop39
140
1.0
102
RTVSPost2010PropOp39
 70
     1
102
RTVSPost2010Prop40
 90
        0
102
RTVSPost2010PropOp40
 70
     1
102
RTVSPost2010Prop41ColorIndex
 90
       18
102
RTVSPost2010Prop41ColorRGB
 90
        0
102
RTVSPost2010PropOp41
 70
     1
102
RTVSPost2010Prop42
 90
       50
102
RTVSPost2010PropOp42
 70
     1
102
RTVSPost2010Prop43
 90
        3
102
RTVSPost2010PropOp43
 70
     1
102
RTVSPost2010Prop44ColorIndex
 90
        5
102
RTVSPost2010Prop44ColorRGB
 90
      255
102
RTVSPost2010PropOp44
 70
     1
102
RTVSPost2010Prop45
280
     0
102
RTVSPost2010PropOp45
 70
     1
102
RTVSPost2010Prop46
 90
       50
102
RTVSPost2010PropOp46
 70
     1
102
RTVSPost2010Prop47
 90
       50
102
RTVSPost2010PropOp47
 70
     1
102
RTVSPost2010Prop48
 90
       50
102
RTVSPost2010PropOp48
 70
     1
102
RTVSPost2010Prop49
280
     0
102
RTVSPost2010PropOp49
 70
     1
102
RTVSPost2010Prop50
 90
       50
102
RTVSPost2010PropOp50
 70
     1
102
RTVSPost2010Prop51ColorIndex
 90
      256
102
RTVSPost2010Prop51ColorRGB
 90
-16777216
102
RTVSPost2010PropOp51
 70
     0
102
RTVSPost2010Prop52
140
1.0
102
RTVSPost2010PropOp52
 70
     0
102
RTVSPost2010Prop53
 90
        2
102
RTVSPost2010PropOp53
 70
     1
102
RTVSPost2010Prop54
  1
strokes_ogs.tif
102
RTVSPost2010PropOp54
 70
     1
102
RTVSPost2010Prop55
280
     0
102
RTVSPost2010PropOp55
 70
     1
102
RTVSPost2010Prop56
140
1.0
102
RTVSPost2010PropOp56
 70
     1
102
RTVSPost2010Prop57
140
1.0
102
RTVSPost2010PropOp57
 70
     1
  0
XRECORD
  5
16D
102
{ACAD_REACTORS
330
16C
102
}
330
16C
100
AcDbXrecord
280
     1
102
RTVSPost2010Prop28
280
     0
102
RTVSPost2010PropOp28
 70
     1
102
RTVSPost2010Prop29
280
     1
102
RTVSPost2010PropOp29
 70
     1
102
RTVSPost2010Prop30
280
     1
102
RTVSPost2010PropOp30
 70
     1
102
RTVSPost2010Prop31
280
     0
102
RTVSPost2010PropOp31
 70
     1
102
RTVSPost2010Prop32
280
     0
102
RTVSPost2010PropOp32
 70
     1
102
RTVSPost2010Prop33
280
     0
102
RTVSPost2010PropOp33
 70
     1
102
RTVSPost2010Prop34
280
     0
102
RTVSPost2010PropOp34
 70
     1
102
RTVSPost2010Prop35
280
     0
102
RTVSPost2010PropOp35
 70
     1
102
RTVSPost2010Prop36
280
     0
102
RTVSPost2010PropOp36
 70
     1
102
RTVSPost2010Prop37
 90
       50
102
RTVSPost2010PropOp37
 70
     1
102
RTVSPost2010Prop38
140
0.0
102
RTVSPost2010PropOp38
 70
     1
102
RTVSPost2010Prop39
140
1.0
102
RTVSPost2010PropOp39
 70
     1
102
RTVSPost2010Prop40
 90
        0
102
RTVSPost2010PropOp40
 70
     1
102
RTVSPost2010Prop41ColorIndex
 90
       18
102
RTVSPost2010Prop41ColorRGB
 90
        0
102
RTVSPost2010PropOp41
 70
     1
102
RTVSPost2010Prop42
 90
       50
102
RTVSPost2010PropOp42
 70
     1
102
RTVSPost2010Prop43
 90
        3
102
RTVSPost2010PropOp43
 70
     1
102
RTVSPost2010Prop44ColorIndex
 90
        5
102
RTVSPost2010Prop44ColorRGB
 90
      255
102
RTVSPost2010PropOp44
 70
     1
102
RTVSPost2010Prop45
280
     0
102
RTVSPost2010PropOp45
 70
     1
102
RTVSPost2010Prop46
 90
       50
102
RTVSPost2010PropOp46
 70
     1
102
RTVSPost2010Prop47
 90
       50
102
RTVSPost2010PropOp47
 70
     1
102
RTVSPost2010Prop48
 90
       50
102
RTVSPost2010PropOp48
 70
     1
102
RTVSPost2010Prop49
280
     0
102
RTVSPost2010PropOp49
 70
     1
102
RTVSPost2010Prop50
 90
       50
102
RTVSPost2010PropOp50
 70
     1
102
RTVSPost2010Prop51ColorIndex
 90
      256
102
RTVSPost2010Prop51ColorRGB
 90
-16777216
102
RTVSPost2010PropOp51
 70
     0
102
RTVSPost2010Prop52
140
1.0
102
RTVSPost2010PropOp52
 70
     0
102
RTVSPost2010Prop53
 90
        2
102
RTVSPost2010PropOp53
 70
     1
102
RTVSPost2010Prop54
  1
strokes_ogs.tif
102
RTVSPost2010PropOp54
 70
     1
102
RTVSPost2010Prop55
280
     0
102
RTVSPost2010PropOp55
 70
     1
102
RTVSPost2010Prop56
140
1.0
102
RTVSPost2010PropOp56
 70
     1
102
RTVSPost2010Prop57
140
1.0
102
RTVSPost2010PropOp57
 70
     1
  0
XRECORD
  5
185
102
{ACAD_REACTORS
330
184
102
}
330
184
100
AcDbXrecord
280
     1
102
RTVSPost2010Prop28
280
     0
102
RTVSPost2010PropOp28
 70
     1
102
RTVSPost2010Prop29
280
     1
102
RTVSPost2010PropOp29
 70
     1
102
RTVSPost2010Prop30
280
     1
102
RTVSPost2010PropOp30
 70
     1
102
RTVSPost2010Prop31
280
     0
102
RTVSPost2010PropOp31
 70
     1
102
RTVSPost2010Prop32
280
     0
102
RTVSPost2010PropOp32
 70
     1
102
RTVSPost2010Prop33
280
     0
102
RTVSPost2010PropOp33
 70
     1
102
RTVSPost2010Prop34
280
     0
102
RTVSPost2010PropOp34
 70
     1
102
RTVSPost2010Prop35
280
     0
102
RTVSPost2010PropOp35
 70
     1
102
RTVSPost2010Prop36
280
     0
102
RTVSPost2010PropOp36
 70
     1
102
RTVSPost2010Prop37
 90
       50
102
RTVSPost2010PropOp37
 70
     1
102
RTVSPost2010Prop38
140
0.0
102
RTVSPost2010PropOp38
 70
     1
102
RTVSPost2010Prop39
140
1.0
102
RTVSPost2010PropOp39
 70
     1
102
RTVSPost2010Prop40
 90
        0
102
RTVSPost2010PropOp40
 70
     1
102
RTVSPost2010Prop41ColorIndex
 90
       18
102
RTVSPost2010Prop41ColorRGB
 90
        0
102
RTVSPost2010PropOp41
 70
     1
102
RTVSPost2010Prop42
 90
       50
102
RTVSPost2010PropOp42
 70
     1
102
RTVSPost2010Prop43
 90
        3
102
RTVSPost2010PropOp43
 70
     1
102
RTVSPost2010Prop44ColorIndex
 90
        5
102
RTVSPost2010Prop44ColorRGB
 90
      255
102
RTVSPost2010PropOp44
 70
     1
102
RTVSPost2010Prop45
280
     0
102
RTVSPost2010PropOp45
 70
     1
102
RTVSPost2010Prop46
 90
       50
102
RTVSPost2010PropOp46
 70
     1
102
RTVSPost2010Prop47
 90
       50
102
RTVSPost2010PropOp47
 70
     1
102
RTVSPost2010Prop48
 90
       50
102
RTVSPost2010PropOp48
 70
     1
102
RTVSPost2010Prop49
280
     0
102
RTVSPost2010PropOp49
 70
     1
102
RTVSPost2010Prop50
 90
       50
102
RTVSPost2010PropOp50
 70
     1
102
RTVSPost2010Prop51ColorIndex
 90
      256
102
RTVSPost2010Prop51ColorRGB
 90
-16777216
102
RTVSPost2010PropOp51
 70
     0
102
RTVSPost2010Prop52
140
1.0
102
RTVSPost2010PropOp52
 70
     0
102
RTVSPost2010Prop53
 90
        2
102
RTVSPost2010PropOp53
 70
     1
102
RTVSPost2010Prop54
  1
strokes_ogs.tif
102
RTVSPost2010PropOp54
 70
     1
102
RTVSPost2010Prop55
280
     0
102
RTVSPost2010PropOp55
 70
     1
102
RTVSPost2010Prop56
140
1.0
102
RTVSPost2010PropOp56
 70
     1
102
RTVSPost2010Prop57
140
1.0
102
RTVSPost2010PropOp57
 70
     1
  0
ENDSEC
  0
EOF
