  0
SECTION
  2
HEADER
  9
$ACADVER
  1
AC1024
  9
$ACADMAINTVER
 70
   205
  9
$DWGCODEPAGE
  3
ANSI_1251
  9
$INSBASE
 10
0.0
 20
0.0
 30
0.0
  9
$EXTMIN
 10
1.000000000000000E+20
 20
1.000000000000000E+20
 30
1.000000000000000E+20
  9
$EXTMAX
 10
-1.000000000000000E+20
 20
-1.000000000000000E+20
 30
-1.000000000000000E+20
  9
$LIMMIN
 10
0.0
 20
0.0
  9
$LIMMAX
 10
12.0
 20
9.0
  9
$ORTHOMODE
 70
     0
  9
$REGENMODE
 70
     1
  9
$FILLMODE
 70
     1
  9
$QTEXTMODE
 70
     0
  9
$MIRRTEXT
 70
     1
  9
$LTSCALE
 40
1.0
  9
$ATTMODE
 70
     1
  9
$TEXTSIZE
 40
0.2
  9
$TRACEWID
 40
0.05
  9
$TEXTSTYLE
  7
Standard
  9
$CLAYER
  8
OracDecor_cornice_mouldings
  9
$CELTYPE
  6
ByLayer
  9
$CECOLOR
 62
   256
  9
$CELTSCALE
 40
1.0
  9
$DISPSILH
 70
     0
  9
$DIMSCALE
 40
1.0
  9
$DIMASZ
 40
0.18
  9
$DIMEXO
 40
0.0625
  9
$DIMDLI
 40
0.38
  9
$DIMRND
 40
0.0
  9
$DIMDLE
 40
0.0
  9
$DIMEXE
 40
0.18
  9
$DIMTP
 40
0.0
  9
$DIMTM
 40
0.0
  9
$DIMTXT
 40
0.18
  9
$DIMCEN
 40
0.09
  9
$DIMTSZ
 40
0.0
  9
$DIMTOL
 70
     0
  9
$DIMLIM
 70
     0
  9
$DIMTIH
 70
     1
  9
$DIMTOH
 70
     1
  9
$DIMSE1
 70
     0
  9
$DIMSE2
 70
     0
  9
$DIMTAD
 70
     0
  9
$DIMZIN
 70
     0
  9
$DIMBLK
  1

  9
$DIMASO
 70
     1
  9
$DIMSHO
 70
     1
  9
$DIMPOST
  1

  9
$DIMAPOST
  1

  9
$DIMALT
 70
     0
  9
$DIMALTD
 70
     2
  9
$DIMALTF
 40
25.4
  9
$DIMLFAC
 40
1.0
  9
$DIMTOFL
 70
     0
  9
$DIMTVP
 40
0.0
  9
$DIMTIX
 70
     0
  9
$DIMSOXD
 70
     0
  9
$DIMSAH
 70
     0
  9
$DIMBLK1
  1

  9
$DIMBLK2
  1

  9
$DIMSTYLE
  2
Standard
  9
$DIMCLRD
 70
     0
  9
$DIMCLRE
 70
     0
  9
$DIMCLRT
 70
     0
  9
$DIMTFAC
 40
1.0
  9
$DIMGAP
 40
0.09
  9
$DIMJUST
 70
     0
  9
$DIMSD1
 70
     0
  9
$DIMSD2
 70
     0
  9
$DIMTOLJ
 70
     1
  9
$DIMTZIN
 70
     0
  9
$DIMALTZ
 70
     0
  9
$DIMALTTZ
 70
     0
  9
$DIMUPT
 70
     0
  9
$DIMDEC
 70
     4
  9
$DIMTDEC
 70
     4
  9
$DIMALTU
 70
     2
  9
$DIMALTTD
 70
     2
  9
$DIMTXSTY
  7
Standard
  9
$DIMAUNIT
 70
     0
  9
$DIMADEC
 70
     0
  9
$DIMALTRND
 40
0.0
  9
$DIMAZIN
 70
     0
  9
$DIMDSEP
 70
    46
  9
$DIMATFIT
 70
     3
  9
$DIMFRAC
 70
     0
  9
$DIMLDRBLK
  1

  9
$DIMLUNIT
 70
     2
  9
$DIMLWD
 70
    -2
  9
$DIMLWE
 70
    -2
  9
$DIMTMOVE
 70
     0
  9
$DIMFXL
 40
1.0
  9
$DIMFXLON
 70
     0
  9
$DIMJOGANG
 40
0.7853981633974483
  9
$DIMTFILL
 70
     0
  9
$DIMTFILLCLR
 70
     0
  9
$DIMARCSYM
 70
     0
  9
$DIMLTYPE
  6

  9
$DIMLTEX1
  6

  9
$DIMLTEX2
  6

  9
$DIMTXTDIRECTION
 70
     0
  9
$LUNITS
 70
     2
  9
$LUPREC
 70
     4
  9
$SKETCHINC
 40
0.1
  9
$FILLETRAD
 40
0.5
  9
$AUNITS
 70
     0
  9
$AUPREC
 70
     0
  9
$MENU
  1
.
  9
$ELEVATION
 40
0.0
  9
$PELEVATION
 40
0.0
  9
$THICKNESS
 40
0.0
  9
$LIMCHECK
 70
     0
  9
$CHAMFERA
 40
0.5
  9
$CHAMFERB
 40
0.5
  9
$CHAMFERC
 40
1.0
  9
$CHAMFERD
 40
0.0
  9
$SKPOLY
 70
     0
  9
$TDCREATE
 40
2451380.930432396
  9
$TDUCREATE
 40
2451380.805432396
  9
$TDUPDATE
 40
2451380.966180555
  9
$TDUUPDATE
 40
2451380.841180556
  9
$TDINDWG
 40
0.0075615046
  9
$TDUSRTIMER
 40
0.0075524653
  9
$USRTIMER
 70
     1
  9
$ANGBASE
 50
0.0
  9
$ANGDIR
 70
     0
  9
$PDMODE
 70
     0
  9
$PDSIZE
 40
0.0
  9
$PLINEWID
 40
0.0
  9
$SPLFRAME
 70
     0
  9
$SPLINETYPE
 70
     6
  9
$SPLINESEGS
 70
     8
  9
$HANDSEED
  5
1A1
  9
$SURFTAB1
 70
     6
  9
$SURFTAB2
 70
     6
  9
$SURFTYPE
 70
     6
  9
$SURFU
 70
     6
  9
$SURFV
 70
     6
  9
$UCSBASE
  2

  9
$UCSNAME
  2

  9
$UCSORG
 10
0.0
 20
0.0
 30
0.0
  9
$UCSXDIR
 10
1.0
 20
0.0
 30
0.0
  9
$UCSYDIR
 10
0.0
 20
1.0
 30
0.0
  9
$UCSORTHOREF
  2

  9
$UCSORTHOVIEW
 70
     0
  9
$UCSORGTOP
 10
0.0
 20
0.0
 30
0.0
  9
$UCSORGBOTTOM
 10
0.0
 20
0.0
 30
0.0
  9
$UCSORGLEFT
 10
0.0
 20
0.0
 30
0.0
  9
$UCSORGRIGHT
 10
0.0
 20
0.0
 30
0.0
  9
$UCSORGFRONT
 10
0.0
 20
0.0
 30
0.0
  9
$UCSORGBACK
 10
0.0
 20
0.0
 30
0.0
  9
$PUCSBASE
  2

  9
$PUCSNAME
  2

  9
$PUCSORG
 10
0.0
 20
0.0
 30
0.0
  9
$PUCSXDIR
 10
1.0
 20
0.0
 30
0.0
  9
$PUCSYDIR
 10
0.0
 20
1.0
 30
0.0
  9
$PUCSORTHOREF
  2

  9
$PUCSORTHOVIEW
 70
     0
  9
$PUCSORGTOP
 10
0.0
 20
0.0
 30
0.0
  9
$PUCSORGBOTTOM
 10
0.0
 20
0.0
 30
0.0
  9
$PUCSORGLEFT
 10
0.0
 20
0.0
 30
0.0
  9
$PUCSORGRIGHT
 10
0.0
 20
0.0
 30
0.0
  9
$PUCSORGFRONT
 10
0.0
 20
0.0
 30
0.0
  9
$PUCSORGBACK
 10
0.0
 20
0.0
 30
0.0
  9
$USERI1
 70
     0
  9
$USERI2
 70
     0
  9
$USERI3
 70
     0
  9
$USERI4
 70
     0
  9
$USERI5
 70
     0
  9
$USERR1
 40
0.0
  9
$USERR2
 40
0.0
  9
$USERR3
 40
0.0
  9
$USERR4
 40
0.0
  9
$USERR5
 40
0.0
  9
$WORLDVIEW
 70
     1
  9
$SHADEDGE
 70
     3
  9
$SHADEDIF
 70
    70
  9
$TILEMODE
 70
     1
  9
$MAXACTVP
 70
    64
  9
$PINSBASE
 10
0.0
 20
0.0
 30
0.0
  9
$PLIMCHECK
 70
     0
  9
$PEXTMIN
 10
1.000000000000000E+20
 20
1.000000000000000E+20
 30
1.000000000000000E+20
  9
$PEXTMAX
 10
-1.000000000000000E+20
 20
-1.000000000000000E+20
 30
-1.000000000000000E+20
  9
$PLIMMIN
 10
0.0
 20
0.0
  9
$PLIMMAX
 10
12.0
 20
9.0
  9
$UNITMODE
 70
     0
  9
$VISRETAIN
 70
     1
  9
$PLINEGEN
 70
     0
  9
$PSLTSCALE
 70
     1
  9
$TREEDEPTH
 70
  3020
  9
$CMLSTYLE
  2
Standard
  9
$CMLJUST
 70
     0
  9
$CMLSCALE
 40
1.0
  9
$PROXYGRAPHICS
 70
     1
  9
$MEASUREMENT
 70
     1
  9
$CELWEIGHT
370
    -1
  9
$ENDCAPS
280
     0
  9
$JOINSTYLE
280
     0
  9
$LWDISPLAY
290
     0
  9
$INSUNITS
 70
     4
  9
$HYPERLINKBASE
  1

  9
$STYLESHEET
  1

  9
$XEDIT
290
     1
  9
$CEPSNTYPE
380
     0
  9
$PSTYLEMODE
290
     1
  9
$FINGERPRINTGUID
  2
{12F50282-3ED8-11D3-A8B7-0060B0F84BC6}
  9
$VERSIONGUID
  2
{12F50293-3ED8-11D3-A8B7-0060B0F84BC6}
  9
$EXTNAMES
290
     1
  9
$PSVPSCALE
 40
0.0
  9
$OLESTARTUP
290
     0
  9
$SORTENTS
280
   127
  9
$INDEXCTL
280
     0
  9
$HIDETEXT
280
     0
  9
$XCLIPFRAME
280
     2
  9
$HALOGAP
280
     0
  9
$OBSCOLOR
 70
   257
  9
$OBSLTYPE
280
     0
  9
$INTERSECTIONDISPLAY
280
     0
  9
$INTERSECTIONCOLOR
 70
   257
  9
$DIMASSOC
280
     1
  9
$PROJECTNAME
  1

  9
$CAMERADISPLAY
290
     0
  9
$LENSLENGTH
 40
50.0
  9
$CAMERAHEIGHT
 40
0.0
  9
$STEPSPERSEC
 40
2.0
  9
$STEPSIZE
 40
6.0
  9
$3DDWFPREC
 40
2.0
  9
$PSOLWIDTH
 40
0.25
  9
$PSOLHEIGHT
 40
4.0
  9
$LOFTANG1
 40
1.570796326794896
  9
$LOFTANG2
 40
1.570796326794896
  9
$LOFTMAG1
 40
0.0
  9
$LOFTMAG2
 40
0.0
  9
$LOFTPARAM
 70
     7
  9
$LOFTNORMALS
280
     1
  9
$LATITUDE
 40
37.795
  9
$LONGITUDE
 40
-122.394
  9
$NORTHDIRECTION
 40
0.0
  9
$TIMEZONE
 70
 -8000
  9
$LIGHTGLYPHDISPLAY
280
     1
  9
$TILEMODELIGHTSYNCH
280
     1
  9
$CMATERIAL
347
AB
  9
$SOLIDHIST
280
     0
  9
$SHOWHIST
280
     1
  9
$DWFFRAME
280
     2
  9
$DGNFRAME
280
     0
  9
$REALWORLDSCALE
290
     1
  9
$INTERFERECOLOR
 62
     1
  9
$INTERFEREOBJVS
345
CD
  9
$INTERFEREVPVS
346
CA
  9
$CSHADOW
280
     0
  9
$SHADOWPLANELOCATION
 40
0.0
  0
ENDSEC
  0
SECTION
  2
CLASSES
  0
CLASS
  1
ACDBDICTIONARYWDFLT
  2
AcDbDictionaryWithDefault
  3
ObjectDBX Classes
 90
        0
 91
        1
280
     0
281
     0
  0
CLASS
  1
ACDBPLACEHOLDER
  2
AcDbPlaceHolder
  3
ObjectDBX Classes
 90
        0
 91
        2
280
     0
281
     0
  0
CLASS
  1
LAYOUT
  2
AcDbLayout
  3
ObjectDBX Classes
 90
        0
 91
        3
280
     0
281
     0
  0
CLASS
  1
MATERIAL
  2
AcDbMaterial
  3
ObjectDBX Classes
 90
     1153
 91
        3
280
     0
281
     0
  0
CLASS
  1
VISUALSTYLE
  2
AcDbVisualStyle
  3
ObjectDBX Classes
 90
     4095
 91
       24
280
     0
281
     0
  0
CLASS
  1
TABLESTYLE
  2
AcDbTableStyle
  3
ObjectDBX Classes
 90
     4095
 91
        1
280
     0
281
     0
  0
CLASS
  1
SCALE
  2
AcDbScale
  3
ObjectDBX Classes
 90
     1153
 91
       17
280
     0
281
     0
  0
CLASS
  1
MLEADERSTYLE
  2
AcDbMLeaderStyle
  3
ACDB_MLEADERSTYLE_CLASS
 90
     4095
 91
        1
280
     0
281
     0
  0
CLASS
  1
ACDBSECTIONVIEWSTYLE
  2
AcDbSectionViewStyle
  3
ObjectDBX Classes
 90
     1025
 91
        1
280
     0
281
     0
  0
CLASS
  1
ACDBDETAILVIEWSTYLE
  2
AcDbDetailViewStyle
  3
ObjectDBX Classes
 90
     1025
 91
        1
280
     0
281
     0
  0
CLASS
  1
MESH
  2
AcDbSubDMesh
  3
ObjectDBX Classes
 90
        0
 91
        1
280
     0
281
     1
  0
CLASS
  1
DICTIONARYVAR
  2
AcDbDictionaryVar
  3
ObjectDBX Classes
 90
        0
 91
        9
280
     0
281
     0
  0
CLASS
  1
CELLSTYLEMAP
  2
AcDbCellStyleMap
  3
ObjectDBX Classes
 90
     1152
 91
        1
280
     0
281
     0
  0
ENDSEC
  0
SECTION
  2
TABLES
  0
TABLE
  2
VPORT
  5
8
330
0
100
AcDbSymbolTable
 70
     1
  0
VPORT
  5
A8
330
8
100
AcDbSymbolTableRecord
100
AcDbViewportTableRecord
  2
*Active
 70
     0
 10
0.0
 20
0.0
 11
1.0
 21
1.0
 12
0.0000215791878873
 22
-32.65985488891602
 13
0.0
 23
0.0
 14
0.5
 24
0.5
 15
0.5
 25
0.5
 16
-1.0
 26
-1.0
 36
1.0
 17
0.0
 27
0.0
 37
0.0
 40
1160.000088027831
 41
1.612599042078398
 42
50.0
 43
0.0
 44
0.0
 50
0.0
 51
0.0
 71
     0
 72
   100
 73
     1
 74
     3
 75
     0
 76
     0
 77
     0
 78
     0
281
     0
 65
     1
110
0.0
120
0.0
130
0.0
111
1.0
121
0.0
131
0.0
112
0.0
122
1.0
132
0.0
 79
     0
146
0.0
348
C9
 60
     3
 61
     5
292
     1
282
     1
141
0.0
142
0.0
 63
   250
421
  3355443
  0
ENDTAB
  0
TABLE
  2
LTYPE
  5
5
330
0
100
AcDbSymbolTable
 70
     1
  0
LTYPE
  5
14
330
5
100
AcDbSymbolTableRecord
100
AcDbLinetypeTableRecord
  2
ByBlock
 70
     0
  3

 72
    65
 73
     0
 40
0.0
  0
LTYPE
  5
15
330
5
100
AcDbSymbolTableRecord
100
AcDbLinetypeTableRecord
  2
ByLayer
 70
     0
  3

 72
    65
 73
     0
 40
0.0
  0
LTYPE
  5
16
330
5
100
AcDbSymbolTableRecord
100
AcDbLinetypeTableRecord
  2
Continuous
 70
     0
  3
Solid line
 72
    65
 73
     0
 40
0.0
  0
ENDTAB
  0
TABLE
  2
LAYER
  5
2
330
0
100
AcDbSymbolTable
 70
     3
  0
LAYER
  5
10
330
2
100
AcDbSymbolTableRecord
100
AcDbLayerTableRecord
  2
0
 70
     0
 62
     7
  6
Continuous
370
    -3
390
F
347
BB
  0
LAYER
  5
2B
330
2
100
AcDbSymbolTableRecord
100
AcDbLayerTableRecord
  2
ASHADE
 70
     4
 62
     7
  6
Continuous
370
    -3
390
2D
347
BB
  0
LAYER
  5
F8
330
2
100
AcDbSymbolTableRecord
100
AcDbLayerTableRecord
  2
OracDecor_cornice_mouldings
 70
     0
 62
    41
420
 14997145
  6
Continuous
370
    -3
390
F
347
BB
  0
ENDTAB
  0
TABLE
  2
STYLE
  5
3
330
0
100
AcDbSymbolTable
 70
     2
  0
STYLE
  5
11
330
3
100
AcDbSymbolTableRecord
100
AcDbTextStyleTableRecord
  2
Standard
 70
     0
 40
0.0
 41
1.0
 50
0.0
 71
     0
 42
0.2
  3
txt
  4

  0
STYLE
  5
2C
330
3
100
AcDbSymbolTableRecord
100
AcDbTextStyleTableRecord
  2
ASHADE
 70
     0
 40
0.2
 41
1.0
 50
0.0
 71
     0
 42
0.2
  3
simplex
  4

  0
ENDTAB
  0
TABLE
  2
VIEW
  5
6
330
0
100
AcDbSymbolTable
 70
     0
  0
ENDTAB
  0
TABLE
  2
UCS
  5
7
330
0
100
AcDbSymbolTable
 70
     0
  0
ENDTAB
  0
TABLE
  2
APPID
  5
9
330
0
100
AcDbSymbolTable
 70
     6
  0
APPID
  5
12
330
9
100
AcDbSymbolTableRecord
100
AcDbRegAppTableRecord
  2
ACAD
 70
     0
  0
APPID
  5
8F
330
9
100
AcDbSymbolTableRecord
100
AcDbRegAppTableRecord
  2
AVE_RENDER
 70
     0
  0
APPID
  5
90
330
9
100
AcDbSymbolTableRecord
100
AcDbRegAppTableRecord
  2
AVE_ENTITY_MATERIAL
 70
     0
  0
APPID
  5
9C
330
9
100
AcDbSymbolTableRecord
100
AcDbRegAppTableRecord
  2
AVE_FINISH
 70
     0
  0
APPID
  5
9D
330
9
100
AcDbSymbolTableRecord
100
AcDbRegAppTableRecord
  2
AVE_MATERIAL
 70
     0
  0
APPID
  5
9E
330
9
100
AcDbSymbolTableRecord
100
AcDbRegAppTableRecord
  2
AVE_GLOBAL
 70
     0
  0
ENDTAB
  0
TABLE
  2
DIMSTYLE
  5
A
330
0
100
AcDbSymbolTable
 70
     1
100
AcDbDimStyleTable
 71
     0
  0
DIMSTYLE
105
27
330
A
100
AcDbSymbolTableRecord
100
AcDbDimStyleTableRecord
  2
Standard
 70
     0
340
11
  0
ENDTAB
  0
TABLE
  2
BLOCK_RECORD
  5
1
330
0
100
AcDbSymbolTable
 70
     6
  0
BLOCK_RECORD
  5
1F
330
1
100
AcDbSymbolTableRecord
100
AcDbBlockTableRecord
  2
*Model_Space
340
22
 70
     0
280
     1
281
     0
  0
BLOCK_RECORD
  5
1B
330
1
100
AcDbSymbolTableRecord
100
AcDbBlockTableRecord
  2
*Paper_Space
340
1E
 70
     0
280
     1
281
     0
  0
BLOCK_RECORD
  5
23
330
1
100
AcDbSymbolTableRecord
100
AcDbBlockTableRecord
  2
*Paper_Space0
340
26
 70
     0
280
     1
281
     0
  0
BLOCK_RECORD
  5
2E
330
1
100
AcDbSymbolTableRecord
100
AcDbBlockTableRecord
  2
direct
340
0
 70
     0
280
     1
281
     0
  0
BLOCK_RECORD
  5
42
330
1
100
AcDbSymbolTableRecord
100
AcDbBlockTableRecord
  2
overhead
340
0
 70
     0
280
     1
281
     0
  0
BLOCK_RECORD
  5
5F
330
1
100
AcDbSymbolTableRecord
100
AcDbBlockTableRecord
  2
sh_spot
340
0
 70
     0
280
     1
281
     0
  0
BLOCK_RECORD
  5
91
330
1
100
AcDbSymbolTableRecord
100
AcDbBlockTableRecord
  2
AVE_RENDER
340
0
102
{BLKREFS
331
94
331
95
331
96
331
97
331
98
331
99
331
9A
331
9B
102
}
 70
     0
280
     1
281
     0
  0
BLOCK_RECORD
  5
9F
330
1
100
AcDbSymbolTableRecord
100
AcDbBlockTableRecord
  2
AVE_GLOBAL
340
0
102
{BLKREFS
331
A2
102
}
 70
     0
280
     1
281
     0
  0
ENDTAB
  0
ENDSEC
  0
SECTION
  2
BLOCKS
  0
BLOCK
  5
20
330
1F
100
AcDbEntity
  8
0
100
AcDbBlockBegin
  2
*Model_Space
 70
     0
 10
0.0
 20
0.0
 30
0.0
  3
*Model_Space
  1

  0
ENDBLK
  5
21
330
1F
100
AcDbEntity
  8
0
100
AcDbBlockEnd
  0
BLOCK
  5
1C
330
1B
100
AcDbEntity
 67
     1
  8
0
100
AcDbBlockBegin
  2
*Paper_Space
 70
     0
 10
0.0
 20
0.0
 30
0.0
  3
*Paper_Space
  1

  0
ENDBLK
  5
1D
330
1B
100
AcDbEntity
 67
     1
  8
0
100
AcDbBlockEnd
  0
BLOCK
  5
24
330
23
100
AcDbEntity
 67
     1
  8
0
100
AcDbBlockBegin
  2
*Paper_Space0
 70
     0
 10
0.0
 20
0.0
 30
0.0
  3
*Paper_Space0
  1

  0
ENDBLK
  5
25
330
23
100
AcDbEntity
 67
     1
  8
0
100
AcDbBlockEnd
  0
BLOCK
  5
40
330
2E
100
AcDbEntity
  8
0
100
AcDbBlockBegin
  2
direct
 70
     2
 10
0.0
 20
0.0
 30
0.0
  3
direct
  1

  0
ATTDEF
  5
2F
330
2E
100
AcDbEntity
  8
ASHADE
  6
Continuous
 62
     1
100
AcDbText
 10
0.0
 20
-0.1
 30
0.0
 40
0.2
  1

  7
ASHADE
 72
     1
 11
0.0
 21
-0.1
 31
0.0
100
AcDbAttributeDefinition
280
     0
  3
Light Name
  2
SNAME
 70
     0
280
     0
  0
ARC
  5
30
330
2E
100
AcDbEntity
  8
ASHADE
  6
Continuous
 62
     7
100
AcDbCircle
 10
0.0
 20
0.0
 30
0.0
 40
0.3
100
AcDbArc
 50
205.6792886194569
 51
334.3207113805431
  0
ARC
  5
31
330
2E
100
AcDbEntity
  8
ASHADE
  6
Continuous
 62
     7
100
AcDbCircle
 10
0.0
 20
0.0
 30
0.0
 40
0.3
100
AcDbArc
 50
25.67928861945685
 51
154.3207113805431
  0
LINE
  5
32
330
2E
100
AcDbEntity
  8
ASHADE
  6
Continuous
 62
     7
100
AcDbLine
 10
-0.21
 20
0.2142428528562855
 30
0.0
 11
-0.21
 21
0.5
 31
0.0
  0
LINE
  5
33
330
2E
100
AcDbEntity
  8
ASHADE
  6
Continuous
 62
     7
100
AcDbLine
 10
-0.11
 20
0.2791057147390572
 30
0.0
 11
-0.11
 21
0.5
 31
0.0
  0
LINE
  5
34
330
2E
100
AcDbEntity
  8
ASHADE
  6
Continuous
 62
     7
100
AcDbLine
 10
0.21
 20
0.2142428528562855
 30
0.0
 11
0.21
 21
0.5
 31
0.0
  0
ATTDEF
  5
35
330
2E
100
AcDbEntity
  8
ASHADE
  6
Continuous
 62
     7
100
AcDbText
 10
0.0
 20
0.25
 30
0.0
 40
0.01
  1

100
AcDbAttributeDefinition
280
     0
  3
Look-at Y
  2
LAY
 70
     1
280
     0
  0
ATTDEF
  5
36
330
2E
100
AcDbEntity
  8
ASHADE
  6
Continuous
 62
     7
100
AcDbText
 10
0.0
 20
0.22
 30
0.0
 40
0.01
  1
1
100
AcDbAttributeDefinition
280
     0
  3
Light Intensity
  2
INTENSITY
 70
     1
280
     0
  0
ATTDEF
  5
37
330
2E
100
AcDbEntity
  8
ASHADE
  6
Continuous
 62
     7
100
AcDbText
 10
0.0
 20
0.16
 30
0.0
 40
0.01
  1
-1
100
AcDbAttributeDefinition
280
     0
  3
*not used*
  2
BEAMD
 70
     1
280
     0
  0
ATTDEF
  5
38
330
2E
100
AcDbEntity
  8
ASHADE
  6
Continuous
 62
     7
100
AcDbText
 10
0.0
 20
0.175
 30
0.0
 40
0.01
  1
-1
100
AcDbAttributeDefinition
280
     0
  3
*not used*
  2
CONED
 70
     1
280
     0
  0
ATTDEF
  5
39
330
2E
100
AcDbEntity
  8
ASHADE
  6
Continuous
 62
     7
100
AcDbText
 10
0.0
 20
0.19
 30
0.0
 40
0.01
  1
0
100
AcDbAttributeDefinition
280
     0
  3
Depth Map Size
  2
CONEA
 70
     1
280
     0
  0
ATTDEF
  5
3A
330
2E
100
AcDbEntity
  8
ASHADE
  6
Continuous
 62
     7
100
AcDbText
 10
0.0
 20
0.2050000000000001
 30
0.0
 40
0.01
  1
1,1,1
100
AcDbAttributeDefinition
280
     0
  3
Light Color (RGB)
  2
COLOR
 70
     1
280
     0
  0
ATTDEF
  5
3B
330
2E
100
AcDbEntity
  8
ASHADE
  6
Continuous
 62
     7
100
AcDbText
 10
0.0
 20
0.235
 30
0.0
 40
0.01
  1

100
AcDbAttributeDefinition
280
     0
  3
Look-at Z
  2
LAZ
 70
     1
280
     0
  0
LINE
  5
3C
330
2E
100
AcDbEntity
  8
ASHADE
  6
Continuous
 62
     7
100
AcDbLine
 10
0.0
 20
0.3
 30
0.0
 11
0.0
 21
0.5
 31
0.0
  0
LINE
  5
3D
330
2E
100
AcDbEntity
  8
ASHADE
  6
Continuous
 62
     7
100
AcDbLine
 10
0.11
 20
0.2791057147390572
 30
0.0
 11
0.11
 21
0.5
 31
0.0
  0
ATTDEF
  5
3E
330
2E
100
AcDbEntity
  8
ASHADE
  6
Continuous
 62
     7
100
AcDbText
 10
0.0
 20
0.265
 30
0.0
 40
0.01
  1

100
AcDbAttributeDefinition
280
     0
  3
Look-at X
  2
LAX
 70
     1
280
     0
  0
ATTDEF
  5
3F
330
2E
100
AcDbEntity
  8
ASHADE
  6
Continuous
 62
     7
100
AcDbText
 10
0.0
 20
0.28
 30
0.0
 40
0.01
  1

100
AcDbAttributeDefinition
280
     0
  3

  2
GNAME
 70
     1
280
     0
  0
ENDBLK
  5
41
330
2E
100
AcDbEntity
  8
0
100
AcDbBlockEnd
  0
BLOCK
  5
5D
330
42
100
AcDbEntity
  8
0
100
AcDbBlockBegin
  2
overhead
 70
     2
 10
0.0
 20
0.0
 30
0.0
  3
overhead
  1

  0
ATTDEF
  5
43
330
42
100
AcDbEntity
  8
ASHADE
  6
Continuous
 62
     1
100
AcDbText
 10
0.0
 20
-0.1
 30
0.0
 40
0.2
  1

  7
ASHADE
 72
     1
 11
0.0
 21
-0.1
 31
0.0
100
AcDbAttributeDefinition
280
     0
  3
Light Name
  2
SNAME
 70
     0
280
     0
  0
ARC
  5
44
330
42
100
AcDbEntity
  8
ASHADE
  6
Continuous
 62
     7
100
AcDbCircle
 10
0.0
 20
0.0
 30
0.0
 40
0.3
100
AcDbArc
 50
205.6792886194569
 51
334.3207113805431
  0
LINE
  5
45
330
42
100
AcDbEntity
  8
ASHADE
  6
Continuous
 62
     7
100
AcDbLine
 10
-0.2041413561583015
 20
-0.2198324514393848
 30
0.0
 11
-0.2721884748777353
 21
-0.2931099352525131
 31
0.0
  0
LINE
  5
46
330
42
100
AcDbEntity
  8
ASHADE
  6
Continuous
 62
     7
100
AcDbLine
 10
-0.1096591641591904
 20
-0.2792398032442862
 30
0.0
 11
-0.1279356915190555
 21
-0.3257797704516673
 31
0.0
  0
LINE
  5
47
330
42
100
AcDbEntity
  8
ASHADE
  6
Continuous
 62
     7
100
AcDbLine
 10
0.0
 20
-0.2999999999999999
 30
0.0
 11
0.0
 21
-0.4
 31
0.0
  0
LINE
  5
48
330
42
100
AcDbEntity
  8
ASHADE
  6
Continuous
 62
     7
100
AcDbLine
 10
0.1096591641591904
 20
-0.2792398032442862
 30
0.0
 11
0.1279356915190555
 21
-0.3257797704516673
 31
0.0
  0
LINE
  5
49
330
42
100
AcDbEntity
  8
ASHADE
  6
Continuous
 62
     7
100
AcDbLine
 10
0.2041413561583015
 20
-0.2198324514393848
 30
0.0
 11
0.2721884748777353
 21
-0.2931099352525131
 31
0.0
  0
ARC
  5
4A
330
42
100
AcDbEntity
  8
ASHADE
  6
Continuous
 62
     7
100
AcDbCircle
 10
0.0
 20
0.0
 30
0.0
 40
0.3
100
AcDbArc
 50
25.67928861945685
 51
154.3207113805431
  0
LINE
  5
4B
330
42
100
AcDbEntity
  8
ASHADE
  6
Continuous
 62
     7
100
AcDbLine
 10
-0.2703701166919155
 20
0.13
 30
0.0
 11
-0.3154318028072347
 21
0.1516666666666666
 31
0.0
  0
LINE
  5
4C
330
42
100
AcDbEntity
  8
ASHADE
  6
Continuous
 62
     7
100
AcDbLine
 10
-0.2703701166919155
 20
-0.13
 30
0.0
 11
-0.3154318028072347
 21
-0.1516666666666666
 31
0.0
  0
LINE
  5
4D
330
42
100
AcDbEntity
  8
ASHADE
  6
Continuous
 62
     7
100
AcDbLine
 10
-0.2041413561583015
 20
0.2198324514393849
 30
0.0
 11
-0.2721884748777353
 21
0.2931099352525131
 31
0.0
  0
LINE
  5
4E
330
42
100
AcDbEntity
  8
ASHADE
  6
Continuous
 62
     7
100
AcDbLine
 10
-0.1096591641591904
 20
0.2792398032442862
 30
0.0
 11
-0.1279356915190555
 21
0.3257797704516674
 31
0.0
  0
LINE
  5
4F
330
42
100
AcDbEntity
  8
ASHADE
  6
Continuous
 62
     7
100
AcDbLine
 10
0.2703701166919155
 20
-0.13
 30
0.0
 11
0.3154318028072347
 21
-0.1516666666666666
 31
0.0
  0
LINE
  5
50
330
42
100
AcDbEntity
  8
ASHADE
  6
Continuous
 62
     7
100
AcDbLine
 10
0.2703701166919155
 20
0.13
 30
0.0
 11
0.3154318028072347
 21
0.1516666666666666
 31
0.0
  0
LINE
  5
51
330
42
100
AcDbEntity
  8
ASHADE
  6
Continuous
 62
     7
100
AcDbLine
 10
0.0
 20
0.3
 30
0.0
 11
0.0
 21
0.4
 31
0.0
  0
ATTDEF
  5
52
330
42
100
AcDbEntity
  8
ASHADE
  6
Continuous
 62
     7
100
AcDbText
 10
0.0
 20
0.22
 30
0.0
 40
0.01
  1
1
100
AcDbAttributeDefinition
280
     0
  3
Light Intensity
  2
INTENSITY
 70
     1
280
     0
  0
ATTDEF
  5
53
330
42
100
AcDbEntity
  8
ASHADE
  6
Continuous
 62
     7
100
AcDbText
 10
0.0
 20
0.16
 30
0.0
 40
0.01
  1
-1
100
AcDbAttributeDefinition
280
     0
  3
*not used*
  2
BEAMD
 70
     1
280
     0
  0
ATTDEF
  5
54
330
42
100
AcDbEntity
  8
ASHADE
  6
Continuous
 62
     7
100
AcDbText
 10
0.0
 20
0.175
 30
0.0
 40
0.01
  1
-1
100
AcDbAttributeDefinition
280
     0
  3
*not used*
  2
CONED
 70
     1
280
     0
  0
ATTDEF
  5
55
330
42
100
AcDbEntity
  8
ASHADE
  6
Continuous
 62
     7
100
AcDbText
 10
0.0
 20
0.19
 30
0.0
 40
0.01
  1
0
100
AcDbAttributeDefinition
280
     0
  3
Depth Map Size
  2
CONEA
 70
     1
280
     0
  0
ATTDEF
  5
56
330
42
100
AcDbEntity
  8
ASHADE
  6
Continuous
 62
     7
100
AcDbText
 10
0.0
 20
0.2050000000000001
 30
0.0
 40
0.01
  1
1,1,1
100
AcDbAttributeDefinition
280
     0
  3
Light Color (RGB)
  2
COLOR
 70
     1
280
     0
  0
ATTDEF
  5
57
330
42
100
AcDbEntity
  8
ASHADE
  6
Continuous
 62
     7
100
AcDbText
 10
0.0
 20
0.235
 30
0.0
 40
0.01
  1

100
AcDbAttributeDefinition
280
     0
  3
Look-at Z
  2
LAZ
 70
     1
280
     0
  0
ATTDEF
  5
58
330
42
100
AcDbEntity
  8
ASHADE
  6
Continuous
 62
     7
100
AcDbText
 10
0.0
 20
0.25
 30
0.0
 40
0.01
  1

100
AcDbAttributeDefinition
280
     0
  3
Look-at Y
  2
LAY
 70
     1
280
     0
  0
ATTDEF
  5
59
330
42
100
AcDbEntity
  8
ASHADE
  6
Continuous
 62
     7
100
AcDbText
 10
0.0
 20
0.265
 30
0.0
 40
0.01
  1

100
AcDbAttributeDefinition
280
     0
  3
Look-at X
  2
LAX
 70
     1
280
     0
  0
ATTDEF
  5
5A
330
42
100
AcDbEntity
  8
ASHADE
  6
Continuous
 62
     7
100
AcDbText
 10
0.0
 20
0.28
 30
0.0
 40
0.01
  1

100
AcDbAttributeDefinition
280
     0
  3

  2
GNAME
 70
     1
280
     0
  0
LINE
  5
5B
330
42
100
AcDbEntity
  8
ASHADE
  6
Continuous
 62
     7
100
AcDbLine
 10
0.1096591641591904
 20
0.2792398032442862
 30
0.0
 11
0.1279356915190555
 21
0.3257797704516674
 31
0.0
  0
LINE
  5
5C
330
42
100
AcDbEntity
  8
ASHADE
  6
Continuous
 62
     7
100
AcDbLine
 10
0.2041413561583015
 20
0.2198324514393849
 30
0.0
 11
0.2721884748777353
 21
0.2931099352525131
 31
0.0
  0
ENDBLK
  5
5E
330
42
100
AcDbEntity
  8
0
100
AcDbBlockEnd
  0
BLOCK
  5
85
330
5F
100
AcDbEntity
  8
0
100
AcDbBlockBegin
  2
sh_spot
 70
     2
 10
0.0
 20
0.0
 30
0.0
  3
sh_spot
  1

  0
LINE
  5
60
330
5F
100
AcDbEntity
  8
ASHADE
  6
Continuous
 62
     7
100
AcDbLine
 10
0.25
 20
0.26
 30
0.0
 11
-0.25
 21
0.26
 31
0.0
  0
LINE
  5
61
330
5F
100
AcDbEntity
  8
ASHADE
  6
Continuous
 62
     7
100
AcDbLine
 10
-0.25
 20
-0.3399999999999999
 30
0.0
 11
0.25
 21
-0.3399999999999999
 31
0.0
  0
ATTDEF
  5
62
330
5F
100
AcDbEntity
  8
ASHADE
  6
Continuous
 62
     1
100
AcDbText
 10
0.0
 20
-0.1
 30
0.0
 40
0.2
  1

  7
ASHADE
 72
     1
 11
0.0
 21
-0.1
 31
0.0
100
AcDbAttributeDefinition
280
     0
  3
Light Name
  2
SNAME
 70
     0
280
     0
  0
LINE
  5
63
330
5F
100
AcDbEntity
  8
ASHADE
  6
Continuous
 62
     7
100
AcDbLine
 10
-0.25
 20
-0.13
 30
0.0
 11
-0.25
 21
-0.3399999999999999
 31
0.0
  0
LINE
  5
64
330
5F
100
AcDbEntity
  8
ASHADE
  6
Continuous
 62
     7
100
AcDbLine
 10
-0.25
 20
-0.18
 30
0.0
 11
-0.29
 21
-0.18
 31
0.0
  0
LINE
  5
65
330
5F
100
AcDbEntity
  8
ASHADE
  6
Continuous
 62
     7
100
AcDbLine
 10
-0.29
 20
-0.22
 30
0.0
 11
-0.25
 21
-0.22
 31
0.0
  0
LINE
  5
66
330
5F
100
AcDbEntity
  8
ASHADE
  6
Continuous
 62
     7
100
AcDbLine
 10
-0.29
 20
-0.18
 30
0.0
 11
-0.29
 21
-0.22
 31
0.0
  0
LINE
  5
67
330
5F
100
AcDbEntity
  8
ASHADE
  6
Continuous
 62
     7
100
AcDbLine
 10
-0.1045454545454545
 20
0.26
 30
0.0
 11
-0.15
 21
0.46
 31
0.0
  0
LINE
  5
68
330
5F
100
AcDbEntity
  8
ASHADE
  6
Continuous
 62
     7
100
AcDbLine
 10
-0.21
 20
0.26
 30
0.0
 11
-0.301304347826087
 21
0.46
 31
0.0
  0
LINE
  5
69
330
5F
100
AcDbEntity
  8
ASHADE
  6
Continuous
 62
     7
100
AcDbLine
 10
-0.25
 20
0.26
 30
0.0
 11
-0.25
 21
0.13
 31
0.0
  0
LINE
  5
6A
330
5F
100
AcDbEntity
  8
ASHADE
  6
Continuous
 62
     7
100
AcDbLine
 10
-0.25
 20
0.22
 30
0.0
 11
-0.29
 21
0.22
 31
0.0
  0
LINE
  5
6B
330
5F
100
AcDbEntity
  8
ASHADE
  6
Continuous
 62
     7
100
AcDbLine
 10
-0.29
 20
0.1799999999999999
 30
0.0
 11
-0.25
 21
0.1799999999999999
 31
0.0
  0
LINE
  5
6C
330
5F
100
AcDbEntity
  8
ASHADE
  6
Continuous
 62
     7
100
AcDbLine
 10
-0.29
 20
0.22
 30
0.0
 11
-0.29
 21
0.1799999999999999
 31
0.0
  0
ATTDEF
  5
6D
330
5F
100
AcDbEntity
  8
ASHADE
  6
Continuous
 62
     7
100
AcDbText
 10
0.0
 20
-0.24
 30
0.0
 40
0.01
  1
0
100
AcDbAttributeDefinition
280
     0
  3
Depth Map Size
  2
ZSIZE
 70
     1
280
     0
  0
ATTDEF
  5
6E
330
5F
100
AcDbEntity
  8
ASHADE
  6
Continuous
 62
     7
100
AcDbText
 10
0.0
 20
-0.3300000000000001
 30
0.0
 40
0.01
  1
0,0,0
100
AcDbAttributeDefinition
280
     0
  3
Look-from XYZ
  2
LFXYZ
 70
     1
280
     0
  0
ATTDEF
  5
6F
330
5F
100
AcDbEntity
  8
ASHADE
  6
Continuous
 62
     7
100
AcDbText
 10
0.0
 20
-0.315
 30
0.0
 40
0.01
  1
0.0
100
AcDbAttributeDefinition
280
     0
  3
Beam Distribution
  2
BEAMDI
 70
     1
280
     0
  0
ATTDEF
  5
70
330
5F
100
AcDbEntity
  8
ASHADE
  6
Continuous
 62
     7
100
AcDbText
 10
0.0
 20
-0.3
 30
0.0
 40
0.01
  1
0.0
100
AcDbAttributeDefinition
280
     0
  3
Cone Delta
  2
CONEDE
 70
     1
280
     0
  0
ATTDEF
  5
71
330
5F
100
AcDbEntity
  8
ASHADE
  6
Continuous
 62
     7
100
AcDbText
 10
0.0
 20
-0.2850000000000001
 30
0.0
 40
0.01
  1
10.0
100
AcDbAttributeDefinition
280
     0
  3
Cone Angle
  2
CONEAN
 70
     1
280
     0
  0
ATTDEF
  5
72
330
5F
100
AcDbEntity
  8
ASHADE
  6
Continuous
 62
     7
100
AcDbText
 10
0.0
 20
-0.27
 30
0.0
 40
0.01
  1
-1
100
AcDbAttributeDefinition
280
     0
  3
*not used*
  2
BIASMAX
 70
     1
280
     0
  0
ATTDEF
  5
73
330
5F
100
AcDbEntity
  8
ASHADE
  6
Continuous
 62
     7
100
AcDbText
 10
0.0
 20
-0.255
 30
0.0
 40
0.01
  1
-1
100
AcDbAttributeDefinition
280
     0
  3
*not used*
  2
BIASMIN
 70
     1
280
     0
  0
ATTDEF
  5
74
330
5F
100
AcDbEntity
  8
ASHADE
  6
Continuous
 62
     7
100
AcDbText
 10
0.0
 20
-0.225
 30
0.0
 40
0.01
  1
1,1,1
100
AcDbAttributeDefinition
280
     0
  3
Light Color (RGB)
  2
COLOR
 70
     1
280
     0
  0
ATTDEF
  5
75
330
5F
100
AcDbEntity
  8
ASHADE
  6
Continuous
 62
     7
100
AcDbText
 10
0.0
 20
-0.21
 30
0.0
 40
0.01
  1
1
100
AcDbAttributeDefinition
280
     0
  3
Light Intensity
  2
INTENSITY
 70
     1
280
     0
  0
ATTDEF
  5
76
330
5F
100
AcDbEntity
  8
ASHADE
  6
Continuous
 62
     7
100
AcDbText
 10
0.0
 20
-0.15
 30
0.0
 40
0.01
  1

100
AcDbAttributeDefinition
280
     0
  3

  2
GNAME
 70
     1
280
     0
  0
ATTDEF
  5
77
330
5F
100
AcDbEntity
  8
ASHADE
  6
Continuous
 62
     7
100
AcDbText
 10
0.0
 20
-0.195
 30
0.0
 40
0.01
  1

100
AcDbAttributeDefinition
280
     0
  3
Look-at Z
  2
LAZ
 70
     1
280
     0
  0
ATTDEF
  5
78
330
5F
100
AcDbEntity
  8
ASHADE
  6
Continuous
 62
     7
100
AcDbText
 10
0.0
 20
-0.18
 30
0.0
 40
0.01
  1

100
AcDbAttributeDefinition
280
     0
  3
Look-at Y
  2
LAY
 70
     1
280
     0
  0
ATTDEF
  5
79
330
5F
100
AcDbEntity
  8
ASHADE
  6
Continuous
 62
     7
100
AcDbText
 10
0.0
 20
-0.165
 30
0.0
 40
0.01
  1

100
AcDbAttributeDefinition
280
     0
  3
Look-at X
  2
LAX
 70
     1
280
     0
  0
LINE
  5
7A
330
5F
100
AcDbEntity
  8
ASHADE
  6
Continuous
 62
     7
100
AcDbLine
 10
0.25
 20
-0.3399999999999999
 30
0.0
 11
0.25
 21
-0.13
 31
0.0
  0
LINE
  5
7B
330
5F
100
AcDbEntity
  8
ASHADE
  6
Continuous
 62
     7
100
AcDbLine
 10
0.25
 20
-0.18
 30
0.0
 11
0.29
 21
-0.18
 31
0.0
  0
LINE
  5
7C
330
5F
100
AcDbEntity
  8
ASHADE
  6
Continuous
 62
     7
100
AcDbLine
 10
0.29
 20
-0.22
 30
0.0
 11
0.25
 21
-0.22
 31
0.0
  0
LINE
  5
7D
330
5F
100
AcDbEntity
  8
ASHADE
  6
Continuous
 62
     7
100
AcDbLine
 10
0.29
 20
-0.18
 30
0.0
 11
0.29
 21
-0.22
 31
0.0
  0
LINE
  5
7E
330
5F
100
AcDbEntity
  8
ASHADE
  6
Continuous
 62
     7
100
AcDbLine
 10
0.21
 20
0.26
 30
0.0
 11
0.301304347826087
 21
0.46
 31
0.0
  0
LINE
  5
7F
330
5F
100
AcDbEntity
  8
ASHADE
  6
Continuous
 62
     7
100
AcDbLine
 10
0.1045454545454545
 20
0.26
 30
0.0
 11
0.15
 21
0.46
 31
0.0
  0
LINE
  5
80
330
5F
100
AcDbEntity
  8
ASHADE
  6
Continuous
 62
     7
100
AcDbLine
 10
0.0
 20
0.26
 30
0.0
 11
0.0
 21
0.46
 31
0.0
  0
LINE
  5
81
330
5F
100
AcDbEntity
  8
ASHADE
  6
Continuous
 62
     7
100
AcDbLine
 10
0.25
 20
0.13
 30
0.0
 11
0.25
 21
0.26
 31
0.0
  0
LINE
  5
82
330
5F
100
AcDbEntity
  8
ASHADE
  6
Continuous
 62
     7
100
AcDbLine
 10
0.25
 20
0.22
 30
0.0
 11
0.29
 21
0.22
 31
0.0
  0
LINE
  5
83
330
5F
100
AcDbEntity
  8
ASHADE
  6
Continuous
 62
     7
100
AcDbLine
 10
0.29
 20
0.1799999999999999
 30
0.0
 11
0.25
 21
0.1799999999999999
 31
0.0
  0
LINE
  5
84
330
5F
100
AcDbEntity
  8
ASHADE
  6
Continuous
 62
     7
100
AcDbLine
 10
0.29
 20
0.22
 30
0.0
 11
0.29
 21
0.1799999999999999
 31
0.0
  0
ENDBLK
  5
86
330
5F
100
AcDbEntity
  8
0
100
AcDbBlockEnd
  0
BLOCK
  5
92
330
91
100
AcDbEntity
  8
ASHADE
100
AcDbBlockBegin
  2
AVE_RENDER
 70
     0
 10
0.0
 20
0.0
 30
0.0
  3
AVE_RENDER
  1
AVE_RENDER
  0
ENDBLK
  5
93
330
91
100
AcDbEntity
  8
0
100
AcDbBlockEnd
  0
BLOCK
  5
A0
330
9F
100
AcDbEntity
  8
ASHADE
100
AcDbBlockBegin
  2
AVE_GLOBAL
 70
     0
 10
0.0
 20
0.0
 30
0.0
  3
AVE_GLOBAL
  1
AVE_GLOBAL
  0
ENDBLK
  5
A1
330
9F
100
AcDbEntity
  8
0
100
AcDbBlockEnd
  0
ENDSEC
  0
SECTION
  2
ENTITIES
  0
INSERT
  5
94
330
1F
100
AcDbEntity
  8
ASHADE
 62
     1
100
AcDbBlockReference
  2
AVE_RENDER
 10
0.0
 20
0.0
 30
0.0
1001
AVE_RENDER
1002
{
1070
     7
1000
Pref
1070
    30
1070
    20
1070
     1
1070
     0
1000

1070
    10
1070
     1
1070
    10
1040
1.0
1070
     1
1040
0.3
1040
0.7
1040
0.0
1040
10.0
1010
-1.0
1020
-1.0
1030
-1.0
1040
0.3
1070
    49
1070
     0
1070
     0
1010
1.0
1020
1.0
1030
1.0
1040
45.0
1070
     1
1070
     0
1000
WCS
1040
0.0
1070
     0
1040
10.0
1002
}
  0
INSERT
  5
95
330
1F
100
AcDbEntity
  8
ASHADE
 62
     3
100
AcDbBlockReference
  2
AVE_RENDER
 10
0.0
 20
0.0
 30
0.0
1001
AVE_RENDER
1002
{
1070
     0
1000
Full Opt
1070
     0
1070
     1
1070
     1
1070
     1
1070
     0
1070
     0
1070
     0
1070
     1
1070
     1
1040
0.0001
1040
0.0001
1002
}
  0
INSERT
  5
96
330
1F
100
AcDbEntity
  8
ASHADE
 62
     4
100
AcDbBlockReference
  2
AVE_RENDER
 10
0.0
 20
0.0
 30
0.0
1001
AVE_RENDER
1002
{
1070
     0
1000
Quick Opt
1070
     0
1070
     1
1070
     1
1070
     1
1070
     0
1070
     0
1070
     1
1002
}
  0
INSERT
  5
97
330
1F
100
AcDbEntity
  8
ASHADE
 62
     5
100
AcDbBlockReference
  2
AVE_RENDER
 10
0.0
 20
0.0
 30
0.0
1001
AVE_RENDER
1002
{
1070
     1
1000
Scanl Opt
1070
     2
1070
     0
1070
     2
1040
2.0
1040
4.0
1070
     0
1070
     1
1070
     0
1040
0.03
1002
}
  0
INSERT
  5
98
330
1F
100
AcDbEntity
  8
ASHADE
 62
     6
100
AcDbBlockReference
  2
AVE_RENDER
 10
0.0
 20
0.0
 30
0.0
1001
AVE_RENDER
1002
{
1070
     2
1000
Raytr Opt
1070
     2
1070
     0
1070
     2
1040
2.0
1040
4.0
1070
     0
1070
     1
1070
     1
1040
0.03
1070
     3
1040
0.03
1002
}
  0
INSERT
  5
99
330
1F
100
AcDbEntity
  8
ASHADE
 62
     7
100
AcDbBlockReference
  2
AVE_RENDER
 10
0.0
 20
0.0
 30
0.0
1001
AVE_RENDER
1002
{
1070
     0
1000
RFile Opt
1070
     1
1070
   640
1070
   480
1070
 10000
1070
     1
1070
     8
1070
     8
1070
     0
1070
     0
1070
     0
1070
     0
1070
     0
1070
     0
1070
     0
1002
}
  0
INSERT
  5
9A
330
1F
100
AcDbEntity
  8
ASHADE
 62
     8
100
AcDbBlockReference
  2
AVE_RENDER
 10
0.0
 20
0.0
 30
0.0
1001
AVE_RENDER
1002
{
1070
     0
1000
Fog Opt
1070
     0
1070
     0
1040
0.0
1040
1.0
1040
0.0
1040
1.0
1010
0.5
1020
0.5
1030
0.5
1002
}
  0
INSERT
  5
9B
330
1F
100
AcDbEntity
  8
ASHADE
 62
     9
100
AcDbBlockReference
  2
AVE_RENDER
 10
0.0
 20
0.0
 30
0.0
1001
AVE_RENDER
1002
{
1070
     0
1000
BG Opt
1070
     0
1070
     1
1010
0.0
1020
0.0
1030
0.0
1010
1.0
1020
0.0
1030
0.0
1010
0.0
1020
1.0
1030
0.0
1010
0.0
1020
0.0
1030
1.0
1040
0.5
1040
0.33
1040
0.0
1000

1070
     1
1000

1070
     1
1070
     1
1040
1.0
1040
1.0
1040
0.0
1040
0.0
1070
     0
1002
}
  0
INSERT
  5
A2
330
1F
100
AcDbEntity
  8
ASHADE
 62
     1
100
AcDbBlockReference
  2
AVE_GLOBAL
 10
0.0
 20
0.0
 30
0.0
1001
AVE_MATERIAL
1002
{
1000
*GLOBAL*
1000
2
1000
Global finish.
1002
{
1002
}
1002
{
1070
    63
1002
{
1002
{
1010
-1.0
1020
-1.0
1030
-1.0
1002
}
1040
0.1000000014901161
1000

1040
0.0
1002
{
1002
}
1040
0.0
1002
{
1002
}
1040
0.0
1002
}
1002
{
1002
{
1010
-1.0
1020
-1.0
1030
-1.0
1002
}
1040
0.6999999880790711
1000

1040
0.0
1002
{
1002
}
1040
0.0
1002
{
1002
}
1040
0.0
1002
}
1002
{
1002
{
1010
-1.0
1020
-1.0
1030
-1.0
1002
}
1040
0.2000000029802322
1000

1040
0.0
1002
{
1002
}
1040
0.0
1002
{
1002
}
1040
0.0
1002
}
1002
{
1070
     0
1002
{
1070
     1
1002
{
1040
1.0
1040
1.0
1000

1040
0.0
1002
{
1002
}
1040
0.0
1002
{
1002
}
1040
0.0
1002
}
1002
}
1040
1.0
1040
0.0
1040
0.0
1002
}
1002
{
1040
1.0
1040
1.0
1000

1040
0.0
1002
{
1002
}
1040
0.0
1002
{
1002
}
1040
0.0
1002
}
1002
{
1040
0.5
1040
1.0
1000

1040
0.0
1002
{
1002
}
1040
0.0
1002
{
1002
}
1040
0.0
1002
}
1002
{
1070
     0
1040
0.0
1002
{
1002
}
1040
1.0
1002
{
1002
}
1040
0.0
1002
}
1002
{
1040
0.0
1002
{
1002
{
1010
0.0
1020
0.0
1030
0.0
1002
}
1040
1.0
1000

1040
0.0
1002
{
1002
}
1040
0.0
1002
{
1002
}
1040
0.0
1002
}
1002
}
1002
{
1002
{
1070
     1
1002
{
1040
0.0
1040
1.0
1000

1040
0.0
1002
{
1002
}
1040
0.0
1002
{
1002
}
1040
0.0
1002
}
1002
}
1040
0.0
1002
{
1002
}
1010
1.0
1020
0.0
1030
0.0
1010
0.0
1020
1.0
1030
0.0
1010
0.0
1020
0.0
1030
1.0
1070
     0
1002
}
1002
{
1002
{
1040
1.0
1040
1.0
1002
{
1070
     1
1002
{
1040
1.0
1040
1.0
1000

1040
0.0
1002
{
1002
}
1040
0.0
1002
{
1002
}
1040
0.0
1002
}
1002
}
1002
}
1070
     0
1040
0.0
1002
{
1002
}
1002
}
1002
{
1002
}
1002
}
1002
{
1071
        3
1070
     3
1070
     0
1002
{
1070
     2
1070
     0
1070
     0
1040
0.0
1002
}
1070
     0
1070
     2
1002
{
1002
}
1002
}
1002
{
1040
8030.0
1040
190.3000030517578
1040
0.3050000071525574
1040
228.0
1040
545.0
1040
14.0
1040
17.39999961853027
1040
0.4560000002384186
1002
}
1002
}
  0
MESH
  5
F9
330
1F
100
AcDbEntity
  8
OracDecor_cornice_mouldings
 62
    53
420
 13033815
160
             29240
310
387200002C0300000C00000013000000020000003C00000006000000020000000000002000408FC000000000C400E33E00000000000054C00000002000408FC000000020FEFF13C000000000000054C00C000000130000000A0000003C00000006000000020000000000002000408FC000000000C400E33E00000000000054
310
C00000004000408F400000000004AAEB3E00000000000054C00C00000013000000120000003C00000006000000020000000000004000408F400000000004AAEB3E00000000000054C00000004000408F4000000080FEFF13C000000000000054C00C000000130000001A0000003C0000000600000002000000000000200040
310
8FC000000020FEFF13C000000000000054C00000004000408F4000000080FEFF13C000000000000054C00C00000013000000220000003C00000006000000020000000000002000408FC000000000C400E33E00000000000054C00000002000408FC0000000204A1514C000000060B5C653C00C000000130000002A0000003C
310
00000006000000020000000000002000408FC000000020FEFF13C000000000000054C00000002000408FC0000000204A1514C000000060B5C653C00C00000013000000320000003C00000006000000020000000000002000408FC000000020885927C0000000401BD751C00000002000408FC00000008029DD00C000000040
310
C53351C00C000000130000003A0000003C00000006000000020000000000002000408FC0000000A070B325C000000080A2EF51C00000002000408FC00000008029DD00C000000040C53351C00C00000013000000420000003C00000006000000020000000000002000408FC0000000A070B325C000000080A2EF51C0000000
310
2000408FC000000020885927C0000000401BD751C00C000000130000004A0000003C00000006000000020000000000002000408FC0000000A019D129C0000000C0DEA751C00000002000408FC0000000802B5B02C000000080FA0851C00C00000013000000520000003C00000006000000020000000000002000408FC00000
310
00802B5B02C000000080FA0851C00000002000408FC00000008029DD00C000000040C53351C00C000000130000005A0000003C00000006000000020000000000002000408FC000000020885927C0000000401BD751C00000002000408FC0000000A019D129C0000000C0DEA751C00C00000013000000620000003C00000006
310
000000020000000000002000408FC0000000007597E13E00000000A52650C00000002000408FC000000020DB0FFEBF00000060F3B550C00C000000130000006A0000003C00000006000000020000000000002000408FC000000020F4E22DC0000000E0506D50C00000002000408FC000000020DB0FFEBF00000060F3B550C0
310
0C00000013000000720000003C00000006000000020000000000002000408FC000000020F4E22DC0000000E0506D50C00000002000408FC000000020FFFF2DC000000000002050C00C000000130000007A0000003C00000006000000020000000000002000408FC000000020FFFF2DC000000000002050C00000002000408F
310
C0000000007597E13E00000000A52650C00C00000013000000820000003C00000006000000020000000000002000408FC000000060DA4433C0000000E03E274EC00000002000408FC000000000A2FA22C0000000C0B0C24BC00C000000130000008A0000003C00000006000000020000000000002000408FC000000000A2FA
310
22C0000000C0B0C24BC00000002000408FC0000000C00B2A20C000000040DE1F4CC00C00000013000000920000003C00000006000000020000000000002000408FC0000000E0E0BA32C000000000002050C00000002000408FC0000000C00B2A20C000000040DE1F4CC00C000000130000009A0000003C0000000600000002
310
0000000000002000408FC0000000E0E0BA32C000000000002050C00000002000408FC000000060DA4433C0000000E03E274EC00C00000013000000A20000003C00000006000000020000000000002000408FC000000020FFFF2DC000000000002050C00000002000408FC0000000E0E0BA32C000000000002050C00C000000
310
13000000AA0000003C00000006000000020000000000002000408FC000000020FFFF2DC000000000002050C00000004000408F4000000060FFFF2DC000000000002050C00C00000013000000B20000003C00000006000000020000000000004000408F4000000060FFFF2DC000000000002050C00000004000408F40000000
310
E0E0BA32C000000000002050C00C00000013000000BA0000003C00000006000000020000000000002000408FC0000000E0E0BA32C000000000002050C00000004000408F40000000E0E0BA32C000000000002050C00C00000013000000C20000003C00000006000000020000000000004000408F4000000060DA4433C00000
310
00E03E274EC00000004000408F40000000E0E0BA32C000000000002050C00C00000013000000CA0000003C00000006000000020000000000002000408FC000000060DA4433C0000000E03E274EC00000004000408F4000000060DA4433C0000000E03E274EC00C00000013000000D20000003C000000060000000200000000
310
00002000408FC00000008017E44AC000000020E3C93BC00000000000408F40000000A017E44AC000000020E3C93BC00C00000013000000DA0000003C00000006000000020000000000000000408F40000000A017E44AC000000020E3C93BC00000000000408F40000000E0FFFF4CC00000002000803BC00C00000013000000
310
E20000003C00000006000000020000000000002000408FC0000000C0FFFF4CC00000002000803BC00000000000408F40000000E0FFFF4CC00000002000803BC00C00000013000000EA0000003C00000006000000020000000000002000408FC00000008017E44AC000000020E3C93BC00000002000408FC0000000C0FFFF4C
310
C00000002000803BC00C00000013000000F20000003C00000006000000020000000000002000408FC0000000C0FFFF4CC00000002000803BC00000002000408FC0000000805F004DC00000002021FC35C00C00000013000000FA0000003C00000006000000020000000000000000408F40000000E0FFFF4CC0000000200080
310
3BC00000000000408F40000000A02F004DC0000000A010FE35C00C00000013000000020100003C00000006000000020000000000002000408FC0000000805F004DC00000002021FC35C00000000000408F40000000A02F004DC0000000A010FE35C00C000000130000000A0100003C00000006000000020000000000002000
310
408FC00000002024CF48C00000006050853CC00000000000408F400000002024CF48C00000006050853CC00C00000013000000120100003C00000006000000020000000000000000408F400000002024CF48C00000006050853CC00000000000408F40000000A017E44AC000000020E3C93BC00C000000130000001A010000
310
3C00000006000000020000000000002000408FC00000002024CF48C00000006050853CC00000002000408FC00000008017E44AC000000020E3C93BC00C00000013000000220100003C00000006000000020000000000002000408FC0000000200BC746C00000008032B03DC00000000000408F40000000200BC746C0000000
310
A032B03DC00C000000130000002A0100003C00000006000000020000000000000000408F40000000200BC746C0000000A032B03DC00000000000408F400000002024CF48C00000006050853CC00C00000013000000320100003C00000006000000020000000000002000408FC0000000200BC746C00000008032B03DC00000
310
002000408FC00000002024CF48C00000006050853CC00C000000130000003A0100003C00000006000000020000000000002000408FC00000004095D144C0000000E03C473FC00000000000408F400000004095D144C0000000003D473FC00C00000013000000420100003C00000006000000020000000000000000408F4000
310
0000200BC746C0000000A032B03DC00000000000408F400000004095D144C0000000003D473FC00C000000130000004A0100003C00000006000000020000000000002000408FC00000004095D144C0000000E03C473FC00000002000408FC0000000200BC746C00000008032B03DC00C00000013000000520100003C000000
310
06000000020000000000002000408FC00000000072F442C000000000E9A240C00000000000408F400000000072F442C000000000E9A240C00C000000130000005A0100003C00000006000000020000000000000000408F400000000072F442C000000000E9A240C00000000000408F400000004095D144C0000000003D473F
310
C00C00000013000000620100003C00000006000000020000000000002000408FC00000000072F442C000000000E9A240C00000002000408FC00000004095D144C0000000E03C473FC00C000000130000006A0100003C00000006000000020000000000002000408FC000000060ED3441C0000000E01FD341C0000000000040
310
8F4000000060ED3441C0000000E01FD341C00C00000013000000720100003C00000006000000020000000000000000408F4000000060ED3441C0000000E01FD341C00000000000408F400000000072F442C000000000E9A240C00C000000130000007A0100003C00000006000000020000000000002000408FC000000060ED
310
3441C0000000E01FD341C00000002000408FC00000000072F442C000000000E9A240C00C00000013000000820100003C00000006000000020000000000002000408FC000000060F82F3FC000000080E63043C00000000000408F4000000080F82F3FC000000080E63043C00C000000130000008A0100003C00000006000000
310
020000000000000000408F4000000080F82F3FC000000080E63043C00000000000408F4000000060ED3441C0000000E01FD341C00C00000013000000920100003C00000006000000020000000000002000408FC000000060F82F3FC000000080E63043C00000002000408FC000000060ED3441C0000000E01FD341C00C0000
310
00130000009A0100003C00000006000000020000000000002000408FC0000000208A443CC0000000404FB844C00000000000408F40000000408A443CC0000000404FB844C00C00000013000000A20100003C00000006000000020000000000000000408F40000000408A443CC0000000404FB844C00000000000408F400000
310
0080F82F3FC000000080E63043C00C00000013000000AA0100003C00000006000000020000000000002000408FC0000000208A443CC0000000404FB844C00000002000408FC000000060F82F3FC000000080E63043C00C00000013000000B20100003C00000006000000020000000000002000408FC0000000E0F4AF39C000
310
000060F16446C00000000000408F4000000000F5AF39C000000060F16446C00C00000013000000BA0100003C00000006000000020000000000000000408F4000000000F5AF39C000000060F16446C00000000000408F40000000408A443CC0000000404FB844C00C00000013000000C20100003C0000000600000002000000
310
0000002000408FC0000000E0F4AF39C000000060F16446C00000002000408FC0000000208A443CC0000000404FB844C00C00000013000000CA0100003C00000006000000020000000000002000408FC000000020867937C0000000A00D3248C00000000000408F4000000000867937C0000000A00D3248C00C000000130000
310
00D20100003C00000006000000020000000000000000408F4000000000867937C0000000A00D3248C00000000000408F4000000000F5AF39C000000060F16446C00C00000013000000DA0100003C00000006000000020000000000002000408FC000000020867937C0000000A00D3248C00000002000408FC0000000E0F4AF
310
39C000000060F16446C00C00000013000000E20100003C00000006000000020000000000002000408FC0000000C08EA735C0000000C0851A4AC00000004000408F40000000A08EA735C0000000C0851A4AC00C00000013000000EA0100003C00000006000000020000000000000000408F4000000000867937C0000000A00D
310
3248C00000004000408F40000000A08EA735C0000000C0851A4AC00C00000013000000F20100003C00000006000000020000000000002000408FC0000000C08EA735C0000000C0851A4AC00000002000408FC000000020867937C0000000A00D3248C00C00000013000000FA0100003C000000060000000200000000000020
310
00408FC000000040573F34C0000000C0CF184CC00000004000408F4000000020573F34C0000000C0CF184CC00C00000013000000020200003C00000006000000020000000000004000408F4000000020573F34C0000000C0CF184CC00000004000408F40000000A08EA735C0000000C0851A4AC00C000000130000000A0200
310
003C00000006000000020000000000002000408FC000000040573F34C0000000C0CF184CC00000002000408FC0000000C08EA735C0000000C0851A4AC00C00000013000000120200003C00000006000000020000000000004000408F4000000060DA4433C0000000E03E274EC00000004000408F4000000020573F34C00000
310
00C0CF184CC00C000000130000001A0200003C00000006000000020000000000002000408FC000000060DA4433C0000000E03E274EC00000002000408FC000000040573F34C0000000C0CF184CC00C00000013000000220200003C00000006000000020000000000002000408FC000000020867937C0000000A00D3248C000
310
00002000408FC000000080DD8B2AC00000008042D247C00C000000130000002A0200003C00000006000000020000000000002000408FC0000000E0F4AF39C000000060F16446C00000002000408FC00000000002B12FC000000080234A45C00C00000013000000320200003C00000006000000020000000000002000408FC0
310
0000000002B12FC000000080234A45C00000002000408FC000000080DD8B2AC00000008042D247C00C000000130000003A0200003C00000006000000020000000000000000408F40000000A02F004DC0000000A010FE35C00000000000408F40000000A05DE94DC0000000C07FC935C00C00000013000000420200003C0000
310
0006000000020000000000002000408FC0000000A05DE94DC0000000C07FC935C00000000000408F40000000A05DE94DC0000000C07FC935C00C000000130000004A0200003C00000006000000020000000000002000408FC0000000805F004DC00000002021FC35C00000002000408FC0000000A05DE94DC0000000C07FC9
310
35C00C00000013000000520200003C00000006000000020000000000002000408FC0000000602F714EC000000080917C35C00000000000408F40000000602F714EC000000080917C35C00C000000130000005A0200003C00000006000000020000000000002000408FC0000000A05DE94DC0000000C07FC935C00000002000
310
408FC0000000602F714EC000000080917C35C00C00000013000000620200003C00000006000000020000000000000000408F40000000A05DE94DC0000000C07FC935C00000000000408F40000000602F714EC000000080917C35C00C000000130000006A0200003C00000006000000020000000000002000408FC000000060
310
22F64EC000000040B01535C00000000000408F400000006022F64EC000000040B01535C00C00000013000000720200003C00000006000000020000000000002000408FC0000000602F714EC000000080917C35C00000002000408FC00000006022F64EC000000040B01535C00C000000130000007A0200003C000000060000
310
00020000000000000000408F40000000602F714EC000000080917C35C00000000000408F400000006022F64EC000000040B01535C00C00000013000000820200003C00000006000000020000000000002000408FC0000000200BC746C00000008032B03DC00000002000408FC0000000A05B3E44C000000000646F35C00C00
310
0000130000008A0200003C00000006000000020000000000002000408FC00000002024CF48C00000006050853CC00000002000408FC000000040C0D847C0000000003B3733C00C00000013000000920200003C00000006000000020000000000002000408FC000000040C0D847C0000000003B3733C00000002000408FC000
310
0000A05B3E44C000000000646F35C00C000000130000009A0200003C00000006000000020000000000002000408FC0000000605D6F4FC0000000E0A4A234C00000000000408F40000000605D6F4FC0000000E0A4A234C00C00000013000000A20200003C00000006000000020000000000002000408FC00000006022F64EC0
310
00000040B01535C00000002000408FC0000000605D6F4FC0000000E0A4A234C00C00000013000000AA0200003C00000006000000020000000000000000408F400000006022F64EC000000040B01535C00000000000408F40000000605D6F4FC0000000E0A4A234C00C00000013000000B20200003C00000006000000020000
310
000000002000408FC000000080BCD84FC0000000C0AF2834C00000000000408F40000000A0BCD84FC0000000C0AF2834C00C00000013000000BA0200003C00000006000000020000000000002000408FC0000000605D6F4FC0000000E0A4A234C00000002000408FC000000080BCD84FC0000000C0AF2834C00C0000001300
310
0000C20200003C00000006000000020000000000000000408F40000000605D6F4FC0000000E0A4A234C00000000000408F40000000A0BCD84FC0000000C0AF2834C00C00000013000000CA0200003C00000006000000020000000000002000408FC000000080074250C000000020C80733C00000000000408F400000008007
310
4250C000000020C80733C00C00000013000000D20200003C00000006000000020000000000002000408FC000000080BCD84FC0000000C0AF2834C00000002000408FC000000080074250C000000020C80733C00C00000013000000DA0200003C00000006000000020000000000000000408F4000000080074250C000000020
310
C80733C00000000000408F40000000A0BCD84FC0000000C0AF2834C00C00000013000000E20200003C00000006000000020000000000002000408FC0000000801A6650C000000080F84A32C00000000000408F40000000801A6650C0000000A0F84A32C00C00000013000000EA0200003C0000000600000002000000000000
310
2000408FC000000080074250C000000020C80733C00000002000408FC0000000801A6650C000000080F84A32C00C00000013000000F20200003C00000006000000020000000000000000408F4000000080074250C000000020C80733C00000000000408F40000000801A6650C0000000A0F84A32C00C00000013000000FA02
310
00003C00000006000000020000000000002000408FC00000008017E44AC000000020E3C93BC00000002000408FC0000000E08F8048C000000020A8B732C00C00000013000000020300003C00000006000000020000000000002000408FC0000000C0FFFF4CC00000002000803BC00000002000408FC0000000400E1049C000
310
000040E3DF31C00C000000130000000A0300003C00000006000000020000000000002000408FC0000000400E1049C000000040E3DF31C00000002000408FC0000000E08F8048C000000020A8B732C00C00000013000000120300003C00000006000000020000000000002000408FC0000000C0348850C0000000C01B6831C0
310
0000000000408F40000000E0348850C0000000E01B6831C00C000000130000001A0300003C00000006000000020000000000002000408FC0000000801A6650C000000080F84A32C00000002000408FC0000000C0348850C0000000C01B6831C00C00000013000000220300003C00000006000000020000000000000000408F
310
40000000E0348850C0000000E01B6831C00000000000408F40000000801A6650C0000000A0F84A32C00C000000130000002A0300003C00000006000000020000000000002000408FC0000000805F004DC00000002021FC35C00000002000408FC0000000408C844BC000000060CFED29C00C00000013000000320300003C00
310
000006000000020000000000002000408FC0000000408C844BC000000060CFED29C00000002000408FC0000000400E1049C000000040E3DF31C00C000000130000003A0300003C00000006000000020000000000002000408FC00000000072AA50C0000000A0BB6330C00000000000408F400000000072AA50C0000000C0BB
310
6330C00C00000013000000420300003C00000006000000020000000000002000408FC0000000C0348850C0000000C01B6831C00000002000408FC00000000072AA50C0000000A0BB6330C00C000000130000004A0300003C00000006000000020000000000000000408F40000000E0348850C0000000E01B6831C000000000
310
00408F400000000072AA50C0000000C0BB6330C00C00000013000000520300003C00000006000000020000000000002000408FC0000000E091CE50C0000000A01EAB2EC00000000000408F400000000092CE50C0000000A01EAB2EC00C000000130000005A0300003C00000006000000020000000000002000408FC0000000
310
0072AA50C0000000A0BB6330C00000002000408FC0000000E091CE50C0000000A01EAB2EC00C00000013000000620300003C00000006000000020000000000000000408F400000000092CE50C0000000A01EAB2EC00000000000408F400000000072AA50C0000000C0BB6330C00C000000130000006A0300003C0000000600
310
0000020000000000002000408FC00000002032F450C00000002005BD2CC00000000000408F400000004032F450C00000002005BD2CC00C00000013000000720300003C00000006000000020000000000002000408FC0000000E091CE50C0000000A01EAB2EC00000002000408FC00000002032F450C00000002005BD2CC00C
310
000000130000007A0300003C00000006000000020000000000000000408F400000004032F450C00000002005BD2CC00000000000408F400000000092CE50C0000000A01EAB2EC00C00000013000000820300003C00000006000000020000000000002000408FC000000000B51951C0000000A0D1222BC00000000000408F40
310
00000020B51951C0000000A0D1222BC00C000000130000008A0300003C00000006000000020000000000002000408FC00000002032F450C00000002005BD2CC00000002000408FC000000000B51951C0000000A0D1222BC00C00000013000000920300003C00000006000000020000000000000000408F4000000020B51951
310
C0000000A0D1222BC00000000000408F400000004032F450C00000002005BD2CC00C000000130000009A0300003C00000006000000020000000000002000408FC000000080D66551C0000000A00ACB28C00000000000408F4000000080D66551C0000000A00ACB28C00C00000013000000A20300003C000000060000000200
310
00000000002000408FC000000000B51951C0000000A0D1222BC00000002000408FC000000080D66551C0000000A00ACB28C00C00000013000000AA0300003C00000006000000020000000000000000408F4000000080D66551C0000000A00ACB28C00000000000408F4000000020B51951C0000000A0D1222BC00C00000013
310
000000B20300003C00000006000000020000000000002000408FC0000000C084C351C0000000A0541327C00000000000408F40000000C084C351C0000000A0541327C00C00000013000000BA0300003C00000006000000020000000000002000408FC000000080D66551C0000000A00ACB28C00000002000408FC0000000C0
310
84C351C0000000A0541327C00C00000013000000C20300003C00000006000000020000000000000000408F40000000C084C351C0000000A0541327C00000000000408F4000000080D66551C0000000A00ACB28C00C00000013000000CA0300003C00000006000000020000000000002000408FC0000000C0A3FC51C0000000
310
20BB6326C00000000000408F40000000E0A3FC51C000000020BB6326C00C00000013000000D20300003C00000006000000020000000000002000408FC0000000C084C351C0000000A0541327C00000002000408FC0000000C0A3FC51C000000020BB6326C00C00000013000000DA0300003C00000006000000020000000000
310
000000408F40000000E0A3FC51C000000020BB6326C00000000000408F40000000C084C351C0000000A0541327C00C00000013000000E20300003C00000006000000020000000000002000408FC0000000C0F13E52C0000000A02FD325C00000000000408F40000000C0F13E52C0000000A02FD325C00C00000013000000EA
310
0300003C00000006000000020000000000002000408FC0000000C0A3FC51C000000020BB6326C00000002000408FC0000000C0F13E52C0000000A02FD325C00C00000013000000F20300003C00000006000000020000000000000000408F40000000C0F13E52C0000000A02FD325C00000000000408F40000000E0A3FC51C0
310
00000020BB6326C00C00000013000000FA0300003C00000006000000020000000000002000408FC000000080608B52C0000000A0FD6225C00000000000408F40000000A0608B52C0000000A0FD6225C00C00000013000000020400003C00000006000000020000000000002000408FC0000000C0F13E52C0000000A02FD325
310
C00000002000408FC000000080608B52C0000000A0FD6225C00C000000130000000A0400003C00000006000000020000000000000000408F40000000A0608B52C0000000A0FD6225C00000000000408F40000000C0F13E52C0000000A02FD325C00C00000013000000120400003C0000000600000002000000000000200040
310
8FC000000080608B52C0000000A0FD6225C00000002000408FC00000000000E052C0000000A0000025C00C000000130000001A0400003C00000006000000020000000000000000408F400000000000E052C0000000A0000025C00000000000408F40000000A0608B52C0000000A0FD6225C00C00000013000000220400003C
310
00000006000000020000000000002000408FC00000000000E052C0000000A0000025C00000000000408F400000000000E052C0000000A0000025C00C000000130000002A0400003C00000006000000020000000000002000408FC00000000000E052C0000000A0000025C00000002000408FC00000000000E052C000000060
310
01001CC00C00000013000000320400003C00000006000000020000000000000000408F400000000000E052C0000000E001001CC00000000000408F400000000000E052C0000000A0000025C00C000000130000003A0400003C00000006000000020000000000002000408FC00000000000E052C00000006001001CC0000000
310
0000408F400000000000E052C0000000E001001CC00C00000013000000420400003C00000006000000020000000000002000408FC00000000000E052C00000006001001CC00000002000408FC000000000000054C00000006001001CC00C000000130000004A0400003C00000006000000020000000000000000408F400000
310
000000E052C0000000E001001CC00000000000408F4000000000000054C00000006001001CC00C00000013000000520400003C00000006000000020000000000002000408FC000000000000054C00000006001001CC00000000000408F4000000000000054C00000006001001CC00C000000130000005A0400003C00000006
310
000000020000000000002000408FC000000000000054C00000006001001CC00000002000408FC000000000000054C0000000409055CDBE0C00000013000000620400003C00000006000000020000000000000000408F4000000000000054C00000006001001CC00000000000408F4000000000000054C0000000208E55CDBE
310
0C000000130000006A0400003C00000006000000020000000000002000408FC000000000000054C0000000409055CDBE0000000000408F4000000000000054C0000000208E55CDBE0C00000013000000720400003C00000006000000020000000000002000408FC00000000000E052C00000006001001CC00000002000408F
310
C000000080096D51C000000040134BF1BF0C000000130000007A0400003C00000006000000020000000000002000408FC000000000000054C00000006001001CC00000002000408FC000000000FF7251C0000000C0FC25D9BF0C00000013000000820400003C00000006000000020000000000002000408FC000000000FF72
310
51C0000000C0FC25D9BF0000002000408FC000000080096D51C000000040134BF1BF0C000000130000008A0400003C00000006000000020000000000002000408FC000000000000054C0000000409055CDBE0000002000408FC0000000407F7151C000000080CCCADCBE0C00000013000000920400003C0000000600000002
310
0000000000000000408F4000000000000054C0000000208E55CDBE0000000000408F40000000607F7151C0000000C06565E6BE0C000000130000009A0400003C00000006000000020000000000002000408FC0000000407F7151C000000080CCCADCBE0000000000408F40000000607F7151C0000000C06565E6BE0C000000
310
13000000A20400003C00000006000000020000000000002000408FC0000000E0A42650C0000000802AD8DBBE0000002000408FC0000000E0FF3F4CC0000000A0D05BDABE0C00000013000000AA0400003C00000006000000020000000000002000408FC0000000E0A42650C0000000802AD8DBBE0000000000408F40000000
310
00A52650C0000000C014ECE5BE0C00000013000000B20400003C00000006000000020000000000000000408F4000000000A52650C0000000C014ECE5BE0000000000408F40000000E0FF3F4CC0000000C0E72DE5BE0C00000013000000BA0400003C00000006000000020000000000002000408FC0000000E0FF3F4CC00000
310
00A0D05BDABE0000000000408F40000000E0FF3F4CC0000000C0E72DE5BE0C00000013000000C20400003C00000006000000020000000000004000408F4000000060F4E22DC0000000E0506D50C00000004000408F4000000060FFFF2DC000000000002050C00C00000013000000CA0400003C000000060000000200000000
310
00002000408FC000000020F4E22DC0000000E0506D50C00000004000408F4000000060F4E22DC0000000E0506D50C00C00000013000000D20400003C00000006000000020000000000004000408F4000000060F4E22DC0000000E0506D50C00000004000408F400000006005A12DC0000000E024B450C00C00000013000000
310
DA0400003C00000006000000020000000000002000408FC00000002005A12DC0000000E024B450C00000002000408FC000000020F4E22DC0000000E0506D50C00C00000013000000E20400003C00000006000000020000000000002000408FC00000002005A12DC0000000E024B450C00000004000408F400000006005A12D
310
C0000000E024B450C00C00000013000000EA0400003C00000006000000020000000000004000408F400000006005A12DC0000000E024B450C00000004000408F40000000604D3D2DC0000000000DF150C00C00000013000000F20400003C00000006000000020000000000002000408FC0000000E04C3D2DC0000000000DF1
310
50C00000002000408FC00000002005A12DC0000000E024B450C00C00000013000000FA0400003C00000006000000020000000000002000408FC0000000E04C3D2DC0000000000DF150C00000004000408F40000000604D3D2DC0000000000DF150C00C00000013000000020500003C00000006000000020000000000004000
310
408F40000000604D3D2DC0000000000DF150C00000004000408F40000000600ABE2CC0000000A0F52351C00C000000130000000A0500003C00000006000000020000000000002000408FC0000000200ABE2CC0000000A0F52351C00000002000408FC0000000E04C3D2DC0000000000DF150C00C0000001300000012050000
310
3C00000006000000020000000000002000408FC0000000200ABE2CC0000000A0F52351C00000004000408F40000000600ABE2CC0000000A0F52351C00C000000130000001A0500003C00000006000000020000000000004000408F40000000600ABE2CC0000000A0F52351C00000004000408F40000000E0D2782BC0000000
310
C0C87151C00C00000013000000220500003C00000006000000020000000000002000408FC0000000A0D2782BC0000000C0C87151C00000002000408FC0000000200ABE2CC0000000A0F52351C00C000000130000002A0500003C00000006000000020000000000002000408FC0000000A0D2782BC0000000C0C87151C00000
310
004000408F40000000E0D2782BC0000000C0C87151C00C00000013000000320500003C00000006000000020000000000004000408F40000000201AD129C0000000C0DEA751C00000004000408F40000000E0D2782BC0000000C0C87151C00C000000130000003A0500003C00000006000000020000000000002000408FC000
310
0000A019D129C0000000C0DEA751C00000002000408FC0000000A0D2782BC0000000C0C87151C00C00000013000000420500003C00000006000000020000000000002000408FC0000000A019D129C0000000C0DEA751C00000004000408F40000000201AD129C0000000C0DEA751C00C000000130000004A0500003C000000
310
06000000020000000000004000408F4000000060885927C0000000401BD751C00000004000408F40000000201AD129C0000000C0DEA751C00C00000013000000520500003C00000006000000020000000000002000408FC000000020885927C0000000401BD751C00000004000408F4000000060885927C0000000401BD751
310
C00C000000130000005A0500003C00000006000000020000000000004000408F4000000060885927C0000000401BD751C00000004000408F400000002071B325C000000080A2EF51C00C00000013000000620500003C00000006000000020000000000002000408FC0000000A070B325C000000080A2EF51C0000000400040
310
8F400000002071B325C000000080A2EF51C00C000000130000006A0500003C00000006000000020000000000004000408F400000002071B325C000000080A2EF51C00000004000408F4000000060E7CF23C0000000C0720B52C00C00000013000000720500003C00000006000000020000000000002000408FC000000020E7
310
CF23C0000000C0720B52C00000002000408FC0000000A070B325C000000080A2EF51C00C000000130000007A0500003C00000006000000020000000000002000408FC000000020E7CF23C0000000C0720B52C00000004000408F4000000060E7CF23C0000000C0720B52C00C00000013000000820500003C00000006000000
310
020000000000004000408F4000000060E7CF23C0000000C0720B52C00000004000408F400000006032DC21C0000000801B2C52C00C000000130000008A0500003C00000006000000020000000000002000408FC00000002032DC21C0000000801B2C52C00000002000408FC000000020E7CF23C0000000C0720B52C00C0000
310
0013000000920500003C00000006000000020000000000002000408FC00000002032DC21C0000000801B2C52C00000004000408F400000006032DC21C0000000801B2C52C00C000000130000009A0500003C00000006000000020000000000004000408F4000000040B31E20C0000000A0D04F52C00000004000408F400000
310
006032DC21C0000000801B2C52C00C00000013000000A20500003C00000006000000020000000000002000408FC000000020B31E20C0000000A0D04F52C00000002000408FC00000002032DC21C0000000801B2C52C00C00000013000000AA0500003C00000006000000020000000000002000408FC000000020B31E20C000
310
0000A0D04F52C00000004000408F4000000040B31E20C0000000A0D04F52C00C00000013000000B20500003C00000006000000020000000000004000408F4000000040B31E20C0000000A0D04F52C00000004000408F40000000200D681DC0000000402A7552C00C00000013000000BA0500003C0000000600000002000000
310
0000002000408FC0000000C00C681DC0000000402A7552C00000002000408FC000000020B31E20C0000000A0D04F52C00C00000013000000C20500003C00000006000000020000000000002000408FC0000000C00C681DC0000000402A7552C00000004000408F40000000200D681DC0000000402A7552C00C000000130000
310
00CA0500003C00000006000000020000000000004000408F40000000A025161BC0000000A0B69D52C00000004000408F40000000200D681DC0000000402A7552C00C00000013000000D20500003C00000006000000020000000000002000408FC00000004025161BC0000000A0B69D52C00000002000408FC0000000C00C68
310
1DC0000000402A7552C00C00000013000000DA0500003C00000006000000020000000000002000408FC00000004025161BC0000000A0B69D52C00000004000408F40000000A025161BC0000000A0B69D52C00C00000013000000E20500003C00000006000000020000000000004000408F40000000A025161BC0000000A0B6
310
9D52C00000004000408F40000000204C1C19C0000000E0CACB52C00C00000013000000EA0500003C00000006000000020000000000002000408FC0000000204B1C19C0000000E0CACB52C00000002000408FC00000004025161BC0000000A0B69D52C00C00000013000000F20500003C000000060000000200000000000020
310
00408FC0000000204B1C19C0000000E0CACB52C00000004000408F40000000204C1C19C0000000E0CACB52C00C00000013000000FA0500003C00000006000000020000000000004000408F40000000204C1C19C0000000E0CACB52C00000004000408F4000000020A15817C0000000E04A0253C00C00000013000000020600
310
003C00000006000000020000000000002000408FC000000020A05817C0000000E04A0253C00000002000408FC0000000204B1C19C0000000E0CACB52C00C000000130000000A0600003C00000006000000020000000000002000408FC000000020A05817C0000000E04A0253C00000004000408F4000000020A15817C00000
310
00E04A0253C00C00000013000000120600003C00000006000000020000000000004000408F4000000020A15817C0000000E04A0253C00000004000408F40000000A0A0D315C0000000409E4153C00C000000130000001A0600003C00000006000000020000000000002000408FC000000020A0D315C0000000409E4153C000
310
00002000408FC000000020A05817C0000000E04A0253C00C00000013000000220600003C00000006000000020000000000002000408FC000000020A0D315C0000000409E4153C00000004000408F40000000A0A0D315C0000000409E4153C00C000000130000002A0600003C00000006000000020000000000004000408F40
310
00000020CDB014C0000000A00C8553C00000004000408F40000000A0A0D315C0000000409E4153C00C00000013000000320600003C00000006000000020000000000002000408FC000000020CCB014C0000000A00C8553C00000002000408FC000000020A0D315C0000000409E4153C00C000000130000003A0600003C0000
310
0006000000020000000000002000408FC000000020CCB014C0000000A00C8553C00000004000408F4000000020CDB014C0000000A00C8553C00C00000013000000420600003C00000006000000020000000000004000408F40000000804A1514C000000060B5C653C00000004000408F4000000020CDB014C0000000A00C85
310
53C00C000000130000004A0600003C00000006000000020000000000002000408FC0000000204A1514C000000060B5C653C00000002000408FC000000020CCB014C0000000A00C8553C00C00000013000000520600003C00000006000000020000000000002000408FC0000000204A1514C000000060B5C653C00000004000
310
408F40000000804A1514C000000060B5C653C00C000000130000005A0600003C00000006000000020000000000004000408F40000000804A1514C000000060B5C653C00000004000408F4000000080FEFF13C000000000000054C00C00000013000000620600003C00000006000000020000000000002000408FC000000000
310
FF7251C0000000C0FC25D9BF0000002000408FC0000000407F7151C000000080CCCADCBE0C000000130000006A0600003C00000006000000020000000000000000408F4000000000FF7251C0000000C00C26D9BF0000000000408F40000000607F7151C0000000C06565E6BE0C00000013000000720600003C000000060000
310
00020000000000002000408FC000000000FF7251C0000000C0FC25D9BF0000000000408F4000000000FF7251C0000000C00C26D9BF0C000000130000007A0600003C00000006000000020000000000000000408F40000000A0096D51C000000040174BF1BF0000000000408F4000000000FF7251C0000000C00C26D9BF0C00
310
000013000000820600003C00000006000000020000000000002000408FC000000080096D51C000000040134BF1BF0000000000408F40000000A0096D51C000000040174BF1BF0C000000130000008A0600003C00000006000000020000000000002000408FC000000080096D51C000000040134BF1BF0000002000408FC000
310
000000DD5651C000000020D7EAFABF0C00000013000000920600003C00000006000000020000000000000000408F40000000A0096D51C000000040174BF1BF0000000000408F4000000000DD5651C000000020DBEAFABF0C000000130000009A0600003C00000006000000020000000000002000408FC000000000DD5651C0
310
00000020D7EAFABF0000000000408F4000000000DD5651C000000020DBEAFABF0C00000013000000A20600003C00000006000000020000000000002000408FC000000000DD5651C000000020D7EAFABF0000002000408FC000000040C53351C0000000A031DD00C00C00000013000000AA0600003C00000006000000020000
310
000000000000408F4000000000DD5651C000000020DBEAFABF0000000000408F4000000040C53351C0000000A033DD00C00C00000013000000B20600003C00000006000000020000000000002000408FC000000040C53351C0000000A031DD00C00000000000408F4000000040C53351C0000000A033DD00C00C0000001300
310
0000BA0600003C00000006000000020000000000002000408FC000000040C53351C0000000A031DD00C00000002000408FC000000080FA0851C000000080335B02C00C00000013000000C20600003C00000006000000020000000000000000408F4000000040C53351C0000000A033DD00C00000000000408F4000000080FA
310
0851C000000080355B02C00C00000013000000CA0600003C00000006000000020000000000002000408FC000000080FA0851C000000080335B02C00000000000408F4000000080FA0851C000000080355B02C00C00000013000000D20600003C00000006000000020000000000002000408FC000000080FA0851C000000080
310
335B02C00000002000408FC0000000C0D9DC50C000000080A1B601C00C00000013000000DA0600003C00000006000000020000000000000000408F4000000080FA0851C000000080355B02C00000000000408F40000000C0D9DC50C000000080A3B601C00C00000013000000E20600003C0000000600000002000000000000
310
2000408FC0000000C0D9DC50C000000080A1B601C00000000000408F40000000C0D9DC50C000000080A3B601C00C00000013000000EA0600003C00000006000000020000000000002000408FC0000000C0D9DC50C000000080A1B601C00000002000408FC000000040F3B550C000000020EB0FFEBF0C00000013000000F206
310
00003C00000006000000020000000000000000408F40000000C0D9DC50C000000080A3B601C00000000000408F4000000040F3B550C000000020EF0FFEBF0C00000013000000FA0600003C00000006000000020000000000002000408FC000000040F3B550C000000020EB0FFEBF0000000000408F4000000040F3B550C000
310
000020EF0FFEBF0C00000013000000020700003C00000006000000020000000000002000408FC000000040F3B550C000000020EB0FFEBF0000002000408FC0000000E0A42650C0000000802AD8DBBE0C000000130000000A0700003C00000006000000020000000000000000408F4000000040F3B550C000000020EF0FFEBF
310
0000000000408F4000000000A52650C0000000C014ECE5BE0C00000013000000120700003C00000006000000020000000000002000408FC0000000E0FF3F4CC0000000A0D05BDABE0000002000408FC0000000C0FF3F4CC0000000E09DDB22C00C000000130000001A0700003C00000006000000020000000000000000408F
310
40000000E0FF3F4CC0000000C0E72DE5BE0000000000408F40000000E0FF3F4CC0000000609EDB22C00C00000013000000220700003C00000006000000020000000000002000408FC0000000C0FF3F4CC0000000E09DDB22C00000000000408F40000000E0FF3F4CC0000000609EDB22C00C000000130000002A0700003C00
310
000006000000020000000000002000408FC0000000C0FF3F4CC0000000E09DDB22C00000002000408FC000000040302A4CC000000060387225C00C00000013000000320700003C00000006000000020000000000000000408F40000000E0FF3F4CC0000000609EDB22C00000000000408F4000000060302A4CC0000000E038
310
7225C00C000000130000003A0700003C00000006000000020000000000002000408FC000000040302A4CC000000060387225C00000000000408F4000000060302A4CC0000000E0387225C00C00000013000000420700003C00000006000000020000000000002000408FC000000040302A4CC000000060387225C000000020
310
00408FC00000004042EA4BC00000006096DB27C00C000000130000004A0700003C00000006000000020000000000000000408F400000004042EA4BC0000000E096DB27C00000000000408F4000000060302A4CC0000000E0387225C00C00000013000000520700003C00000006000000020000000000002000408FC0000000
310
4042EA4BC00000006096DB27C00000000000408F400000004042EA4BC0000000E096DB27C00C000000130000005A0700003C00000006000000020000000000002000408FC0000000408C844BC000000060CFED29C00000002000408FC00000004042EA4BC00000006096DB27C00C00000013000000620700003C0000000600
310
0000020000000000000000408F40000000408C844BC0000000E0CFED29C00000000000408F400000004042EA4BC0000000E096DB27C00C000000130000006A0700003C00000006000000020000000000002000408FC0000000408C844BC000000060CFED29C00000000000408F40000000408C844BC0000000E0CFED29C00C
310
00000013000000720700003C00000006000000020000000000000000408F40000000400E1049C000000060E3DF31C00000000000408F40000000408C844BC0000000E0CFED29C00C000000130000007A0700003C00000006000000020000000000002000408FC0000000400E1049C000000040E3DF31C00000000000408F40
310
000000400E1049C000000060E3DF31C00C00000013000000820700003C00000006000000020000000000000000408F40000000E08F8048C000000040A8B732C00000000000408F40000000400E1049C000000060E3DF31C00C000000130000008A0700003C00000006000000020000000000002000408FC0000000E08F8048
310
C000000020A8B732C00000000000408F40000000E08F8048C000000040A8B732C00C00000013000000920700003C00000006000000020000000000002000408FC000000040C0D847C0000000003B3733C00000002000408FC0000000E08F8048C000000020A8B732C00C000000130000009A0700003C000000060000000200
310
00000000000000408F4000000020C0D847C0000000203B3733C00000000000408F40000000E08F8048C000000040A8B732C00C00000013000000A20700003C00000006000000020000000000002000408FC000000040C0D847C0000000003B3733C00000000000408F4000000020C0D847C0000000203B3733C00C00000013
310
000000AA0700003C00000006000000020000000000000000408F40000000A05B3E44C000000020646F35C00000000000408F4000000020C0D847C0000000203B3733C00C00000013000000B20700003C00000006000000020000000000002000408FC0000000A05B3E44C000000000646F35C00000000000408F40000000A0
310
5B3E44C000000020646F35C00C00000013000000BA0700003C00000006000000020000000000002000408FC0000000A05B3E44C000000000646F35C00000002000408FC000000040D0D940C0000000A027B938C00C00000013000000C20700003C00000006000000020000000000000000408F40000000A05B3E44C0000000
310
20646F35C00000000000408F4000000020D0D940C0000000C027B938C00C00000013000000CA0700003C00000006000000020000000000002000408FC000000040D0D940C0000000A027B938C00000000000408F4000000020D0D940C0000000C027B938C00C00000013000000D20700003C00000006000000020000000000
310
002000408FC000000040D0D940C0000000A027B938C00000002000408FC00000000020CC40C00000004090CB38C00C00000013000000DA0700003C00000006000000020000000000000000408F40000000E01FCC40C00000006090CB38C00000000000408F4000000020D0D940C0000000C027B938C00C00000013000000E2
310
0700003C00000006000000020000000000002000408FC00000000020CC40C00000004090CB38C00000000000408F40000000E01FCC40C00000006090CB38C00C00000013000000EA0700003C00000006000000020000000000002000408FC0000000801BC040C00000000078DD38C00000002000408FC00000000020CC40C0
310
0000004090CB38C00C00000013000000F20700003C00000006000000020000000000000000408F40000000A0EBBF40C0000000A067DF38C00000000000408F40000000E01FCC40C00000006090CB38C00C00000013000000FA0700003C00000006000000020000000000002000408FC0000000801BC040C00000000078DD38
310
C00000000000408F40000000A0EBBF40C0000000A067DF38C00C00000013000000020800003C00000006000000020000000000002000408FC0000000801BC040C00000000078DD38C00000002000408FC000000060B00030C0000000E00E3045C00C000000130000000A0800003C0000000600000002000000000000400040
310
8F4000000080B00030C0000000E00E3045C00000000000408F40000000A0EBBF40C0000000A067DF38C00C00000013000000120800003C00000006000000020000000000002000408FC000000060B00030C0000000E00E3045C00000004000408F4000000080B00030C0000000E00E3045C00C000000130000001A0800003C
310
00000006000000020000000000002000408FC000000060B00030C0000000E00E3045C00000002000408FC000000080D3D52FC000000020733C45C00C00000013000000220800003C00000006000000020000000000004000408F40000000C0D3D52FC000000020733C45C00000004000408F4000000080B00030C0000000E0
310
0E3045C00C000000130000002A0800003C00000006000000020000000000002000408FC000000080D3D52FC000000020733C45C00000004000408F40000000C0D3D52FC000000020733C45C00C00000013000000320800003C00000006000000020000000000002000408FC00000000002B12FC000000080234A45C0000000
310
2000408FC000000080D3D52FC000000020733C45C00C000000130000003A0800003C00000006000000020000000000004000408F400000004002B12FC000000080234A45C00000004000408F40000000C0D3D52FC000000020733C45C00C00000013000000420800003C00000006000000020000000000002000408FC00000
310
000002B12FC000000080234A45C00000004000408F400000004002B12FC000000080234A45C00C000000130000004A0800003C00000006000000020000000000004000408F40000000C0DD8B2AC00000008042D247C00000004000408F400000004002B12FC000000080234A45C00C00000013000000520800003C00000006
310
000000020000000000002000408FC000000080DD8B2AC00000008042D247C00000004000408F40000000C0DD8B2AC00000008042D247C00C000000130000005A0800003C00000006000000020000000000002000408FC000000080DD8B2AC00000008042D247C00000002000408FC0000000805B9826C000000080D57B4AC0
310
0C00000013000000620800003C00000006000000020000000000004000408F40000000C0DD8B2AC00000008042D247C00000004000408F40000000A05B9826C000000080D57B4AC00C000000130000006A0800003C00000006000000020000000000002000408FC0000000805B9826C000000080D57B4AC00000004000408F
310
40000000A05B9826C000000080D57B4AC00C00000013000000720800003C00000006000000020000000000002000408FC0000000805B9826C000000080D57B4AC00000002000408FC0000000406B3225C0000000C0D2314BC00C000000130000007A0800003C00000006000000020000000000004000408F40000000606B32
310
25C0000000C0D2314BC00000004000408F40000000A05B9826C000000080D57B4AC00C00000013000000820800003C00000006000000020000000000002000408FC0000000406B3225C0000000C0D2314BC00000004000408F40000000606B3225C0000000C0D2314BC00C000000130000008A0800003C0000000600000002
310
0000000000002000408FC0000000406B3225C0000000C0D2314BC00000002000408FC000000000A2FA22C0000000C0B0C24BC00C00000013000000920800003C00000006000000020000000000004000408F4000000020A2FA22C0000000C0B0C24BC00000004000408F40000000606B3225C0000000C0D2314BC00C000000
310
130000009A0800003C00000006000000020000000000002000408FC000000000A2FA22C0000000C0B0C24BC00000004000408F4000000020A2FA22C0000000C0B0C24BC00C00000013000000A20800003C00000006000000020000000000004000408F4000000020A2FA22C0000000C0B0C24BC00000004000408F40000000
310
E00B2A20C000000040DE1F4CC00C00000013000000AA0800003C00000006000000020000000000002000408FC0000000C00B2A20C000000040DE1F4CC00000004000408F40000000E00B2A20C000000040DE1F4CC00C00000013000000B20800003C00000006000000020000000000002000408FC00000006030121AC00000
310
000000404CC00000002000408FC0000000C00B2A20C000000040DE1F4CC00C00000013000000BA0800003C00000006000000020000000000004000408F40000000E00B2A20C000000040DE1F4CC00000004000408F40000000C030121AC00000000000404CC00C00000013000000C20800003C000000060000000200000000
310
00002000408FC00000006030121AC00000000000404CC00000004000408F40000000C030121AC00000000000404CC00C00000013000000CA0800003C00000006000000020000000000002000408FC00000006030121AC00000000000404CC00000002000408FC00000000048D9E03E0000000000404CC00C00000013000000
310
D20800003C00000006000000020000000000004000408F40000000C030121AC00000000000404CC00000004000408F40000000008882E13E0000000000404CC00C00000013000000DA0800003C00000006000000020000000000002000408FC00000000048D9E03E0000000000404CC00000004000408F40000000008882E1
310
3E0000000000404CC00C00000013000000E20800003C00000006000000020000000000002000408FC0000000007597E13E00000000A52650C00000002000408FC00000000048D9E03E0000000000404CC00C00000013000000EA0800003C00000006000000020000000000004000408F4000000000B540E23E00000000A526
310
50C00000004000408F40000000008882E13E0000000000404CC00C00000013000000F20800003C00000006000000020000000000002000408FC0000000007597E13E00000000A52650C00000004000408F4000000000B540E23E00000000A52650C00C00000013000000FA0800003C00000006000000020000000000004000
310
408F4000000000B540E23E00000000A52650C00000004000408F40000000C0D60FFEBF00000060F3B550C00C00000013000000020900003C00000006000000020000000000002000408FC000000020DB0FFEBF00000060F3B550C00000004000408F40000000C0D60FFEBF00000060F3B550C00C000000130000000A090000
310
3C00000006000000020000000000002000408FC000000020DB0FFEBF00000060F3B550C00000002000408FC00000008099B601C0000000E0D9DC50C00C00000013000000120900003C00000006000000020000000000004000408F40000000C0D60FFEBF00000060F3B550C00000004000408F400000006097B601C0000000
310
E0D9DC50C00C000000130000001A0900003C00000006000000020000000000002000408FC00000008099B601C0000000E0D9DC50C00000004000408F400000006097B601C0000000E0D9DC50C00C00000013000000220900003C00000006000000020000000000002000408FC00000008099B601C0000000E0D9DC50C00000
310
002000408FC0000000802B5B02C000000080FA0851C00C000000130000002A0900003C00000006000000020000000000004000408F40000000602B5B02C000000080FA0851C00000004000408F400000006097B601C0000000E0D9DC50C00C00000013000000320900003C00000006000000020000000000002000408FC000
310
0000802B5B02C000000080FA0851C00000004000408F40000000602B5B02C000000080FA0851C00C000000130000003A0900003C00000006000000020000000000004000408F400000006027DD00C000000040C53351C00000004000408F40000000602B5B02C000000080FA0851C00C00000013000000420900003C000000
310
06000000020000000000002000408FC00000008029DD00C000000040C53351C00000004000408F400000006027DD00C000000040C53351C00C000000130000004A0900003C00000006000000020000000000002000408FC00000008029DD00C000000040C53351C00000002000408FC000000000C7EAFABF00000000DD5651
310
C00C00000013000000520900003C00000006000000020000000000004000408F400000006027DD00C000000040C53351C00000004000408F40000000A0C6EAFABF00000000DD5651C00C000000130000005A0900003C00000006000000020000000000002000408FC000000000C7EAFABF00000000DD5651C0000000400040
310
8F40000000A0C6EAFABF00000000DD5651C00C00000013000000620900003C00000006000000020000000000002000408FC000000000C7EAFABF00000000DD5651C00000002000408FC000000000034BF1BF000000A0096D51C00C000000130000006A0900003C00000006000000020000000000004000408F40000000A0C6
310
EAFABF00000000DD5651C00000004000408F40000000A0FE4AF1BF000000A0096D51C00C00000013000000720900003C00000006000000020000000000002000408FC000000000034BF1BF000000A0096D51C00000004000408F40000000A0FE4AF1BF000000A0096D51C00C000000130000007A0900003C00000006000000
310
020000000000002000408FC0000000E0BB25D9BF00000000FF7251C00000002000408FC000000000034BF1BF000000A0096D51C00C00000013000000820900003C00000006000000020000000000004000408F40000000A0FE4AF1BF000000A0096D51C00000004000408F4000000080AA25D9BF00000000FF7251C00C0000
310
00130000008A0900003C00000006000000020000000000002000408FC0000000E0BB25D9BF00000000FF7251C00000004000408F4000000080AA25D9BF00000000FF7251C00C00000013000000920900003C00000006000000020000000000002000408FC0000000E0BB25D9BF00000000FF7251C00000002000408FC00000
310
0000C610E23E000000607F7151C00C000000130000009A0900003C00000006000000020000000000004000408F4000000080AA25D9BF00000000FF7251C00000004000408F400000000006BAEA3E000000607F7151C00C00000013000000A20900003C00000006000000020000000000002000408FC000000000C610E23E00
310
0000607F7151C00000004000408F400000000006BAEA3E000000607F7151C00C00000013000000AA0900003C00000006000000020000000000002000408FC000000000C400E33E00000000000054C00000002000408FC000000000C610E23E000000607F7151C00C00000013000000B20900003C0000000600000002000000
310
0000004000408F400000000004AAEB3E00000000000054C00000004000408F400000000006BAEA3E000000607F7151C00C00000013000000BA0900003C00000006000000020000000000002000408FC00000002005A12DC0000000E024B450C00000002000408FC000000020DB0FFEBF00000060F3B550C00C000000130000
310
00C20900003C00000006000000020000000000002000408FC0000000E04C3D2DC0000000000DF150C00000002000408FC00000008099B601C0000000E0D9DC50C00C00000013000000CA0900003C00000006000000020000000000002000408FC0000000200ABE2CC0000000A0F52351C00000002000408FC00000008099B6
310
01C0000000E0D9DC50C00C00000013000000D20900003C00000006000000020000000000002000408FC0000000A0D2782BC0000000C0C87151C00000002000408FC0000000802B5B02C000000080FA0851C00C00000013000000DA0900003C00000006000000020000000000002000408FC000000020E7CF23C0000000C072
310
0B52C00000002000408FC000000000C7EAFABF00000000DD5651C00C00000013000000E20900003C00000006000000020000000000002000408FC000000020B31E20C0000000A0D04F52C00000002000408FC000000000034BF1BF000000A0096D51C00C00000013000000EA0900003C000000060000000200000000000020
310
00408FC00000002032DC21C0000000801B2C52C00000002000408FC000000000C7EAFABF00000000DD5651C00C00000013000000F20900003C00000006000000020000000000002000408FC00000004025161BC0000000A0B69D52C00000002000408FC0000000E0BB25D9BF00000000FF7251C00C00000013000000FA0900
310
003C00000006000000020000000000002000408FC0000000C00C681DC0000000402A7552C00000002000408FC000000000034BF1BF000000A0096D51C00C00000013000000020A00003C00000006000000020000000000002000408FC0000000204B1C19C0000000E0CACB52C00000002000408FC0000000E0BB25D9BF0000
310
0000FF7251C00C000000130000000A0A00003C00000006000000020000000000002000408FC000000020A05817C0000000E04A0253C00000002000408FC000000000C610E23E000000607F7151C00C00000013000000120A00003C00000006000000020000000000002000408FC000000000C400E33E00000000000054C000
310
00002000408FC000000020CCB014C0000000A00C8553C00C000000130000001A0A00003C00000006000000020000000000002000408FC000000000C400E33E00000000000054C00000002000408FC000000020A0D315C0000000409E4153C00C00000013000000220A00003C00000006000000020000000000002000408FC0
310
00000020FFFF2DC000000000002050C00000002000408FC00000006030121AC00000000000404CC00C000000130000002A0A00003C00000006000000020000000000002000408FC000000040573F34C0000000C0CF184CC00000002000408FC0000000406B3225C0000000C0D2314BC00C00000013000000320A00003C0000
310
0006000000020000000000002000408FC0000000C08EA735C0000000C0851A4AC00000002000408FC0000000805B9826C000000080D57B4AC00C000000130000003A0A00003C00000006000000020000000000002000408FC0000000208A443CC0000000404FB844C00000002000408FC000000080D3D52FC000000020733C
310
45C00C00000013000000420A00003C00000006000000020000000000002000408FC000000060F82F3FC000000080E63043C00000002000408FC000000060B00030C0000000E00E3045C00C000000130000004A0A00003C00000006000000020000000000002000408FC000000060ED3441C0000000E01FD341C00000002000
310
408FC0000000801BC040C00000000078DD38C00C00000013000000520A00003C00000006000000020000000000002000408FC00000000072F442C000000000E9A240C00000002000408FC00000000020CC40C00000004090CB38C00C000000130000005A0A00003C00000006000000020000000000002000408FC000000040
310
95D144C0000000E03C473FC00000002000408FC000000040D0D940C0000000A027B938C00C00000013000000620A00003C00000006000000020000000000002000408FC00000000000E052C0000000A0000025C00000002000408FC000000000DD5651C000000020D7EAFABF0C000000130000006A0A00003C000000060000
310
00020000000000002000408FC000000080608B52C0000000A0FD6225C00000002000408FC000000040C53351C0000000A031DD00C00C00000013000000720A00003C00000006000000020000000000002000408FC0000000C0F13E52C0000000A02FD325C00000002000408FC000000080FA0851C000000080335B02C00C00
310
0000130000007A0A00003C00000006000000020000000000002000408FC0000000C0A3FC51C000000020BB6326C00000002000408FC0000000C0D9DC50C000000080A1B601C00C00000013000000820A00003C00000006000000020000000000002000408FC0000000C084C351C0000000A0541327C00000002000408FC000
310
000040F3B550C000000020EB0FFEBF0C000000130000008A0A00003C00000006000000020000000000002000408FC000000080D66551C0000000A00ACB28C00000002000408FC0000000E0A42650C0000000802AD8DBBE0C00000013000000920A00003C00000006000000020000000000002000408FC000000000B51951C0
310
000000A0D1222BC00000002000408FC0000000E0A42650C0000000802AD8DBBE0C000000130000009A0A00003C00000006000000020000000000002000408FC00000002032F450C00000002005BD2CC00000002000408FC0000000E0FF3F4CC0000000A0D05BDABE0C00000013000000A20A00003C00000006000000020000
310
000000002000408FC0000000E091CE50C0000000A01EAB2EC00000002000408FC0000000E0FF3F4CC0000000A0D05BDABE0C00000013000000AA0A00003C00000006000000020000000000002000408FC0000000A05DE94DC0000000C07FC935C00000002000408FC0000000408C844BC000000060CFED29C00C0000001300
310
0000B20A00003C00000006000000020000000000002000408FC0000000C0348850C0000000C01B6831C00000002000408FC0000000C0FF3F4CC0000000E09DDB22C00C00000013000000BA0A00003C00000006000000020000000000002000408FC00000000072AA50C0000000A0BB6330C00000002000408FC0000000C0FF
310
3F4CC0000000E09DDB22C00C00000013000000C20A00003C00000006000000020000000000002000408FC0000000602F714EC000000080917C35C00000002000408FC00000004042EA4BC00000006096DB27C00C00000013000000CA0A00003C00000006000000020000000000002000408FC00000006022F64EC000000040
310
B01535C00000002000408FC00000004042EA4BC00000006096DB27C00C00000013000000D20A00003C00000006000000020000000000002000408FC0000000605D6F4FC0000000E0A4A234C00000002000408FC00000004042EA4BC00000006096DB27C00C00000013000000DA0A00003C0000000600000002000000000000
310
2000408FC000000080074250C000000020C80733C00000002000408FC000000040302A4CC000000060387225C00C00000013000000E20A00003C00000006000000020000000000002000408FC0000000801A6650C000000080F84A32C00000002000408FC0000000C0FF3F4CC0000000E09DDB22C00C00000013000000EA0A
310
00003C00000006000000020000000000002000408FC000000080BCD84FC0000000C0AF2834C00000002000408FC000000040302A4CC000000060387225C00C00000013000000F20A00003C00000006000000020000000000004000408F40000000804A1514C000000060B5C653C00000004000408F400000000004AAEB3E00
310
000000000054C00C00000013000000FA0A00003C00000006000000020000000000004000408F400000006027DD00C000000040C53351C00000004000408F400000002071B325C000000080A2EF51C00C00000013000000020B00003C00000006000000020000000000004000408F4000000060885927C0000000401BD751C0
310
0000004000408F400000006027DD00C000000040C53351C00C000000130000000A0B00003C00000006000000020000000000004000408F40000000201AD129C0000000C0DEA751C00000004000408F40000000602B5B02C000000080FA0851C00C00000013000000120B00003C00000006000000020000000000004000408F
310
4000000000B540E23E00000000A52650C00000004000408F4000000060FFFF2DC000000000002050C00C000000130000001A0B00003C00000006000000020000000000004000408F40000000C0D60FFEBF00000060F3B550C00000004000408F4000000060F4E22DC0000000E0506D50C00C00000013000000220B00003C00
310
000006000000020000000000004000408F40000000E00B2A20C000000040DE1F4CC00000004000408F40000000E0E0BA32C000000000002050C00C000000130000002A0B00003C00000006000000020000000000004000408F4000000060DA4433C0000000E03E274EC00000004000408F4000000020A2FA22C0000000C0B0
310
C24BC00C00000013000000320B00003C00000006000000020000000000000000408F4000000000F5AF39C000000060F16446C00000004000408F400000004002B12FC000000080234A45C00C000000130000003A0B00003C00000006000000020000000000004000408F40000000C0DD8B2AC00000008042D247C000000000
310
00408F4000000000867937C0000000A00D3248C00C00000013000000420B00003C00000006000000020000000000000000408F400000002024CF48C00000006050853CC00000000000408F4000000020C0D847C0000000203B3733C00C000000130000004A0B00003C00000006000000020000000000000000408F40000000
310
A05B3E44C000000020646F35C00000000000408F40000000200BC746C0000000A032B03DC00C00000013000000520B00003C00000006000000020000000000000000408F40000000E0FFFF4CC00000002000803BC00000000000408F40000000400E1049C000000060E3DF31C00C000000130000005A0B00003C0000000600
310
0000020000000000000000408F40000000E08F8048C000000040A8B732C00000000000408F40000000A017E44AC000000020E3C93BC00C00000013000000620B00003C00000006000000020000000000000000408F40000000A02F004DC0000000A010FE35C00000000000408F40000000408C844BC0000000E0CFED29C00C
310
000000130000006A0B00003C00000006000000020000000000000000408F4000000000000054C00000006001001CC00000000000408F4000000000FF7251C0000000C00C26D9BF0C00000013000000720B00003C00000006000000020000000000000000408F40000000A0096D51C000000040174BF1BF0000000000408F40
310
0000000000E052C0000000E001001CC00C000000130000007A0B00003C00000006000000020000000000004000408F40000000C0D60FFEBF00000060F3B550C00000004000408F400000006005A12DC0000000E024B450C00C00000013000000820B00003C00000006000000020000000000004000408F40000000604D3D2D
310
C0000000000DF150C00000004000408F400000006097B601C0000000E0D9DC50C00C000000130000008A0B00003C00000006000000020000000000004000408F400000006097B601C0000000E0D9DC50C00000004000408F40000000600ABE2CC0000000A0F52351C00C00000013000000920B00003C000000060000000200
310
00000000004000408F40000000602B5B02C000000080FA0851C00000004000408F40000000E0D2782BC0000000C0C87151C00C000000130000009A0B00003C00000006000000020000000000004000408F40000000A0C6EAFABF00000000DD5651C00000004000408F4000000060E7CF23C0000000C0720B52C00C00000013
310
000000A20B00003C00000006000000020000000000004000408F40000000A0C6EAFABF00000000DD5651C00000004000408F400000006032DC21C0000000801B2C52C00C00000013000000AA0B00003C00000006000000020000000000004000408F40000000A0FE4AF1BF000000A0096D51C00000004000408F4000000040
310
B31E20C0000000A0D04F52C00C00000013000000B20B00003C00000006000000020000000000004000408F40000000A0FE4AF1BF000000A0096D51C00000004000408F40000000200D681DC0000000402A7552C00C00000013000000BA0B00003C00000006000000020000000000004000408F4000000080AA25D9BF000000
310
00FF7251C00000004000408F40000000A025161BC0000000A0B69D52C00C00000013000000C20B00003C00000006000000020000000000004000408F4000000080AA25D9BF00000000FF7251C00000004000408F40000000204C1C19C0000000E0CACB52C00C00000013000000CA0B00003C00000006000000020000000000
310
004000408F400000000006BAEA3E000000607F7151C00000004000408F4000000020A15817C0000000E04A0253C00C00000013000000D20B00003C00000006000000020000000000004000408F400000000004AAEB3E00000000000054C00000004000408F4000000020CDB014C0000000A00C8553C00C00000013000000DA
310
0B00003C00000006000000020000000000004000408F400000000004AAEB3E00000000000054C00000004000408F40000000A0A0D315C0000000409E4153C00C00000013000000E20B00003C00000006000000020000000000004000408F4000000060FFFF2DC000000000002050C00000004000408F40000000C030121AC0
310
0000000000404CC00C00000013000000EA0B00003C00000006000000020000000000004000408F4000000020573F34C0000000C0CF184CC00000004000408F40000000606B3225C0000000C0D2314BC00C00000013000000F20B00003C00000006000000020000000000004000408F40000000A08EA735C0000000C0851A4A
310
C00000004000408F40000000A05B9826C000000080D57B4AC00C00000013000000FA0B00003C00000006000000020000000000004000408F40000000C0D3D52FC000000020733C45C00000000000408F40000000408A443CC0000000404FB844C00C00000013000000020C00003C0000000600000002000000000000400040
310
8F4000000080B00030C0000000E00E3045C00000000000408F4000000080F82F3FC000000080E63043C00C000000130000000A0C00003C00000006000000020000000000000000408F40000000A0EBBF40C0000000A067DF38C00000000000408F4000000060ED3441C0000000E01FD341C00C00000013000000120C00003C
310
00000006000000020000000000000000408F40000000E01FCC40C00000006090CB38C00000000000408F400000000072F442C000000000E9A240C00C000000130000001A0C00003C00000006000000020000000000000000408F4000000020D0D940C0000000C027B938C00000000000408F400000004095D144C000000000
310
3D473FC00C00000013000000220C00003C00000006000000020000000000000000408F4000000000DD5651C000000020DBEAFABF0000000000408F400000000000E052C0000000A0000025C00C000000130000002A0C00003C00000006000000020000000000000000408F4000000040C53351C0000000A033DD00C0000000
310
0000408F40000000A0608B52C0000000A0FD6225C00C00000013000000320C00003C00000006000000020000000000000000408F4000000080FA0851C000000080355B02C00000000000408F40000000C0F13E52C0000000A02FD325C00C000000130000003A0C00003C00000006000000020000000000000000408F400000
310
00C0D9DC50C000000080A3B601C00000000000408F40000000E0A3FC51C000000020BB6326C00C00000013000000420C00003C00000006000000020000000000000000408F4000000040F3B550C000000020EF0FFEBF0000000000408F40000000C084C351C0000000A0541327C00C000000130000004A0C00003C00000006
310
000000020000000000000000408F4000000000A52650C0000000C014ECE5BE0000000000408F4000000080D66551C0000000A00ACB28C00C00000013000000520C00003C00000006000000020000000000000000408F4000000000A52650C0000000C014ECE5BE0000000000408F4000000020B51951C0000000A0D1222BC0
310
0C000000130000005A0C00003C00000006000000020000000000000000408F40000000E0FF3F4CC0000000C0E72DE5BE0000000000408F400000004032F450C00000002005BD2CC00C00000013000000620C00003C00000006000000020000000000000000408F40000000E0FF3F4CC0000000C0E72DE5BE0000000000408F
310
400000000092CE50C0000000A01EAB2EC00C000000130000006A0C00003C00000006000000020000000000000000408F40000000408C844BC0000000E0CFED29C00000000000408F40000000A05DE94DC0000000C07FC935C00C00000013000000720C00003C00000006000000020000000000000000408F40000000E0FF3F
310
4CC0000000609EDB22C00000000000408F400000000072AA50C0000000C0BB6330C00C000000130000007A0C00003C00000006000000020000000000000000408F40000000E0FF3F4CC0000000609EDB22C00000000000408F40000000E0348850C0000000E01B6831C00C00000013000000820C00003C0000000600000002
310
0000000000000000408F400000004042EA4BC0000000E096DB27C00000000000408F40000000602F714EC000000080917C35C00C000000130000008A0C00003C00000006000000020000000000000000408F400000004042EA4BC0000000E096DB27C00000000000408F400000006022F64EC000000040B01535C00C000000
310
13000000920C00003C00000006000000020000000000000000408F400000004042EA4BC0000000E096DB27C00000000000408F40000000605D6F4FC0000000E0A4A234C00C000000130000009A0C00003C00000006000000020000000000000000408F40000000E0FF3F4CC0000000609EDB22C00000000000408F40000000
310
801A6650C0000000A0F84A32C00C00000013000000A20C00003C00000006000000020000000000000000408F4000000060302A4CC0000000E0387225C00000000000408F4000000080074250C000000020C80733C00C00000013000000AA0C00003C00000006000000020000000000000000408F4000000060302A4CC00000
310
00E0387225C00000000000408F40000000A0BCD84FC0000000C0AF2834C0
100
AcDbSubDMesh
 71
     2
 72
     0
 91
        0
 92
      196
 10
-1000.000061035156
 20
0.0000090613320936
 30
-80.0
 10
-1000.000061035156
 20
-4.999992847442626
 30
-80.0
 10
-1000.000061035156
 20
-5.020790576934814
 30
-79.10482025146484
 10
-1000.000061035156
 20
-5.172653675079345
 30
-78.07889556884766
 10
-1000.000061035156
 20
-5.456665515899658
 30
-77.02528381347656
 10
-1000.000061035156
 20
-5.836548328399658
 30
-76.03582000732422
 10
-1000.000061035156
 20
-6.27763032913208
 30
-75.18425750732422
 10
-1000.000061035156
 20
-6.771626472473144
 30
-74.46427154541016
 10
-1000.000061035156
 20
-7.351611137390136
 30
-73.83070373535156
 10
-1000.000061035156
 20
-8.05996036529541
 30
-73.24710845947265
 10
-1000.000061035156
 20
-8.930069923400878
 30
-72.68917846679688
 10
-1000.000061035156
 20
-9.906060218811035
 30
-72.17887878417968
 10
-1000.000061035156
 20
-10.85046863555908
 30
-71.74429321289062
 10
-1000.000061035156
 20
-11.67486667633056
 30
-71.36103820800781
 10
-1000.000061035156
 20
-12.90839862823486
 30
-70.62297058105468
 10
-1000.000061035156
 20
-13.73598194122314
 30
-69.77787780761719
 10
-1000.000061035156
 20
-14.37117099761963
 30
-68.56186676025391
 10
-1000.000061035156
 20
-14.61972713470459
 30
-67.76641845703125
 10
-1000.000061035156
 20
-14.81449222564697
 30
-66.81475067138672
 10
-1000.000061035156
 20
-14.94326877593994
 30
-65.70806121826172
 10
-1000.000061035156
 20
-14.99999332427978
 30
-64.5
 10
-1000.000061035156
 20
-18.72999382019043
 30
-64.5
 10
-1000.000061035156
 20
-19.26895713806152
 30
-60.3066062927246
 10
-1000.000061035156
 20
-20.2474250793457
 30
-56.19384002685547
 10
-1000.000061035156
 20
-21.65452194213867
 30
-52.20720672607422
 10
-1000.000061035156
 20
-23.47470283508301
 30
-48.39104080200195
 10
-1000.000061035156
 20
-25.68733024597168
 30
-44.78861618041992
 10
-1000.000061035156
 20
-28.26773262023926
 30
-41.4399185180664
 10
-1000.000061035156
 20
-31.1873836517334
 30
-38.38203430175781
 10
-1000.000061035156
 20
-34.41349411010742
 30
-35.64941024780273
 10
-1000.000061035156
 20
-37.90972900390625
 30
-33.27273559570313
 10
-1000.000061035156
 20
-41.63736724853515
 30
-31.27827262878418
 10
-1000.000061035156
 20
-45.55502700805663
 30
-29.68827056884766
 10
-1000.000061035156
 20
-49.61828994750977
 30
-28.5207576751709
 10
-1000.000061035156
 20
-53.78196716308593
 30
-27.78862190246582
 10
-1000.000061035156
 20
-57.99999237060546
 30
-27.50000190734863
 10
-1000.000061035156
 20
-58.00291442871094
 30
-21.9848804473877
 10
-1000.000061035156
 20
-59.82316970825195
 30
-21.78710556030273
 10
-1000.000061035156
 20
-60.88425827026367
 30
-21.4865951538086
 10
-1000.000061035156
 20
-61.92292404174804
 30
-21.08472061157227
 10
-1000.000061035156
 20
-62.87003707885742
 30
-20.63532829284668
 10
-1000.000061035156
 20
-63.69325256347656
 30
-20.15893173217774
 10
-1000.000061035156
 20
-65.03170776367188
 30
-19.03039741516113
 10
-1000.000061035156
 20
-65.59536743164063
 30
-18.29285430908203
 10
-1000.000061035156
 20
-66.12821960449219
 30
-17.40667343139648
 10
-1000.000061035156
 20
-66.6632080078125
 30
-16.38958168029785
 10
-1000.000061035156
 20
-67.22765350341797
 30
-15.33421802520752
 10
-1000.000061035156
 20
-67.81555938720703
 30
-14.36917972564697
 10
-1000.000061035156
 20
-68.40167236328125
 30
-13.56800556182861
 10
-1000.000061035156
 20
-69.59121704101562
 30
-12.39656543731689
 10
-1000.000061035156
 20
-71.05497741699219
 30
-11.5377550125122
 10
-1000.000061035156
 20
-71.94749450683594
 30
-11.19478702545166
 10
-1000.000061035156
 20
-72.98350524902343
 30
-10.91247272491455
 10
-1000.000061035156
 20
-74.17776489257812
 30
-10.69334125518799
 10
-1000.000061035156
 20
-75.5
 30
-10.50000476837158
 10
-1000.000061035156
 20
-75.5
 30
-7.00000524520874
 10
-1000.000061035156
 20
-80.0
 30
-7.00000524520874
 10
-1000.000061035156
 20
-80.0
 30
-0.0000034969129956
 10
-1000.000061035156
 20
0.000008388342394
 30
-64.60382080078125
 10
-1000.000061035156
 20
-1.878871083259582
 30
-66.84297943115234
 10
-1000.000061035156
 20
-0.3929280936717987
 30
-69.79681396484375
 10
-1000.000061035156
 20
0.0000086143118097
 30
-69.77339935302734
 10
-1000.000061035156
 20
-2.214159965515136
 30
-67.45079803466797
 10
-1000.000061035156
 20
-2.294516563415527
 30
-68.14028930664062
 10
-1000.000061035156
 20
-2.107989311218261
 30
-68.80891418457031
 10
-1000.000061035156
 20
-1.682318687438964
 30
-69.35723876953125
 10
-1000.000061035156
 20
-1.080813407897949
 30
-69.7037124633789
 10
-1000.000061035156
 20
-69.79681396484375
 30
-0.3929435610771179
 10
-1000.000061035156
 20
-69.70370483398437
 30
-1.08082890510559
 10
-1000.000061035156
 20
-69.35723876953125
 30
-1.682334065437316
 10
-1000.000061035156
 20
-68.80891418457031
 30
-2.108004808425903
 10
-1000.000061035156
 20
-68.14028930664062
 30
-2.294531822204589
 10
-1000.000061035156
 20
-67.45079040527343
 30
-2.214175224304199
 10
-1000.000061035156
 20
-66.84297180175781
 30
-1.878886342048645
 10
-1000.000061035156
 20
-69.77339172363281
 30
-0.0000068645913416
 10
-1000.000061035156
 20
-64.60381317138672
 30
-0.000006638621926
 10
-1000.000061035156
 20
-55.03553009033203
 30
-12.96447277069092
 10
-1000.000061035156
 20
-50.12543487548828
 30
-17.87456130981445
 10
-1000.000061035156
 20
-56.49999618530273
 30
-0.0000062843923843
 10
-1000.000061035156
 20
-56.49999237060547
 30
-9.428938865661621
 10
-1000.000061035156
 20
-6.517762660980224
 30
-56.5
 10
-1000.000061035156
 20
0.0000080341123976
 30
-56.5
 10
-1000.000061035156
 20
-15.84571838378906
 30
-42.57920837402344
 10
-1000.000061035156
 20
-13.27317428588867
 30
-47.64265441894531
 10
-1000.000061035156
 20
-11.29757308959961
 30
-52.96745300292968
 10
-1000.000061035156
 20
-33.50083923339844
 30
-24.8651123046875
 10
-1000.000061035156
 20
-16.0026912689209
 30
-42.37545394897461
 10
-1000.000061035156
 20
-47.69336700439453
 30
-19.21574401855469
 10
-1000.000061035156
 20
-40.4871711730957
 30
-21.43511962890625
 10
-1000.000061035156
 20
-33.70166778564453
 30
-24.7232608795166
 10
-1000.000061035156
 20
-56.32959747314453
 30
-10.7230863571167
 10
-1000.000061035156
 20
-55.83014678955078
 30
-11.92888164520264
 10
-1000.000061035156
 20
-49.00439071655274
 30
-18.71740913391113
 10
-1000.000061035156
 20
-10.59847450256347
 30
-54.38924407958984
 10
-1000.000061035156
 20
-9.489517211914062
 30
-55.5210189819336
 10
-1000.000061035156
 20
-8.082120895385742
 30
-56.24897003173828
 10
-1000.000061035156
 20
-33.5947265625
 30
-24.79516983032227
 10
-1000.000061035156
 20
-15.91762924194336
 30
-42.47226333618164
 10
1000.000122070312
 20
-5.020792007446289
 30
-79.10482025146484
 10
1000.000122070312
 20
0.0000131912820507
 30
-80.0
 10
1000.000122070312
 20
-4.999994277954101
 30
-80.0
 10
1000.000122070312
 20
-11.6748685836792
 30
-71.36103820800781
 10
1000.000122070312
 20
-2.107985258102416
 30
-68.80891418457031
 10
1000.000122070312
 20
-10.85047245025634
 30
-71.74429321289062
 10
1000.000122070312
 20
-12.90840244293213
 30
-70.62297058105468
 10
1000.000122070312
 20
-2.294516324996948
 30
-68.14028930664062
 10
1000.000122070312
 20
0.0000087035950855
 30
-64.60382080078125
 10
1000.000122070312
 20
-1.878866910934448
 30
-66.84297943115234
 10
1000.000122070312
 20
-14.94327068328857
 30
-65.70806121826172
 10
1000.000122070312
 20
-14.99999523162841
 30
-64.5
 10
1000.000122070312
 20
-19.26895713806152
 30
-60.3066062927246
 10
1000.000122070312
 20
-9.489518165588378
 30
-55.5210189819336
 10
1000.000122070312
 20
-8.082121849060058
 30
-56.24897003173828
 10
1000.000122070312
 20
-18.72999382019043
 30
-64.5
 10
1000.000122070312
 20
-13.2731761932373
 30
-47.64265441894531
 10
1000.0
 20
-23.47470092773438
 30
-48.39104080200195
 10
1000.0
 20
-25.68733215332031
 30
-44.78861618041992
 10
1000.000122070312
 20
-15.84572029113769
 30
-42.57920837402344
 10
1000.0
 20
-40.4871711730957
 30
-21.43512153625488
 10
1000.0
 20
-45.55502700805663
 30
-29.68827247619629
 10
1000.0
 20
-49.61828994750977
 30
-28.5207576751709
 10
1000.0
 20
-47.69336318969727
 30
-19.21574592590332
 10
1000.0
 20
-49.00439071655274
 30
-18.71741104125976
 10
1000.0
 20
-53.7819709777832
 30
-27.78862190246582
 10
1000.0
 20
-57.99999618530273
 30
-27.50000190734863
 10
1000.0
 20
-50.12543487548828
 30
-17.87456321716308
 10
1000.0
 20
-58.0014533996582
 30
-21.99244117736816
 10
1000.0
 20
-55.03553009033203
 30
-12.96447658538818
 10
1000.0
 20
-69.7037124633789
 30
-1.080832719802856
 10
1000.0
 20
-75.5
 30
-7.000007152557373
 10
1000.0
 20
-80.0
 30
-7.00000524520874
 10
1000.0
 20
-69.79681396484375
 30
-0.3929473757743835
 10
1000.000122070312
 20
-14.8144941329956
 30
-66.81475067138672
 10
1000.000122070312
 20
-14.61973094940185
 30
-67.76641845703125
 10
1000.000122070312
 20
-2.214155912399291
 30
-67.45079803466797
 10
1000.000122070312
 20
-14.37117290496826
 30
-68.56186676025391
 10
1000.000122070312
 20
-13.73598384857178
 30
-69.77787780761719
 10
1000.000122070312
 20
-1.682318329811096
 30
-69.35723876953125
 10
1000.000122070312
 20
-9.906062126159667
 30
-72.17887878417968
 10
1000.000122070312
 20
-1.080809235572814
 30
-69.7037124633789
 10
1000.000122070312
 20
-8.059961318969726
 30
-73.24710845947265
 10
1000.000122070312
 20
-8.930071830749511
 30
-72.68917846679688
 10
1000.000122070312
 20
-0.3929239511489868
 30
-69.79681396484375
 10
1000.000122070312
 20
-6.771627902984619
 30
-74.46427154541016
 10
1000.000122070312
 20
-7.351612567901611
 30
-73.83070373535156
 10
1000.000122070312
 20
-6.277634143829345
 30
-75.18425750732422
 10
1000.000122070312
 20
0.0000127442617668
 30
-69.77339935302734
 10
1000.000122070312
 20
-5.836552143096923
 30
-76.03582000732422
 10
1000.000122070312
 20
-5.172657489776611
 30
-78.07889556884766
 10
1000.000122070312
 20
-5.456667423248291
 30
-77.02528381347656
 10
1000.000122070312
 20
-6.517764091491699
 30
-56.5
 10
1000.000122070312
 20
0.0000083493650891
 30
-56.5
 10
1000.000122070312
 20
-20.24742317199707
 30
-56.19384002685547
 10
1000.000122070312
 20
-10.59847545623779
 30
-54.38924407958984
 10
1000.000122070312
 20
-21.65452003479004
 30
-52.20720672607422
 10
1000.000122070312
 20
-11.29757404327392
 30
-52.96745300292968
 10
1000.000122070312
 20
-15.91763114929199
 30
-42.47226333618164
 10
1000.0
 20
-28.26773452758789
 30
-41.4399185180664
 10
1000.000122070312
 20
-16.00269317626953
 30
-42.37545394897461
 10
1000.0
 20
-31.18738555908203
 30
-38.38203430175781
 10
1000.0
 20
-33.49937820434571
 30
-24.8726749420166
 10
1000.0
 20
-34.41349411010742
 30
-35.64941024780273
 10
1000.0
 20
-33.59472274780273
 30
-24.7951717376709
 10
1000.0
 20
-37.90972900390625
 30
-33.27273559570313
 10
1000.0
 20
-33.70166397094727
 30
-24.72326278686523
 10
1000.0
 20
-41.63736724853515
 30
-31.27827453613281
 10
1000.0
 20
-80.0
 30
-0.0000034969091303
 10
1000.0
 20
-69.77339935302734
 30
-0.0000106792849692
 10
1000.0
 20
-69.35723876953125
 30
-1.682337880134582
 10
1000.0
 20
-75.5
 30
-10.50000476837158
 10
1000.0
 20
-68.80891418457031
 30
-2.108008623123168
 10
1000.0
 20
-74.17777252197265
 30
-10.69334125518799
 10
1000.0
 20
-68.14028930664062
 30
-2.294535636901855
 10
1000.0
 20
-72.98350524902343
 30
-10.91247272491455
 10
1000.0
 20
-67.45079040527343
 30
-2.214179039001464
 10
1000.0
 20
-71.94750213623047
 30
-11.19478702545166
 10
1000.0
 20
-66.84297180175781
 30
-1.87889015674591
 10
1000.0
 20
-71.05497741699219
 30
-11.5377550125122
 10
1000.0
 20
-64.60382080078125
 30
-0.0000104533155536
 10
1000.0
 20
-69.59121704101562
 30
-12.39656543731689
 10
1000.0
 20
-68.40167999267578
 30
-13.56800556182861
 10
1000.0
 20
-56.49999618530273
 30
-0.0000100990855572
 10
1000.0
 20
-67.81556701660156
 30
-14.36917972564697
 10
1000.0
 20
-67.2276611328125
 30
-15.33421802520752
 10
1000.0
 20
-59.82316970825195
 30
-21.78710556030273
 10
1000.0
 20
-56.49999618530273
 30
-9.428942680358886
 10
1000.0
 20
-66.12822723388672
 30
-17.40667533874512
 10
1000.0
 20
-66.6632080078125
 30
-16.38958358764648
 10
1000.0
 20
-55.83014678955078
 30
-11.9288854598999
 10
1000.0
 20
-60.88425827026367
 30
-21.4865951538086
 10
1000.0
 20
-61.92292404174804
 30
-21.08472061157227
 10
1000.0
 20
-62.87003707885742
 30
-20.63532829284668
 10
1000.0
 20
-56.3296012878418
 30
-10.72309017181396
 10
1000.0
 20
-65.03170776367188
 30
-19.03039741516113
 10
1000.0
 20
-65.59536743164063
 30
-18.29285621643066
 10
1000.0
 20
-63.69325637817382
 30
-20.15893173217774
 93
     1024
 90
        4
 90
        1
 90
        0
 90
       99
 90
      100
 90
        3
 90
        2
 90
        0
 90
        1
 90
        3
 90
       13
 90
       64
 90
       12
 90
        4
 90
       14
 90
       63
 90
       64
 90
       13
 90
        4
 90
       58
 90
       59
 90
       19
 90
       20
 90
        4
 90
       22
 90
       94
 90
       95
 90
       21
 90
        4
 90
       21
 90
       20
 90
      109
 90
      113
 90
        4
 90
      113
 90
      110
 90
       22
 90
       21
 90
        4
 90
       34
 90
      123
 90
      124
 90
       35
 90
        4
 90
       36
 90
       35
 90
      124
 90
      126
 90
        4
 90
       33
 90
      120
 90
      123
 90
       34
 90
        4
 90
       32
 90
      119
 90
      120
 90
       33
 90
        4
 90
       31
 90
      165
 90
      119
 90
       32
 90
        4
 90
       30
 90
      163
 90
      165
 90
       31
 90
        4
 90
       29
 90
      161
 90
      163
 90
       30
 90
        4
 90
       28
 90
      159
 90
      161
 90
       29
 90
        4
 90
       27
 90
      157
 90
      159
 90
       28
 90
        4
 90
       26
 90
      116
 90
      157
 90
       27
 90
        4
 90
       25
 90
      115
 90
      116
 90
       26
 90
        4
 90
       24
 90
      154
 90
      115
 90
       25
 90
        4
 90
       23
 90
      152
 90
      154
 90
       24
 90
        4
 90
       22
 90
      110
 90
      152
 90
       23
 90
        4
 90
       83
 90
       25
 90
       26
 90
       82
 90
        4
 90
      126
 90
      184
 90
       37
 90
       36
 90
        4
 90
      189
 90
       38
 90
       37
 90
      184
 90
        4
 90
      190
 90
       39
 90
       38
 90
      189
 90
        4
 90
       88
 90
       32
 90
       33
 90
       87
 90
        4
 90
      191
 90
       40
 90
       39
 90
      190
 90
        4
 90
      195
 90
       41
 90
       40
 90
      191
 90
        4
 90
      193
 90
       42
 90
       41
 90
      195
 90
        4
 90
      194
 90
       43
 90
       42
 90
      193
 90
        4
 90
       92
 90
       34
 90
       35
 90
       77
 90
        4
 90
      186
 90
       44
 90
       43
 90
      194
 90
        4
 90
       77
 90
       35
 90
       36
 90
       76
 90
        4
 90
      187
 90
       45
 90
       44
 90
      186
 90
        4
 90
      183
 90
       46
 90
       45
 90
      187
 90
        4
 90
      182
 90
       47
 90
       46
 90
      183
 90
        4
 90
      180
 90
       48
 90
       47
 90
      182
 90
        4
 90
      179
 90
       49
 90
       48
 90
      180
 90
        4
 90
      177
 90
       50
 90
       49
 90
      179
 90
        4
 90
      175
 90
       51
 90
       50
 90
      177
 90
        4
 90
      173
 90
       52
 90
       51
 90
      175
 90
        4
 90
      171
 90
       53
 90
       52
 90
      173
 90
        4
 90
       54
 90
       53
 90
      171
 90
      169
 90
        4
 90
       55
 90
       54
 90
      169
 90
      129
 90
        4
 90
       56
 90
       55
 90
      129
 90
      130
 90
        4
 90
       57
 90
       56
 90
      130
 90
      166
 90
        4
 90
       68
 90
       55
 90
       56
 90
       67
 90
        4
 90
       74
 90
       57
 90
      166
 90
      167
 90
        4
 90
       78
 90
       75
 90
      178
 90
      181
 90
        4
 90
      108
 90
      109
 90
       20
 90
       19
 90
        4
 90
      132
 90
      108
 90
       19
 90
       18
 90
        4
 90
      133
 90
      132
 90
       18
 90
       17
 90
        4
 90
      135
 90
      133
 90
       17
 90
       16
 90
        4
 90
      136
 90
      135
 90
       16
 90
       15
 90
        4
 90
      104
 90
      136
 90
       15
 90
       14
 90
        4
 90
      101
 90
      104
 90
       14
 90
       13
 90
        4
 90
      103
 90
      101
 90
       13
 90
       12
 90
        4
 90
      138
 90
      103
 90
       12
 90
       11
 90
        4
 90
      141
 90
      138
 90
       11
 90
       10
 90
        4
 90
      140
 90
      141
 90
       10
 90
        9
 90
        4
 90
      144
 90
      140
 90
        9
 90
        8
 90
        4
 90
      143
 90
      144
 90
        8
 90
        7
 90
        4
 90
      145
 90
      143
 90
        7
 90
        6
 90
        4
 90
      147
 90
      145
 90
        6
 90
        5
 90
        4
 90
      149
 90
      147
 90
        5
 90
        4
 90
        4
 90
      148
 90
      149
 90
        4
 90
        3
 90
        4
 90
       98
 90
      148
 90
        3
 90
        2
 90
        4
 90
      100
 90
       98
 90
        2
 90
        1
 90
        4
 90
       67
 90
       74
 90
      167
 90
      131
 90
        4
 90
       68
 90
       67
 90
      131
 90
      128
 90
        4
 90
       69
 90
       68
 90
      128
 90
      168
 90
        4
 90
       70
 90
       69
 90
      168
 90
      170
 90
        4
 90
       71
 90
       70
 90
      170
 90
      172
 90
        4
 90
       72
 90
       71
 90
      172
 90
      174
 90
        4
 90
       73
 90
       72
 90
      174
 90
      176
 90
        4
 90
       75
 90
       73
 90
      176
 90
      178
 90
        4
 90
       79
 90
       78
 90
      181
 90
      185
 90
        4
 90
       90
 90
       79
 90
      185
 90
      192
 90
        4
 90
       91
 90
       90
 90
      192
 90
      188
 90
        4
 90
       76
 90
       91
 90
      188
 90
      127
 90
        4
 90
       77
 90
       76
 90
      127
 90
      125
 90
        4
 90
       92
 90
       77
 90
      125
 90
      122
 90
        4
 90
       87
 90
       92
 90
      122
 90
      121
 90
        4
 90
       88
 90
       87
 90
      121
 90
      118
 90
        4
 90
       89
 90
       88
 90
      118
 90
      164
 90
        4
 90
       96
 90
       89
 90
      164
 90
      162
 90
        4
 90
       85
 90
       96
 90
      162
 90
      160
 90
        4
 90
       86
 90
       85
 90
      160
 90
      158
 90
        4
 90
       97
 90
       86
 90
      158
 90
      156
 90
        4
 90
       82
 90
       97
 90
      156
 90
      117
 90
        4
 90
       83
 90
       82
 90
      117
 90
      114
 90
        4
 90
       84
 90
       83
 90
      114
 90
      155
 90
        4
 90
       93
 90
       84
 90
      155
 90
      153
 90
        4
 90
       94
 90
       93
 90
      153
 90
      111
 90
        4
 90
       95
 90
       94
 90
      111
 90
      112
 90
        4
 90
       80
 90
       95
 90
      112
 90
      150
 90
        4
 90
       81
 90
       80
 90
      150
 90
      151
 90
        4
 90
       58
 90
       81
 90
      151
 90
      106
 90
        4
 90
       59
 90
       58
 90
      106
 90
      107
 90
        4
 90
       62
 90
       59
 90
      107
 90
      134
 90
        4
 90
       63
 90
       62
 90
      134
 90
      105
 90
        4
 90
       64
 90
       63
 90
      105
 90
      102
 90
        4
 90
       65
 90
       64
 90
      102
 90
      137
 90
        4
 90
       66
 90
       65
 90
      137
 90
      139
 90
        4
 90
       60
 90
       66
 90
      139
 90
      142
 90
        4
 90
       61
 90
       60
 90
      142
 90
      146
 90
        4
 90
        0
 90
       61
 90
      146
 90
       99
 90
        3
 90
       18
 90
       19
 90
       59
 90
        4
 90
       17
 90
       18
 90
       59
 90
       62
 90
        3
 90
       16
 90
       17
 90
       62
 90
        3
 90
       14
 90
       15
 90
       63
 90
        4
 90
       15
 90
       16
 90
       62
 90
       63
 90
        4
 90
       64
 90
       65
 90
       11
 90
       12
 90
        4
 90
       65
 90
       66
 90
        9
 90
       10
 90
        3
 90
       65
 90
       10
 90
       11
 90
        4
 90
       66
 90
       60
 90
        7
 90
        8
 90
        3
 90
       66
 90
        8
 90
        9
 90
        3
 90
       60
 90
        6
 90
        7
 90
        4
 90
       60
 90
       61
 90
        5
 90
        6
 90
        3
 90
        0
 90
        2
 90
        3
 90
        3
 90
        0
 90
        3
 90
        4
 90
        4
 90
       61
 90
        0
 90
        4
 90
        5
 90
        4
 90
       80
 90
       81
 90
       58
 90
       20
 90
        4
 90
       95
 90
       80
 90
       20
 90
       21
 90
        4
 90
       22
 90
       23
 90
       93
 90
       94
 90
        4
 90
       23
 90
       24
 90
       84
 90
       93
 90
        4
 90
       24
 90
       25
 90
       83
 90
       84
 90
        4
 90
       97
 90
       82
 90
       26
 90
       27
 90
        4
 90
       86
 90
       97
 90
       27
 90
       28
 90
        4
 90
       85
 90
       86
 90
       28
 90
       29
 90
        4
 90
       96
 90
       85
 90
       29
 90
       30
 90
        4
 90
       89
 90
       96
 90
       30
 90
       31
 90
        4
 90
       88
 90
       89
 90
       31
 90
       32
 90
        4
 90
       92
 90
       87
 90
       33
 90
       34
 90
        4
 90
       56
 90
       57
 90
       74
 90
       67
 90
        4
 90
       68
 90
       69
 90
       54
 90
       55
 90
        4
 90
       69
 90
       70
 90
       53
 90
       54
 90
        4
 90
       70
 90
       71
 90
       52
 90
       53
 90
        4
 90
       71
 90
       72
 90
       51
 90
       52
 90
        4
 90
       72
 90
       73
 90
       50
 90
       51
 90
        4
 90
       73
 90
       75
 90
       49
 90
       50
 90
        3
 90
       75
 90
       48
 90
       49
 90
        4
 90
       75
 90
       78
 90
       47
 90
       48
 90
        3
 90
       78
 90
       46
 90
       47
 90
        3
 90
       76
 90
       36
 90
       37
 90
        3
 90
       79
 90
       44
 90
       45
 90
        4
 90
       91
 90
       76
 90
       37
 90
       38
 90
        3
 90
       91
 90
       38
 90
       39
 90
        3
 90
       91
 90
       39
 90
       40
 90
        4
 90
       78
 90
       79
 90
       45
 90
       46
 90
        4
 90
       79
 90
       90
 90
       42
 90
       43
 90
        3
 90
       79
 90
       43
 90
       44
 90
        3
 90
       90
 90
       41
 90
       42
 90
        4
 90
       90
 90
       91
 90
       40
 90
       41
 90
        3
 90
       98
 90
      100
 90
       99
 90
        3
 90
      101
 90
      103
 90
      102
 90
        4
 90
      104
 90
      101
 90
      102
 90
      105
 90
        4
 90
      106
 90
      109
 90
      108
 90
      107
 90
        4
 90
      110
 90
      113
 90
      112
 90
      111
 90
        4
 90
      114
 90
      117
 90
      116
 90
      115
 90
        4
 90
      118
 90
      121
 90
      120
 90
      119
 90
        4
 90
      122
 90
      125
 90
      124
 90
      123
 90
        4
 90
      125
 90
      127
 90
      126
 90
      124
 90
        4
 90
      128
 90
      131
 90
      130
 90
      129
 90
        3
 90
      132
 90
      107
 90
      108
 90
        4
 90
      133
 90
      134
 90
      107
 90
      132
 90
        3
 90
      135
 90
      134
 90
      133
 90
        3
 90
      104
 90
      105
 90
      136
 90
        4
 90
      136
 90
      105
 90
      134
 90
      135
 90
        4
 90
      102
 90
      103
 90
      138
 90
      137
 90
        4
 90
      137
 90
      141
 90
      140
 90
      139
 90
        3
 90
      137
 90
      138
 90
      141
 90
        4
 90
      139
 90
      144
 90
      143
 90
      142
 90
        3
 90
      139
 90
      140
 90
      144
 90
        3
 90
      142
 90
      143
 90
      145
 90
        4
 90
      142
 90
      145
 90
      147
 90
      146
 90
        3
 90
       99
 90
      148
 90
       98
 90
        3
 90
       99
 90
      149
 90
      148
 90
        4
 90
      146
 90
      147
 90
      149
 90
       99
 90
        4
 90
      150
 90
      109
 90
      106
 90
      151
 90
        4
 90
      112
 90
      113
 90
      109
 90
      150
 90
        4
 90
      110
 90
      111
 90
      153
 90
      152
 90
        4
 90
      152
 90
      153
 90
      155
 90
      154
 90
        4
 90
      154
 90
      155
 90
      114
 90
      115
 90
        4
 90
      156
 90
      157
 90
      116
 90
      117
 90
        4
 90
      158
 90
      159
 90
      157
 90
      156
 90
        4
 90
      160
 90
      161
 90
      159
 90
      158
 90
        4
 90
      162
 90
      163
 90
      161
 90
      160
 90
        4
 90
      164
 90
      165
 90
      163
 90
      162
 90
        4
 90
      118
 90
      119
 90
      165
 90
      164
 90
        4
 90
      122
 90
      123
 90
      120
 90
      121
 90
        4
 90
      130
 90
      131
 90
      167
 90
      166
 90
        4
 90
      128
 90
      129
 90
      169
 90
      168
 90
        4
 90
      168
 90
      169
 90
      171
 90
      170
 90
        4
 90
      170
 90
      171
 90
      173
 90
      172
 90
        4
 90
      172
 90
      173
 90
      175
 90
      174
 90
        4
 90
      174
 90
      175
 90
      177
 90
      176
 90
        4
 90
      176
 90
      177
 90
      179
 90
      178
 90
        3
 90
      178
 90
      179
 90
      180
 90
        4
 90
      178
 90
      180
 90
      182
 90
      181
 90
        3
 90
      181
 90
      182
 90
      183
 90
        3
 90
      127
 90
      184
 90
      126
 90
        3
 90
      185
 90
      187
 90
      186
 90
        4
 90
      188
 90
      189
 90
      184
 90
      127
 90
        3
 90
      188
 90
      190
 90
      189
 90
        3
 90
      188
 90
      191
 90
      190
 90
        4
 90
      181
 90
      183
 90
      187
 90
      185
 90
        4
 90
      185
 90
      194
 90
      193
 90
      192
 90
        3
 90
      185
 90
      186
 90
      194
 90
        3
 90
      192
 90
      193
 90
      195
 90
        4
 90
      192
 90
      195
 90
      191
 90
      188
 94
      406
 90
        0
 90
        1
 90
        0
 90
       99
 90
       99
 90
      100
 90
        1
 90
      100
 90
        0
 90
        2
 90
        1
 90
        2
 90
       13
 90
       64
 90
       12
 90
       64
 90
       12
 90
       13
 90
       14
 90
       63
 90
       63
 90
       64
 90
       13
 90
       14
 90
       58
 90
       59
 90
       19
 90
       59
 90
       19
 90
       20
 90
       20
 90
       58
 90
       22
 90
       94
 90
       94
 90
       95
 90
       21
 90
       95
 90
       21
 90
       22
 90
       20
 90
       21
 90
       20
 90
      109
 90
      109
 90
      113
 90
       21
 90
      113
 90
      110
 90
      113
 90
       22
 90
      110
 90
       34
 90
      123
 90
      123
 90
      124
 90
       35
 90
      124
 90
       34
 90
       35
 90
       35
 90
       36
 90
      124
 90
      126
 90
       36
 90
      126
 90
       33
 90
      120
 90
      120
 90
      123
 90
       33
 90
       34
 90
       32
 90
      119
 90
      119
 90
      120
 90
       32
 90
       33
 90
       31
 90
      165
 90
      119
 90
      165
 90
       31
 90
       32
 90
       30
 90
      163
 90
      163
 90
      165
 90
       30
 90
       31
 90
       29
 90
      161
 90
      161
 90
      163
 90
       29
 90
       30
 90
       28
 90
      159
 90
      159
 90
      161
 90
       28
 90
       29
 90
       27
 90
      157
 90
      157
 90
      159
 90
       27
 90
       28
 90
       26
 90
      116
 90
      116
 90
      157
 90
       26
 90
       27
 90
       25
 90
      115
 90
      115
 90
      116
 90
       25
 90
       26
 90
       24
 90
      154
 90
      115
 90
      154
 90
       24
 90
       25
 90
       23
 90
      152
 90
      152
 90
      154
 90
       23
 90
       24
 90
      110
 90
      152
 90
       22
 90
       23
 90
       25
 90
       83
 90
       26
 90
       82
 90
       82
 90
       83
 90
      126
 90
      184
 90
       37
 90
      184
 90
       36
 90
       37
 90
       38
 90
      189
 90
       37
 90
       38
 90
      184
 90
      189
 90
       39
 90
      190
 90
       38
 90
       39
 90
      189
 90
      190
 90
       32
 90
       88
 90
       33
 90
       87
 90
       87
 90
       88
 90
       40
 90
      191
 90
       39
 90
       40
 90
      190
 90
      191
 90
       41
 90
      195
 90
       40
 90
       41
 90
      191
 90
      195
 90
       42
 90
      193
 90
       41
 90
       42
 90
      193
 90
      195
 90
       43
 90
      194
 90
       42
 90
       43
 90
      193
 90
      194
 90
       34
 90
       92
 90
       35
 90
       77
 90
       77
 90
       92
 90
       44
 90
      186
 90
       43
 90
       44
 90
      186
 90
      194
 90
       36
 90
       76
 90
       76
 90
       77
 90
       45
 90
      187
 90
       44
 90
       45
 90
      186
 90
      187
 90
       46
 90
      183
 90
       45
 90
       46
 90
      183
 90
      187
 90
       47
 90
      182
 90
       46
 90
       47
 90
      182
 90
      183
 90
       48
 90
      180
 90
       47
 90
       48
 90
      180
 90
      182
 90
       49
 90
      179
 90
       48
 90
       49
 90
      179
 90
      180
 90
       50
 90
      177
 90
       49
 90
       50
 90
      177
 90
      179
 90
       51
 90
      175
 90
       50
 90
       51
 90
      175
 90
      177
 90
       52
 90
      173
 90
       51
 90
       52
 90
      173
 90
      175
 90
       53
 90
      171
 90
       52
 90
       53
 90
      171
 90
      173
 90
       53
 90
       54
 90
      169
 90
      171
 90
       54
 90
      169
 90
       54
 90
       55
 90
      129
 90
      169
 90
       55
 90
      129
 90
       55
 90
       56
 90
      129
 90
      130
 90
       56
 90
      130
 90
       56
 90
       57
 90
      130
 90
      166
 90
       57
 90
      166
 90
       55
 90
       68
 90
       56
 90
       67
 90
       67
 90
       68
 90
       57
 90
       74
 90
      166
 90
      167
 90
       74
 90
      167
 90
       75
 90
       78
 90
       75
 90
      178
 90
      178
 90
      181
 90
       78
 90
      181
 90
      108
 90
      109
 90
       19
 90
      108
 90
      108
 90
      132
 90
       18
 90
       19
 90
       18
 90
      132
 90
      132
 90
      133
 90
       17
 90
       18
 90
       17
 90
      133
 90
      133
 90
      135
 90
       16
 90
       17
 90
       16
 90
      135
 90
      135
 90
      136
 90
       15
 90
       16
 90
       15
 90
      136
 90
      104
 90
      136
 90
       14
 90
       15
 90
       14
 90
      104
 90
      101
 90
      104
 90
       13
 90
      101
 90
      101
 90
      103
 90
       12
 90
      103
 90
      103
 90
      138
 90
       11
 90
       12
 90
       11
 90
      138
 90
      138
 90
      141
 90
       10
 90
       11
 90
       10
 90
      141
 90
      140
 90
      141
 90
        9
 90
       10
 90
        9
 90
      140
 90
      140
 90
      144
 90
        8
 90
        9
 90
        8
 90
      144
 90
      143
 90
      144
 90
        7
 90
        8
 90
        7
 90
      143
 90
      143
 90
      145
 90
        6
 90
        7
 90
        6
 90
      145
 90
      145
 90
      147
 90
        5
 90
        6
 90
        5
 90
      147
 90
      147
 90
      149
 90
        4
 90
        5
 90
        4
 90
      149
 90
      148
 90
      149
 90
        3
 90
        4
 90
        3
 90
      148
 90
       98
 90
      148
 90
        2
 90
        3
 90
        2
 90
       98
 90
       98
 90
      100
 90
       67
 90
       74
 90
      131
 90
      167
 90
       67
 90
      131
 90
      128
 90
      131
 90
       68
 90
      128
 90
       68
 90
       69
 90
      128
 90
      168
 90
       69
 90
      168
 90
       69
 90
       70
 90
      168
 90
      170
 90
       70
 90
      170
 90
       70
 90
       71
 90
      170
 90
      172
 90
       71
 90
      172
 90
       71
 90
       72
 90
      172
 90
      174
 90
       72
 90
      174
 90
       72
 90
       73
 90
      174
 90
      176
 90
       73
 90
      176
 90
       73
 90
       75
 90
      176
 90
      178
 90
       78
 90
       79
 90
      181
 90
      185
 90
       79
 90
      185
 90
       79
 90
       90
 90
      185
 90
      192
 90
       90
 90
      192
 90
       90
 90
       91
 90
      188
 90
      192
 90
       91
 90
      188
 90
       76
 90
       91
 90
      127
 90
      188
 90
       76
 90
      127
 90
      125
 90
      127
 90
       77
 90
      125
 90
      122
 90
      125
 90
       92
 90
      122
 90
       87
 90
       92
 90
      121
 90
      122
 90
       87
 90
      121
 90
      118
 90
      121
 90
       88
 90
      118
 90
       88
 90
       89
 90
      118
 90
      164
 90
       89
 90
      164
 90
       89
 90
       96
 90
      162
 90
      164
 90
       96
 90
      162
 90
       85
 90
       96
 90
      160
 90
      162
 90
       85
 90
      160
 90
       85
 90
       86
 90
      158
 90
      160
 90
       86
 90
      158
 90
       86
 90
       97
 90
      156
 90
      158
 90
       97
 90
      156
 90
       82
 90
       97
 90
      117
 90
      156
 90
       82
 90
      117
 90
      114
 90
      117
 90
       83
 90
      114
 90
       83
 90
       84
 90
      114
 90
      155
 90
       84
 90
      155
 90
       84
 90
       93
 90
      153
 90
      155
 90
       93
 90
      153
 90
       93
 90
       94
 90
      111
 90
      153
 90
       94
 90
      111
 90
      111
 90
      112
 90
       95
 90
      112
 90
       80
 90
       95
 90
      112
 90
      150
 90
       80
 90
      150
 90
       80
 90
       81
 90
      150
 90
      151
 90
       81
 90
      151
 90
       58
 90
       81
 90
      106
 90
      151
 90
       58
 90
      106
 90
      106
 90
      107
 90
       59
 90
      107
 90
       59
 90
       62
 90
      107
 90
      134
 90
       62
 90
      134
 90
       62
 90
       63
 90
      105
 90
      134
 90
       63
 90
      105
 90
      102
 90
      105
 90
       64
 90
      102
 90
       64
 90
       65
 90
      102
 90
      137
 90
       65
 90
      137
 90
       65
 90
       66
 90
      137
 90
      139
 90
       66
 90
      139
 90
       60
 90
       66
 90
      139
 90
      142
 90
       60
 90
      142
 90
       60
 90
       61
 90
      142
 90
      146
 90
       61
 90
      146
 90
        0
 90
       61
 90
       99
 90
      146
 90
       18
 90
       59
 90
       17
 90
       62
 90
       16
 90
       62
 90
       15
 90
       63
 90
       11
 90
       65
 90
        9
 90
       66
 90
       10
 90
       65
 90
        7
 90
       60
 90
        8
 90
       66
 90
        6
 90
       60
 90
        5
 90
       61
 90
        0
 90
        3
 90
        0
 90
        4
 90
       20
 90
       80
 90
       23
 90
       93
 90
       24
 90
       84
 90
       27
 90
       97
 90
       28
 90
       86
 90
       29
 90
       85
 90
       30
 90
       96
 90
       31
 90
       89
 90
       54
 90
       69
 90
       53
 90
       70
 90
       52
 90
       71
 90
       51
 90
       72
 90
       50
 90
       73
 90
       49
 90
       75
 90
       48
 90
       75
 90
       47
 90
       78
 90
       46
 90
       78
 90
       37
 90
       76
 90
       44
 90
       79
 90
       45
 90
       79
 90
       38
 90
       91
 90
       39
 90
       91
 90
       40
 90
       91
 90
       42
 90
       90
 90
       43
 90
       79
 90
       41
 90
       90
 90
       98
 90
       99
 90
      102
 90
      103
 90
      101
 90
      102
 90
      104
 90
      105
 90
      106
 90
      109
 90
      107
 90
      108
 90
      112
 90
      113
 90
      110
 90
      111
 90
      116
 90
      117
 90
      114
 90
      115
 90
      120
 90
      121
 90
      118
 90
      119
 90
      124
 90
      125
 90
      122
 90
      123
 90
      126
 90
      127
 90
      130
 90
      131
 90
      128
 90
      129
 90
      107
 90
      132
 90
      133
 90
      134
 90
      134
 90
      135
 90
      105
 90
      136
 90
      137
 90
      138
 90
      137
 90
      141
 90
      139
 90
      140
 90
      139
 90
      144
 90
      142
 90
      143
 90
      142
 90
      145
 90
      146
 90
      147
 90
       99
 90
      148
 90
       99
 90
      149
 90
      109
 90
      150
 90
      152
 90
      153
 90
      154
 90
      155
 90
      156
 90
      157
 90
      158
 90
      159
 90
      160
 90
      161
 90
      162
 90
      163
 90
      164
 90
      165
 90
      168
 90
      169
 90
      170
 90
      171
 90
      172
 90
      173
 90
      174
 90
      175
 90
      176
 90
      177
 90
      178
 90
      179
 90
      178
 90
      180
 90
      181
 90
      182
 90
      181
 90
      183
 90
      127
 90
      184
 90
      185
 90
      187
 90
      185
 90
      186
 90
      188
 90
      189
 90
      188
 90
      190
 90
      188
 90
      191
 90
      185
 90
      194
 90
      192
 90
      193
 90
      192
 90
      195
 95
      406
140
0.0
140
0.0
140
0.0
140
0.0
140
0.0
140
0.0
140
0.0
140
0.0
140
0.0
140
0.0
140
0.0
140
0.0
140
0.0
140
0.0
140
0.0
140
0.0
140
0.0
140
0.0
140
0.0
140
0.0
140
0.0
140
0.0
140
0.0
140
0.0
140
0.0
140
0.0
140
0.0
140
0.0
140
0.0
140
0.0
140
0.0
140
0.0
140
0.0
140
0.0
140
0.0
140
0.0
140
0.0
140
0.0
140
0.0
140
0.0
140
0.0
140
0.0
140
0.0
140
0.0
140
0.0
140
0.0
140
0.0
140
0.0
140
0.0
140
0.0
140
0.0
140
0.0
140
0.0
140
0.0
140
0.0
140
0.0
140
0.0
140
0.0
140
0.0
140
0.0
140
0.0
140
0.0
140
0.0
140
0.0
140
0.0
140
0.0
140
0.0
140
0.0
140
0.0
140
0.0
140
0.0
140
0.0
140
0.0
140
0.0
140
0.0
140
0.0
140
0.0
140
0.0
140
0.0
140
0.0
140
0.0
140
0.0
140
0.0
140
0.0
140
0.0
140
0.0
140
0.0
140
0.0
140
0.0
140
0.0
140
0.0
140
0.0
140
0.0
140
0.0
140
0.0
140
0.0
140
0.0
140
0.0
140
0.0
140
0.0
140
0.0
140
0.0
140
0.0
140
0.0
140
0.0
140
0.0
140
0.0
140
0.0
140
0.0
140
0.0
140
0.0
140
0.0
140
0.0
140
0.0
140
0.0
140
0.0
140
0.0
140
0.0
140
0.0
140
0.0
140
0.0
140
0.0
140
0.0
140
0.0
140
0.0
140
0.0
140
0.0
140
0.0
140
0.0
140
0.0
140
0.0
140
0.0
140
0.0
140
0.0
140
0.0
140
0.0
140
0.0
140
0.0
140
0.0
140
0.0
140
0.0
140
0.0
140
0.0
140
0.0
140
0.0
140
0.0
140
0.0
140
0.0
140
0.0
140
0.0
140
0.0
140
0.0
140
0.0
140
0.0
140
0.0
140
0.0
140
0.0
140
0.0
140
0.0
140
0.0
140
0.0
140
0.0
140
0.0
140
0.0
140
0.0
140
0.0
140
0.0
140
0.0
140
0.0
140
0.0
140
0.0
140
0.0
140
0.0
140
0.0
140
0.0
140
0.0
140
0.0
140
0.0
140
0.0
140
0.0
140
0.0
140
0.0
140
0.0
140
0.0
140
0.0
140
0.0
140
0.0
140
0.0
140
0.0
140
0.0
140
0.0
140
0.0
140
0.0
140
0.0
140
0.0
140
0.0
140
0.0
140
0.0
140
0.0
140
0.0
140
0.0
140
0.0
140
0.0
140
0.0
140
0.0
140
0.0
140
0.0
140
0.0
140
0.0
140
0.0
140
0.0
140
0.0
140
0.0
140
0.0
140
0.0
140
0.0
140
0.0
140
0.0
140
0.0
140
0.0
140
0.0
140
0.0
140
0.0
140
0.0
140
0.0
140
0.0
140
0.0
140
0.0
140
0.0
140
0.0
140
0.0
140
0.0
140
0.0
140
0.0
140
0.0
140
0.0
140
0.0
140
0.0
140
0.0
140
0.0
140
0.0
140
0.0
140
0.0
140
0.0
140
0.0
140
0.0
140
0.0
140
0.0
140
0.0
140
0.0
140
0.0
140
0.0
140
0.0
140
0.0
140
0.0
140
0.0
140
0.0
140
0.0
140
0.0
140
0.0
140
0.0
140
0.0
140
0.0
140
0.0
140
0.0
140
0.0
140
0.0
140
0.0
140
0.0
140
0.0
140
0.0
140
0.0
140
0.0
140
0.0
140
0.0
140
0.0
140
0.0
140
0.0
140
0.0
140
0.0
140
0.0
140
0.0
140
0.0
140
0.0
140
0.0
140
0.0
140
0.0
140
0.0
140
0.0
140
0.0
140
0.0
140
0.0
140
0.0
140
0.0
140
0.0
140
0.0
140
0.0
140
0.0
140
0.0
140
0.0
140
0.0
140
0.0
140
0.0
140
0.0
140
0.0
140
0.0
140
0.0
140
0.0
140
0.0
140
0.0
140
0.0
140
0.0
140
0.0
140
0.0
140
0.0
140
0.0
140
0.0
140
0.0
140
0.0
140
0.0
140
0.0
140
0.0
140
0.0
140
0.0
140
0.0
140
0.0
140
0.0
140
0.0
140
0.0
140
0.0
140
0.0
140
0.0
140
0.0
140
0.0
140
0.0
140
0.0
140
0.0
140
0.0
140
0.0
140
0.0
140
0.0
140
0.0
140
0.0
140
0.0
140
0.0
140
0.0
140
0.0
140
0.0
140
0.0
140
0.0
140
0.0
140
0.0
140
0.0
140
0.0
140
0.0
140
0.0
140
0.0
140
0.0
140
0.0
140
0.0
140
0.0
140
0.0
140
0.0
140
0.0
140
0.0
140
0.0
140
0.0
140
0.0
140
0.0
140
0.0
140
0.0
140
0.0
140
0.0
140
0.0
140
0.0
140
0.0
140
0.0
140
0.0
140
0.0
140
0.0
140
0.0
140
0.0
140
0.0
140
0.0
140
0.0
140
0.0
140
0.0
140
0.0
140
0.0
140
0.0
140
0.0
140
0.0
140
0.0
140
0.0
140
0.0
140
0.0
140
0.0
140
0.0
140
0.0
140
0.0
140
0.0
140
0.0
140
0.0
140
0.0
140
0.0
140
0.0
 90
        0
  0
POLYLINE
  5
FA
330
1F
100
AcDbEntity
  8
OracDecor_cornice_mouldings
 62
   201
420
 13998821
100
AcDb2dPolyline
 66
     1
 10
0.0
 20
0.0
 30
0.0000082652823039
 70
     1
210
-0.9999999999999769
220
0.0000001788139343
230
-0.0000001192092896
  0
VERTEX
  5
FB
330
FA
100
AcDbEntity
  8
OracDecor_cornice_mouldings
 62
   201
420
 13998821
100
AcDbVertex
100
AcDb2dVertex
 10
0.0000090613311841
 20
-80.0
 30
0.0000082652823039
  0
VERTEX
  5
FC
330
FA
100
AcDbEntity
  8
OracDecor_cornice_mouldings
 62
   201
420
 13998821
100
AcDbVertex
100
AcDb2dVertex
 10
-4.999992847442626
 20
-80.0
 30
0.0000082652823039
  0
VERTEX
  5
FD
330
FA
100
AcDbEntity
  8
OracDecor_cornice_mouldings
 62
   201
420
 13998821
100
AcDbVertex
100
AcDb2dVertex
 10
-5.020790576934814
 20
-79.10482025146484
 30
0.0000082652823039
  0
VERTEX
  5
FE
330
FA
100
AcDbEntity
  8
OracDecor_cornice_mouldings
 62
   201
420
 13998821
100
AcDbVertex
100
AcDb2dVertex
 10
-5.172653675079345
 20
-78.07889556884766
 30
0.0000082652823039
  0
VERTEX
  5
FF
330
FA
100
AcDbEntity
  8
OracDecor_cornice_mouldings
 62
   201
420
 13998821
100
AcDbVertex
100
AcDb2dVertex
 10
-5.456665515899658
 20
-77.02528381347656
 30
0.0000082652823039
  0
VERTEX
  5
100
330
FA
100
AcDbEntity
  8
OracDecor_cornice_mouldings
 62
   201
420
 13998821
100
AcDbVertex
100
AcDb2dVertex
 10
-5.836548328399658
 20
-76.03582000732422
 30
0.0000082652823039
  0
VERTEX
  5
101
330
FA
100
AcDbEntity
  8
OracDecor_cornice_mouldings
 62
   201
420
 13998821
100
AcDbVertex
100
AcDb2dVertex
 10
-6.27763032913208
 20
-75.18425750732422
 30
0.0000082652823039
  0
VERTEX
  5
102
330
FA
100
AcDbEntity
  8
OracDecor_cornice_mouldings
 62
   201
420
 13998821
100
AcDbVertex
100
AcDb2dVertex
 10
-6.771626472473144
 20
-74.46427154541016
 30
0.0000082652823039
  0
VERTEX
  5
103
330
FA
100
AcDbEntity
  8
OracDecor_cornice_mouldings
 62
   201
420
 13998821
100
AcDbVertex
100
AcDb2dVertex
 10
-7.351611137390136
 20
-73.83070373535156
 30
0.0000082652823039
  0
VERTEX
  5
104
330
FA
100
AcDbEntity
  8
OracDecor_cornice_mouldings
 62
   201
420
 13998821
100
AcDbVertex
100
AcDb2dVertex
 10
-8.05996036529541
 20
-73.24710845947265
 30
0.0000082652823039
  0
VERTEX
  5
105
330
FA
100
AcDbEntity
  8
OracDecor_cornice_mouldings
 62
   201
420
 13998821
100
AcDbVertex
100
AcDb2dVertex
 10
-8.930069923400878
 20
-72.68917846679688
 30
0.0000082652823039
  0
VERTEX
  5
106
330
FA
100
AcDbEntity
  8
OracDecor_cornice_mouldings
 62
   201
420
 13998821
100
AcDbVertex
100
AcDb2dVertex
 10
-9.906060218811035
 20
-72.17887878417968
 30
0.0000082652823039
  0
VERTEX
  5
107
330
FA
100
AcDbEntity
  8
OracDecor_cornice_mouldings
 62
   201
420
 13998821
100
AcDbVertex
100
AcDb2dVertex
 10
-10.85046863555908
 20
-71.74429321289062
 30
0.0000082652823039
  0
VERTEX
  5
108
330
FA
100
AcDbEntity
  8
OracDecor_cornice_mouldings
 62
   201
420
 13998821
100
AcDbVertex
100
AcDb2dVertex
 10
-11.67486667633056
 20
-71.36103820800781
 30
0.0000082652823039
  0
VERTEX
  5
109
330
FA
100
AcDbEntity
  8
OracDecor_cornice_mouldings
 62
   201
420
 13998821
100
AcDbVertex
100
AcDb2dVertex
 10
-12.90839862823486
 20
-70.62297058105468
 30
0.0000082652823039
  0
VERTEX
  5
10A
330
FA
100
AcDbEntity
  8
OracDecor_cornice_mouldings
 62
   201
420
 13998821
100
AcDbVertex
100
AcDb2dVertex
 10
-13.73598194122314
 20
-69.77787780761719
 30
0.0000082652823039
  0
VERTEX
  5
10B
330
FA
100
AcDbEntity
  8
OracDecor_cornice_mouldings
 62
   201
420
 13998821
100
AcDbVertex
100
AcDb2dVertex
 10
-14.37117099761963
 20
-68.56186676025391
 30
0.0000082652823039
  0
VERTEX
  5
10C
330
FA
100
AcDbEntity
  8
OracDecor_cornice_mouldings
 62
   201
420
 13998821
100
AcDbVertex
100
AcDb2dVertex
 10
-14.61972713470459
 20
-67.76641845703125
 30
0.0000082652823039
  0
VERTEX
  5
10D
330
FA
100
AcDbEntity
  8
OracDecor_cornice_mouldings
 62
   201
420
 13998821
100
AcDbVertex
100
AcDb2dVertex
 10
-14.81449222564697
 20
-66.81475067138672
 30
0.0000082652823039
  0
VERTEX
  5
10E
330
FA
100
AcDbEntity
  8
OracDecor_cornice_mouldings
 62
   201
420
 13998821
100
AcDbVertex
100
AcDb2dVertex
 10
-14.94326877593994
 20
-65.70806121826172
 30
0.0000082652823039
  0
VERTEX
  5
10F
330
FA
100
AcDbEntity
  8
OracDecor_cornice_mouldings
 62
   201
420
 13998821
100
AcDbVertex
100
AcDb2dVertex
 10
-14.99999332427978
 20
-64.5
 30
0.0000082652823039
  0
VERTEX
  5
110
330
FA
100
AcDbEntity
  8
OracDecor_cornice_mouldings
 62
   201
420
 13998821
100
AcDbVertex
100
AcDb2dVertex
 10
-18.72999382019043
 20
-64.5
 30
0.0000082652823039
  0
VERTEX
  5
111
330
FA
100
AcDbEntity
  8
OracDecor_cornice_mouldings
 62
   201
420
 13998821
100
AcDbVertex
100
AcDb2dVertex
 10
-19.26895713806152
 20
-60.3066062927246
 30
0.0000082652823039
  0
VERTEX
  5
112
330
FA
100
AcDbEntity
  8
OracDecor_cornice_mouldings
 62
   201
420
 13998821
100
AcDbVertex
100
AcDb2dVertex
 10
-20.2474250793457
 20
-56.19384002685547
 30
0.0000082652823039
  0
VERTEX
  5
113
330
FA
100
AcDbEntity
  8
OracDecor_cornice_mouldings
 62
   201
420
 13998821
100
AcDbVertex
100
AcDb2dVertex
 10
-21.65452194213867
 20
-52.20720672607422
 30
0.0000082652823039
  0
VERTEX
  5
114
330
FA
100
AcDbEntity
  8
OracDecor_cornice_mouldings
 62
   201
420
 13998821
100
AcDbVertex
100
AcDb2dVertex
 10
-23.47470283508301
 20
-48.39104080200195
 30
0.0000082652823039
  0
VERTEX
  5
115
330
FA
100
AcDbEntity
  8
OracDecor_cornice_mouldings
 62
   201
420
 13998821
100
AcDbVertex
100
AcDb2dVertex
 10
-25.68733024597168
 20
-44.78861618041992
 30
0.0000082652823039
  0
VERTEX
  5
116
330
FA
100
AcDbEntity
  8
OracDecor_cornice_mouldings
 62
   201
420
 13998821
100
AcDbVertex
100
AcDb2dVertex
 10
-28.26773262023926
 20
-41.4399185180664
 30
0.0000082652823039
  0
VERTEX
  5
117
330
FA
100
AcDbEntity
  8
OracDecor_cornice_mouldings
 62
   201
420
 13998821
100
AcDbVertex
100
AcDb2dVertex
 10
-31.1873836517334
 20
-38.38203430175781
 30
0.0000082652823039
  0
VERTEX
  5
118
330
FA
100
AcDbEntity
  8
OracDecor_cornice_mouldings
 62
   201
420
 13998821
100
AcDbVertex
100
AcDb2dVertex
 10
-34.41349411010742
 20
-35.6494140625
 30
0.0000082652823039
  0
VERTEX
  5
119
330
FA
100
AcDbEntity
  8
OracDecor_cornice_mouldings
 62
   201
420
 13998821
100
AcDbVertex
100
AcDb2dVertex
 10
-37.90972900390625
 20
-33.27273941040039
 30
0.0000082652823039
  0
VERTEX
  5
11A
330
FA
100
AcDbEntity
  8
OracDecor_cornice_mouldings
 62
   201
420
 13998821
100
AcDbVertex
100
AcDb2dVertex
 10
-41.63736724853515
 20
-31.27827453613281
 30
0.0000082652823039
  0
VERTEX
  5
11B
330
FA
100
AcDbEntity
  8
OracDecor_cornice_mouldings
 62
   201
420
 13998821
100
AcDbVertex
100
AcDb2dVertex
 10
-45.55502700805663
 20
-29.68827247619629
 30
0.0000082652823039
  0
VERTEX
  5
11C
330
FA
100
AcDbEntity
  8
OracDecor_cornice_mouldings
 62
   201
420
 13998821
100
AcDbVertex
100
AcDb2dVertex
 10
-49.61828994750977
 20
-28.52076148986816
 30
0.0000082652823039
  0
VERTEX
  5
11D
330
FA
100
AcDbEntity
  8
OracDecor_cornice_mouldings
 62
   201
420
 13998821
100
AcDbVertex
100
AcDb2dVertex
 10
-53.78196716308593
 20
-27.78862571716309
 30
0.0000082652823039
  0
VERTEX
  5
11E
330
FA
100
AcDbEntity
  8
OracDecor_cornice_mouldings
 62
   201
420
 13998821
100
AcDbVertex
100
AcDb2dVertex
 10
-57.99999237060546
 20
-27.5000057220459
 30
0.0000082652823039
  0
VERTEX
  5
11F
330
FA
100
AcDbEntity
  8
OracDecor_cornice_mouldings
 62
   201
420
 13998821
100
AcDbVertex
100
AcDb2dVertex
 10
-58.00291442871094
 20
-21.98488426208496
 30
0.0000082652823039
  0
VERTEX
  5
120
330
FA
100
AcDbEntity
  8
OracDecor_cornice_mouldings
 62
   201
420
 13998821
100
AcDbVertex
100
AcDb2dVertex
 10
-59.82316970825195
 20
-21.787109375
 30
0.0000082652823039
  0
VERTEX
  5
121
330
FA
100
AcDbEntity
  8
OracDecor_cornice_mouldings
 62
   201
420
 13998821
100
AcDbVertex
100
AcDb2dVertex
 10
-60.88425827026367
 20
-21.48659896850586
 30
0.0000082652823039
  0
VERTEX
  5
122
330
FA
100
AcDbEntity
  8
OracDecor_cornice_mouldings
 62
   201
420
 13998821
100
AcDbVertex
100
AcDb2dVertex
 10
-61.92292404174804
 20
-21.08472442626953
 30
0.0000082652823039
  0
VERTEX
  5
123
330
FA
100
AcDbEntity
  8
OracDecor_cornice_mouldings
 62
   201
420
 13998821
100
AcDbVertex
100
AcDb2dVertex
 10
-62.87003707885742
 20
-20.63533210754394
 30
0.0000082652823039
  0
VERTEX
  5
124
330
FA
100
AcDbEntity
  8
OracDecor_cornice_mouldings
 62
   201
420
 13998821
100
AcDbVertex
100
AcDb2dVertex
 10
-63.69325256347656
 20
-20.158935546875
 30
0.0000082652823039
  0
VERTEX
  5
125
330
FA
100
AcDbEntity
  8
OracDecor_cornice_mouldings
 62
   201
420
 13998821
100
AcDbVertex
100
AcDb2dVertex
 10
-65.03170776367188
 20
-19.0304012298584
 30
0.0000082652823039
  0
VERTEX
  5
126
330
FA
100
AcDbEntity
  8
OracDecor_cornice_mouldings
 62
   201
420
 13998821
100
AcDbVertex
100
AcDb2dVertex
 10
-65.59536743164063
 20
-18.2928581237793
 30
0.0000082652823039
  0
VERTEX
  5
127
330
FA
100
AcDbEntity
  8
OracDecor_cornice_mouldings
 62
   201
420
 13998821
100
AcDbVertex
100
AcDb2dVertex
 10
-66.12821960449219
 20
-17.40667724609375
 30
0.0000082652823039
  0
VERTEX
  5
128
330
FA
100
AcDbEntity
  8
OracDecor_cornice_mouldings
 62
   201
420
 13998821
100
AcDbVertex
100
AcDb2dVertex
 10
-66.6632080078125
 20
-16.38958549499512
 30
0.0000082652823039
  0
VERTEX
  5
129
330
FA
100
AcDbEntity
  8
OracDecor_cornice_mouldings
 62
   201
420
 13998821
100
AcDbVertex
100
AcDb2dVertex
 10
-67.22765350341797
 20
-15.33422183990478
 30
0.0000082652823039
  0
VERTEX
  5
12A
330
FA
100
AcDbEntity
  8
OracDecor_cornice_mouldings
 62
   201
420
 13998821
100
AcDbVertex
100
AcDb2dVertex
 10
-67.81555938720703
 20
-14.36918354034424
 30
0.0000082652823039
  0
VERTEX
  5
12B
330
FA
100
AcDbEntity
  8
OracDecor_cornice_mouldings
 62
   201
420
 13998821
100
AcDbVertex
100
AcDb2dVertex
 10
-68.40167236328125
 20
-13.56800937652588
 30
0.0000082652823039
  0
VERTEX
  5
12C
330
FA
100
AcDbEntity
  8
OracDecor_cornice_mouldings
 62
   201
420
 13998821
100
AcDbVertex
100
AcDb2dVertex
 10
-69.59121704101562
 20
-12.39656925201416
 30
0.0000082652823039
  0
VERTEX
  5
12D
330
FA
100
AcDbEntity
  8
OracDecor_cornice_mouldings
 62
   201
420
 13998821
100
AcDbVertex
100
AcDb2dVertex
 10
-71.05497741699219
 20
-11.53775882720947
 30
0.0000082652823039
  0
VERTEX
  5
12E
330
FA
100
AcDbEntity
  8
OracDecor_cornice_mouldings
 62
   201
420
 13998821
100
AcDbVertex
100
AcDb2dVertex
 10
-71.94749450683594
 20
-11.19479084014892
 30
0.0000082652823039
  0
VERTEX
  5
12F
330
FA
100
AcDbEntity
  8
OracDecor_cornice_mouldings
 62
   201
420
 13998821
100
AcDbVertex
100
AcDb2dVertex
 10
-72.98350524902343
 20
-10.91247749328613
 30
0.0000082652823039
  0
VERTEX
  5
130
330
FA
100
AcDbEntity
  8
OracDecor_cornice_mouldings
 62
   201
420
 13998821
100
AcDbVertex
100
AcDb2dVertex
 10
-74.17776489257812
 20
-10.69334602355957
 30
0.0000082652823039
  0
VERTEX
  5
131
330
FA
100
AcDbEntity
  8
OracDecor_cornice_mouldings
 62
   201
420
 13998821
100
AcDbVertex
100
AcDb2dVertex
 10
-75.5
 20
-10.50000953674316
 30
0.0000082652823039
  0
VERTEX
  5
132
330
FA
100
AcDbEntity
  8
OracDecor_cornice_mouldings
 62
   201
420
 13998821
100
AcDbVertex
100
AcDb2dVertex
 10
-75.5
 20
-7.000009536743164
 30
0.0000082652823039
  0
VERTEX
  5
133
330
FA
100
AcDbEntity
  8
OracDecor_cornice_mouldings
 62
   201
420
 13998821
100
AcDbVertex
100
AcDb2dVertex
 10
-80.0
 20
-7.000010013580322
 30
0.0000082652823039
  0
VERTEX
  5
134
330
FA
100
AcDbEntity
  8
OracDecor_cornice_mouldings
 62
   201
420
 13998821
100
AcDbVertex
100
AcDb2dVertex
 10
-80.0
 20
-0.0000082652841229
 30
0.0000082652823039
  0
VERTEX
  5
135
330
FA
100
AcDbEntity
  8
OracDecor_cornice_mouldings
 62
   201
420
 13998821
100
AcDbVertex
100
AcDb2dVertex
 10
-69.77339172363281
 20
-0.00001102340957
 30
0.0000082652823039
  0
VERTEX
  5
136
330
FA
100
AcDbEntity
  8
OracDecor_cornice_mouldings
 62
   201
420
 13998821
100
AcDbVertex
100
AcDb2dVertex
 10
-69.79681396484375
 20
-0.3929477334022522
 30
0.0000082652823039
  0
VERTEX
  5
137
330
FA
100
AcDbEntity
  8
OracDecor_cornice_mouldings
 62
   201
420
 13998821
100
AcDbVertex
100
AcDb2dVertex
 10
-69.70370483398437
 20
-1.080833077430725
 30
0.0000082652823039
  0
VERTEX
  5
138
330
FA
100
AcDbEntity
  8
OracDecor_cornice_mouldings
 62
   201
420
 13998821
100
AcDbVertex
100
AcDb2dVertex
 10
-69.35723876953125
 20
-1.682338237762451
 30
0.0000082652823039
  0
VERTEX
  5
139
330
FA
100
AcDbEntity
  8
OracDecor_cornice_mouldings
 62
   201
420
 13998821
100
AcDbVertex
100
AcDb2dVertex
 10
-68.80891418457031
 20
-2.108008861541748
 30
0.0000082652823039
  0
VERTEX
  5
13A
330
FA
100
AcDbEntity
  8
OracDecor_cornice_mouldings
 62
   201
420
 13998821
100
AcDbVertex
100
AcDb2dVertex
 10
-68.14028930664062
 20
-2.294535875320434
 30
0.0000082652823039
  0
VERTEX
  5
13B
330
FA
100
AcDbEntity
  8
OracDecor_cornice_mouldings
 62
   201
420
 13998821
100
AcDbVertex
100
AcDb2dVertex
 10
-67.45079040527343
 20
-2.214179277420043
 30
0.0000082652823039
  0
VERTEX
  5
13C
330
FA
100
AcDbEntity
  8
OracDecor_cornice_mouldings
 62
   201
420
 13998821
100
AcDbVertex
100
AcDb2dVertex
 10
-66.84297180175781
 20
-1.8788902759552
 30
0.0000082652823039
  0
VERTEX
  5
13D
330
FA
100
AcDbEntity
  8
OracDecor_cornice_mouldings
 62
   201
420
 13998821
100
AcDbVertex
100
AcDb2dVertex
 10
-64.60381317138672
 20
-0.0000104893097159
 30
0.0000082652823039
  0
VERTEX
  5
13E
330
FA
100
AcDbEntity
  8
OracDecor_cornice_mouldings
 62
   201
420
 13998821
100
AcDbVertex
100
AcDb2dVertex
 10
-56.49999618530273
 20
-0.0000096520543593
 30
0.0000082652823039
  0
VERTEX
  5
13F
330
FA
100
AcDbEntity
  8
OracDecor_cornice_mouldings
 62
   201
420
 13998821
100
AcDbVertex
100
AcDb2dVertex
 10
-56.49999237060547
 20
-9.428942680358886
 30
0.0000082652823039
  0
VERTEX
  5
140
330
FA
100
AcDbEntity
  8
OracDecor_cornice_mouldings
 62
   201
420
 13998821
100
AcDbVertex
100
AcDb2dVertex
 10
-56.32959747314453
 20
-10.72309017181396
 30
0.0000082652823039
  0
VERTEX
  5
141
330
FA
100
AcDbEntity
  8
OracDecor_cornice_mouldings
 62
   201
420
 13998821
100
AcDbVertex
100
AcDb2dVertex
 10
-55.83014678955078
 20
-11.92888450622558
 30
0.0000082652823039
  0
VERTEX
  5
142
330
FA
100
AcDbEntity
  8
OracDecor_cornice_mouldings
 62
   201
420
 13998821
100
AcDbVertex
100
AcDb2dVertex
 10
-55.03553009033203
 20
-12.96447563171386
 30
0.0000082652823039
  0
VERTEX
  5
143
330
FA
100
AcDbEntity
  8
OracDecor_cornice_mouldings
 62
   201
420
 13998821
100
AcDbVertex
100
AcDb2dVertex
 10
-50.12543487548828
 20
-17.87456512451172
 30
0.0000082652823039
  0
VERTEX
  5
144
330
FA
100
AcDbEntity
  8
OracDecor_cornice_mouldings
 62
   201
420
 13998821
100
AcDbVertex
100
AcDb2dVertex
 10
-49.00439071655274
 20
-18.7174129486084
 30
0.0000082652823039
  0
VERTEX
  5
145
330
FA
100
AcDbEntity
  8
OracDecor_cornice_mouldings
 62
   201
420
 13998821
100
AcDbVertex
100
AcDb2dVertex
 10
-47.69336700439453
 20
-19.21574592590332
 30
0.0000082652823039
  0
VERTEX
  5
146
330
FA
100
AcDbEntity
  8
OracDecor_cornice_mouldings
 62
   201
420
 13998821
100
AcDbVertex
100
AcDb2dVertex
 10
-40.4871711730957
 20
-21.43512153625488
 30
0.0000082652823039
  0
VERTEX
  5
147
330
FA
100
AcDbEntity
  8
OracDecor_cornice_mouldings
 62
   201
420
 13998821
100
AcDbVertex
100
AcDb2dVertex
 10
-33.70166778564453
 20
-24.72326278686523
 30
0.0000082652823039
  0
VERTEX
  5
148
330
FA
100
AcDbEntity
  8
OracDecor_cornice_mouldings
 62
   201
420
 13998821
100
AcDbVertex
100
AcDb2dVertex
 10
-33.5947265625
 20
-24.7951717376709
 30
0.0000082652823039
  0
VERTEX
  5
149
330
FA
100
AcDbEntity
  8
OracDecor_cornice_mouldings
 62
   201
420
 13998821
100
AcDbVertex
100
AcDb2dVertex
 10
-33.50083923339844
 20
-24.86511421203613
 30
0.0000082652823039
  0
VERTEX
  5
14A
330
FA
100
AcDbEntity
  8
OracDecor_cornice_mouldings
 62
   201
420
 13998821
100
AcDbVertex
100
AcDb2dVertex
 10
-16.0026912689209
 20
-42.37545394897461
 30
0.0000082652823039
  0
VERTEX
  5
14B
330
FA
100
AcDbEntity
  8
OracDecor_cornice_mouldings
 62
   201
420
 13998821
100
AcDbVertex
100
AcDb2dVertex
 10
-15.91762924194336
 20
-42.47226333618164
 30
0.0000082652823039
  0
VERTEX
  5
14C
330
FA
100
AcDbEntity
  8
OracDecor_cornice_mouldings
 62
   201
420
 13998821
100
AcDbVertex
100
AcDb2dVertex
 10
-15.84571838378906
 20
-42.57920837402344
 30
0.0000082652823039
  0
VERTEX
  5
14D
330
FA
100
AcDbEntity
  8
OracDecor_cornice_mouldings
 62
   201
420
 13998821
100
AcDbVertex
100
AcDb2dVertex
 10
-13.27317428588867
 20
-47.64265441894531
 30
0.0000082652823039
  0
VERTEX
  5
14E
330
FA
100
AcDbEntity
  8
OracDecor_cornice_mouldings
 62
   201
420
 13998821
100
AcDbVertex
100
AcDb2dVertex
 10
-11.29757308959961
 20
-52.96745300292968
 30
0.0000082652823039
  0
VERTEX
  5
14F
330
FA
100
AcDbEntity
  8
OracDecor_cornice_mouldings
 62
   201
420
 13998821
100
AcDbVertex
100
AcDb2dVertex
 10
-10.59847450256347
 20
-54.38924407958984
 30
0.0000082652823039
  0
VERTEX
  5
150
330
FA
100
AcDbEntity
  8
OracDecor_cornice_mouldings
 62
   201
420
 13998821
100
AcDbVertex
100
AcDb2dVertex
 10
-9.489517211914062
 20
-55.5210189819336
 30
0.0000082652823039
  0
VERTEX
  5
151
330
FA
100
AcDbEntity
  8
OracDecor_cornice_mouldings
 62
   201
420
 13998821
100
AcDbVertex
100
AcDb2dVertex
 10
-8.082120895385742
 20
-56.24897003173828
 30
0.0000082652823039
  0
VERTEX
  5
152
330
FA
100
AcDbEntity
  8
OracDecor_cornice_mouldings
 62
   201
420
 13998821
100
AcDbVertex
100
AcDb2dVertex
 10
-6.517762660980224
 20
-56.5
 30
0.0000082652823039
  0
VERTEX
  5
153
330
FA
100
AcDbEntity
  8
OracDecor_cornice_mouldings
 62
   201
420
 13998821
100
AcDbVertex
100
AcDb2dVertex
 10
0.0000080341114881
 20
-56.5
 30
0.0000082652823039
  0
VERTEX
  5
154
330
FA
100
AcDbEntity
  8
OracDecor_cornice_mouldings
 62
   201
420
 13998821
100
AcDbVertex
100
AcDb2dVertex
 10
0.0000083883414845
 20
-64.60382080078125
 30
0.0000082652823039
  0
VERTEX
  5
155
330
FA
100
AcDbEntity
  8
OracDecor_cornice_mouldings
 62
   201
420
 13998821
100
AcDbVertex
100
AcDb2dVertex
 10
-1.878871083259582
 20
-66.84297943115234
 30
0.0000082652823039
  0
VERTEX
  5
156
330
FA
100
AcDbEntity
  8
OracDecor_cornice_mouldings
 62
   201
420
 13998821
100
AcDbVertex
100
AcDb2dVertex
 10
-2.214159965515136
 20
-67.45079803466797
 30
0.0000082652823039
  0
VERTEX
  5
157
330
FA
100
AcDbEntity
  8
OracDecor_cornice_mouldings
 62
   201
420
 13998821
100
AcDbVertex
100
AcDb2dVertex
 10
-2.294516563415527
 20
-68.14028930664062
 30
0.0000082652823039
  0
VERTEX
  5
158
330
FA
100
AcDbEntity
  8
OracDecor_cornice_mouldings
 62
   201
420
 13998821
100
AcDbVertex
100
AcDb2dVertex
 10
-2.107989311218261
 20
-68.80891418457031
 30
0.0000082652823039
  0
VERTEX
  5
159
330
FA
100
AcDbEntity
  8
OracDecor_cornice_mouldings
 62
   201
420
 13998821
100
AcDbVertex
100
AcDb2dVertex
 10
-1.682318687438964
 20
-69.35723876953125
 30
0.0000082652823039
  0
VERTEX
  5
15A
330
FA
100
AcDbEntity
  8
OracDecor_cornice_mouldings
 62
   201
420
 13998821
100
AcDbVertex
100
AcDb2dVertex
 10
-1.080813407897949
 20
-69.7037124633789
 30
0.0000082652823039
  0
VERTEX
  5
15B
330
FA
100
AcDbEntity
  8
OracDecor_cornice_mouldings
 62
   201
420
 13998821
100
AcDbVertex
100
AcDb2dVertex
 10
-0.3929280936717987
 20
-69.79681396484375
 30
0.0000082652823039
  0
VERTEX
  5
15C
330
FA
100
AcDbEntity
  8
OracDecor_cornice_mouldings
 62
   201
420
 13998821
100
AcDbVertex
100
AcDb2dVertex
 10
0.0000086143109002
 20
-69.77339935302734
 30
0.0000082652823039
  0
SEQEND
  5
15D
330
FA
100
AcDbEntity
  8
OracDecor_cornice_mouldings
 62
   201
420
 13998821
  0
ENDSEC
  0
SECTION
  2
OBJECTS
  0
DICTIONARY
  5
C
330
0
100
AcDbDictionary
281
     1
  3
ACAD_COLOR
350
DC
  3
ACAD_DETAILVIEWSTYLE
350
F5
  3
ACAD_GROUP
350
D
  3
ACAD_LAYOUT
350
1A
  3
ACAD_MATERIAL
350
AA
  3
ACAD_MLEADERSTYLE
350
F1
  3
ACAD_MLINESTYLE
350
17
  3
ACAD_PLOTSETTINGS
350
19
  3
ACAD_PLOTSTYLENAME
350
E
  3
ACAD_SCALELIST
350
DF
  3
ACAD_SECTIONVIEWSTYLE
350
F3
  3
ACAD_TABLESTYLE
350
DD
  3
ACAD_VISUALSTYLE
350
C3
  3
ACDB_RECOMPOSE_DATA
350
16A
  3
AcDbVariableDictionary
350
15E
  0
DICTIONARY
  5
DC
102
{ACAD_REACTORS
330
C
102
}
330
C
100
AcDbDictionary
281
     1
  0
DICTIONARY
  5
F5
102
{ACAD_REACTORS
330
C
102
}
330
C
100
AcDbDictionary
281
     1
  3
Imperial24
350
F6
  0
DICTIONARY
  5
D
102
{ACAD_REACTORS
330
C
102
}
330
C
100
AcDbDictionary
281
     1
  0
DICTIONARY
  5
1A
102
{ACAD_REACTORS
330
C
102
}
330
C
100
AcDbDictionary
281
     1
  3
Layout1
350
1E
  3
Layout2
350
26
  3
Model
350
22
  0
DICTIONARY
  5
AA
102
{ACAD_REACTORS
330
C
102
}
330
C
100
AcDbDictionary
281
     1
  3
ByBlock
350
B3
  3
ByLayer
350
AB
  3
Global
350
BB
  0
DICTIONARY
  5
F1
102
{ACAD_REACTORS
330
C
102
}
330
C
100
AcDbDictionary
281
     1
  3
Standard
350
F2
  0
DICTIONARY
  5
17
102
{ACAD_REACTORS
330
C
102
}
330
C
100
AcDbDictionary
281
     1
  3
Standard
350
18
  0
DICTIONARY
  5
19
102
{ACAD_REACTORS
330
C
102
}
330
C
100
AcDbDictionary
281
     1
  0
ACDBDICTIONARYWDFLT
  5
E
102
{ACAD_REACTORS
330
C
102
}
330
C
100
AcDbDictionary
281
     1
  3
ByLayer
350
2D
  3
Normal
350
F
100
AcDbDictionaryWithDefault
340
F
  0
DICTIONARY
  5
DF
102
{ACAD_REACTORS
330
C
102
}
330
C
100
AcDbDictionary
281
     1
  3
A0
350
E0
  3
A1
350
E1
  3
A2
350
E2
  3
A3
350
E3
  3
A4
350
E4
  3
A5
350
E5
  3
A6
350
E6
  3
A7
350
E7
  3
A8
350
E8
  3
A9
350
E9
  3
B0
350
EA
  3
B1
350
EB
  3
B2
350
EC
  3
B3
350
ED
  3
B4
350
EE
  3
B5
350
EF
  3
B6
350
F0
  0
DICTIONARY
  5
F3
102
{ACAD_REACTORS
330
C
102
}
330
C
100
AcDbDictionary
281
     1
  3
Imperial24
350
F4
  0
DICTIONARY
  5
DD
102
{ACAD_REACTORS
330
C
102
}
330
C
100
AcDbDictionary
281
     1
  3
Standard
350
DE
  0
DICTIONARY
  5
C3
102
{ACAD_REACTORS
330
C
102
}
330
C
100
AcDbDictionary
281
     1
  3
2dWireframe
350
C9
  3
Basic
350
C8
  3
Brighten
350
CF
  3
ColorChange
350
D3
  3
Conceptual
350
CC
  3
Dim
350
CE
  3
EdgeColorOff
350
DB
  3
Facepattern
350
D2
  3
Flat
350
C4
  3
FlatWithEdges
350
C5
  3
Gouraud
350
C6
  3
GouraudWithEdges
350
C7
  3
Hidden
350
CB
  3
JitterOff
350
D9
  3
Linepattern
350
D1
  3
OverhangOff
350
DA
  3
Realistic
350
CD
  3
Shaded
350
D8
  3
Shaded with edges
350
D7
  3
Shades of Gray
350
D4
  3
Sketchy
350
D5
  3
Thicken
350
D0
  3
Wireframe
350
CA
  3
X-Ray
350
D6
  0
XRECORD
  5
16A
102
{ACAD_REACTORS
330
C
102
}
330
C
100
AcDbXrecord
280
     1
 90
        1
330
DE
  0
DICTIONARY
  5
15E
102
{ACAD_REACTORS
330
C
102
}
330
C
100
AcDbDictionary
281
     1
  3
CANNOSCALE
350
164
  3
CMLEADERSTYLE
350
160
  3
CTABLESTYLE
350
15F
  3
CVIEWDETAILSTYLE
350
161
  3
CVIEWSECTIONSTYLE
350
162
  3
LAYEREVAL
350
166
  3
LAYERNOTIFY
350
167
  3
LIGHTINGUNITS
350
165
  3
MSLTSCALE
350
163
  0
ACDBDETAILVIEWSTYLE
  5
F6
102
{ACAD_XDICTIONARY
360
19F
102
}
102
{ACAD_REACTORS
330
F5
102
}
330
F5
100
AcDbModelDocViewStyle
 70
     0
  3
Imperial24
290
     0
100
AcDbDetailViewStyle
 70
     0
 71
     0
 90
        3
 71
     1
340
11
 62
   256
 40
0.24
340
0
 62
   256
 40
0.24
300

 40
0.36
280
     3
 71
     2
340
16
 90
       25
 62
   256
 71
     3
340
11
 62
   256
 40
0.24
 90
        1
 40
0.75
 90
        1
300
%<\AcVar ViewType \f "%tc1">% %<\AcVar ViewDetailId>%\PSCALE %<\AcVar ViewScale \f "%sn">%
 71
     4
340
16
 90
       25
 62
   256
340
16
 90
       25
 62
   256
280
     0
  0
LAYOUT
  5
1E
102
{ACAD_REACTORS
330
1A
102
}
330
1A
100
AcDbPlotSettings
  1

  2
\\KTXNTBDC\CASF2PN1
  4

  6

 40
0.0
 41
0.0
 42
0.0
 43
0.0
 44
0.0
 45
0.0
 46
0.0
 47
0.0
 48
0.0
 49
0.0
140
0.0
141
0.0
142
1.0
143
1.0
 70
   688
 72
     0
 73
     0
 74
     5
  7

 75
    16
147
1.0
 76
     0
 77
     2
 78
   300
148
0.0
149
0.0
100
AcDbLayout
  1
Layout1
 70
     1
 71
     1
 10
0.0
 20
0.0
 11
12.0
 21
9.0
 12
0.0
 22
0.0
 32
0.0
 14
1.000000000000000E+20
 24
1.000000000000000E+20
 34
1.000000000000000E+20
 15
-1.000000000000000E+20
 25
-1.000000000000000E+20
 35
-1.000000000000000E+20
146
0.0
 13
0.0
 23
0.0
 33
0.0
 16
1.0
 26
0.0
 36
0.0
 17
0.0
 27
1.0
 37
0.0
 76
     0
330
1B
  0
LAYOUT
  5
26
102
{ACAD_REACTORS
330
1A
102
}
330
1A
100
AcDbPlotSettings
  1

  2
\\KTXNTBDC\CASF2PN1
  4

  6

 40
0.0
 41
0.0
 42
0.0
 43
0.0
 44
0.0
 45
0.0
 46
0.0
 47
0.0
 48
0.0
 49
0.0
140
0.0
141
0.0
142
1.0
143
1.0
 70
   688
 72
     0
 73
     0
 74
     5
  7

 75
    16
147
1.0
 76
     0
 77
     2
 78
   300
148
0.0
149
0.0
100
AcDbLayout
  1
Layout2
 70
     1
 71
     2
 10
0.0
 20
0.0
 11
12.0
 21
9.0
 12
0.0
 22
0.0
 32
0.0
 14
0.0
 24
0.0
 34
0.0
 15
0.0
 25
0.0
 35
0.0
146
0.0
 13
0.0
 23
0.0
 33
0.0
 16
1.0
 26
0.0
 36
0.0
 17
0.0
 27
1.0
 37
0.0
 76
     0
330
23
  0
LAYOUT
  5
22
102
{ACAD_REACTORS
330
1A
102
}
330
1A
100
AcDbPlotSettings
  1

  2
\\KTXNTBDC\CASF2PN1
  4

  6

 40
0.0
 41
0.0
 42
0.0
 43
0.0
 44
0.0
 45
0.0
 46
0.0
 47
0.0
 48
0.0
 49
0.0
140
0.0
141
0.0
142
1.0
143
1.0
 70
  1712
 72
     0
 73
     0
 74
     0
  7

 75
     0
147
1.0
 76
     0
 77
     2
 78
   300
148
0.0
149
0.0
100
AcDbLayout
  1
Model
 70
     1
 71
     0
 10
0.0
 20
0.0
 11
12.0
 21
9.0
 12
0.0
 22
0.0
 32
0.0
 14
0.0
 24
0.0
 34
0.0
 15
0.0
 25
0.0
 35
0.0
146
0.0
 13
0.0
 23
0.0
 33
0.0
 16
1.0
 26
0.0
 36
0.0
 17
0.0
 27
1.0
 37
0.0
 76
     0
330
1F
  0
MATERIAL
  5
B3
102
{ACAD_XDICTIONARY
360
B4
102
}
102
{ACAD_REACTORS
330
AA
102
}
330
AA
100
AcDbMaterial
  1
ByBlock
 72
     0
 43
0.0208333333333333
 43
0.0
 43
0.0
 43
0.0
 43
0.0
 43
0.0208333333333333
 43
0.0
 43
0.0
 43
0.0
 43
0.0
 43
1.0
 43
0.0
 43
0.0
 43
0.0
 43
0.0
 43
1.0
 77
     0
 47
0.0208333333333333
 47
0.0
 47
0.0
 47
0.0
 47
0.0
 47
0.0208333333333333
 47
0.0
 47
0.0
 47
0.0
 47
0.0
 47
1.0
 47
0.0
 47
0.0
 47
0.0
 47
0.0
 47
1.0
171
     0
 49
0.0208333333333333
 49
0.0
 49
0.0
 49
0.0
 49
0.0
 49
0.0208333333333333
 49
0.0
 49
0.0
 49
0.0
 49
0.0
 49
1.0
 49
0.0
 49
0.0
 49
0.0
 49
0.0
 49
1.0
175
     0
142
0.0208333333333333
142
0.0
142
0.0
142
0.0
142
0.0
142
0.0208333333333333
142
0.0
142
0.0
142
0.0
142
0.0
142
1.0
142
0.0
142
0.0
142
0.0
142
0.0
142
1.0
179
     0
144
0.0208333333333333
144
0.0
144
0.0
144
0.0
144
0.0
144
0.0208333333333333
144
0.0
144
0.0
144
0.0
144
0.0
144
1.0
144
0.0
144
0.0
144
0.0
144
0.0
144
1.0
147
0.0208333333333333
147
0.0
147
0.0
147
0.0
147
0.0
147
0.0208333333333333
147
0.0
147
0.0
147
0.0
147
0.0
147
1.0
147
0.0
147
0.0
147
0.0
147
0.0
147
1.0
  0
MATERIAL
  5
AB
102
{ACAD_XDICTIONARY
360
AC
102
}
102
{ACAD_REACTORS
330
AA
102
}
330
AA
100
AcDbMaterial
  1
ByLayer
 72
     0
 43
0.0208333333333333
 43
0.0
 43
0.0
 43
0.0
 43
0.0
 43
0.0208333333333333
 43
0.0
 43
0.0
 43
0.0
 43
0.0
 43
1.0
 43
0.0
 43
0.0
 43
0.0
 43
0.0
 43
1.0
 77
     0
 47
0.0208333333333333
 47
0.0
 47
0.0
 47
0.0
 47
0.0
 47
0.0208333333333333
 47
0.0
 47
0.0
 47
0.0
 47
0.0
 47
1.0
 47
0.0
 47
0.0
 47
0.0
 47
0.0
 47
1.0
171
     0
 49
0.0208333333333333
 49
0.0
 49
0.0
 49
0.0
 49
0.0
 49
0.0208333333333333
 49
0.0
 49
0.0
 49
0.0
 49
0.0
 49
1.0
 49
0.0
 49
0.0
 49
0.0
 49
0.0
 49
1.0
175
     0
142
0.0208333333333333
142
0.0
142
0.0
142
0.0
142
0.0
142
0.0208333333333333
142
0.0
142
0.0
142
0.0
142
0.0
142
1.0
142
0.0
142
0.0
142
0.0
142
0.0
142
1.0
179
     0
144
0.0208333333333333
144
0.0
144
0.0
144
0.0
144
0.0
144
0.0208333333333333
144
0.0
144
0.0
144
0.0
144
0.0
144
1.0
144
0.0
144
0.0
144
0.0
144
0.0
144
1.0
147
0.0208333333333333
147
0.0
147
0.0
147
0.0
147
0.0
147
0.0208333333333333
147
0.0
147
0.0
147
0.0
147
0.0
147
1.0
147
0.0
147
0.0
147
0.0
147
0.0
147
1.0
  0
MATERIAL
  5
BB
102
{ACAD_XDICTIONARY
360
BC
102
}
102
{ACAD_REACTORS
330
AA
102
}
330
AA
100
AcDbMaterial
  1
Global
 72
     0
 43
0.0208333333333333
 43
0.0
 43
0.0
 43
0.0
 43
0.0
 43
0.0208333333333333
 43
0.0
 43
0.0
 43
0.0
 43
0.0
 43
1.0
 43
0.0
 43
0.0
 43
0.0
 43
0.0
 43
1.0
 77
     0
 47
0.0208333333333333
 47
0.0
 47
0.0
 47
0.0
 47
0.0
 47
0.0208333333333333
 47
0.0
 47
0.0
 47
0.0
 47
0.0
 47
1.0
 47
0.0
 47
0.0
 47
0.0
 47
0.0
 47
1.0
171
     0
 49
0.0208333333333333
 49
0.0
 49
0.0
 49
0.0
 49
0.0
 49
0.0208333333333333
 49
0.0
 49
0.0
 49
0.0
 49
0.0
 49
1.0
 49
0.0
 49
0.0
 49
0.0
 49
0.0
 49
1.0
175
     0
142
0.0208333333333333
142
0.0
142
0.0
142
0.0
142
0.0
142
0.0208333333333333
142
0.0
142
0.0
142
0.0
142
0.0
142
1.0
142
0.0
142
0.0
142
0.0
142
0.0
142
1.0
179
     0
144
0.0208333333333333
144
0.0
144
0.0
144
0.0
144
0.0
144
0.0208333333333333
144
0.0
144
0.0
144
0.0
144
0.0
144
1.0
144
0.0
144
0.0
144
0.0
144
0.0
144
1.0
147
0.0208333333333333
147
0.0
147
0.0
147
0.0
147
0.0
147
0.0208333333333333
147
0.0
147
0.0
147
0.0
147
0.0
147
1.0
147
0.0
147
0.0
147
0.0
147
0.0
147
1.0
  0
MLEADERSTYLE
  5
F2
102
{ACAD_XDICTIONARY
360
19B
102
}
102
{ACAD_REACTORS
330
F1
102
}
330
F1
100
AcDbMLeaderStyle
179
     2
170
     2
171
     1
172
     0
 90
        2
 40
0.0
 41
0.0
173
     1
 91
-1056964608
340
14
 92
       -2
290
     1
 42
0.09
291
     1
 43
0.36
  3
Standard
 44
0.18
300

342
11
174
     1
178
     6
175
     1
176
     0
 93
-1056964608
 45
0.18
292
     0
297
     0
 46
0.18
 94
-1056964608
 47
1.0
 49
1.0
140
1.0
293
     1
141
0.0
294
     1
177
     0
142
1.0
295
     0
296
     0
143
0.125
271
     0
272
     9
273
     9
  0
MLINESTYLE
  5
18
102
{ACAD_REACTORS
330
17
102
}
330
17
100
AcDbMlineStyle
  2
STANDARD
 70
     0
  3

 62
   256
 51
90.0
 52
90.0
 71
     2
 49
0.5
 62
   256
  6
BYLAYER
 49
-0.5
 62
   256
  6
BYLAYER
  0
ACDBPLACEHOLDER
  5
2D
102
{ACAD_REACTORS
330
E
102
}
330
E
  0
ACDBPLACEHOLDER
  5
F
102
{ACAD_REACTORS
330
E
102
}
330
E
  0
SCALE
  5
E0
102
{ACAD_REACTORS
330
DF
102
}
330
DF
100
AcDbScale
 70
     0
300
1:1
140
1.0
141
1.0
290
     1
  0
SCALE
  5
E1
102
{ACAD_REACTORS
330
DF
102
}
330
DF
100
AcDbScale
 70
     0
300
1/128" = 1'-0"
140
0.0078125
141
12.0
290
     0
  0
SCALE
  5
E2
102
{ACAD_REACTORS
330
DF
102
}
330
DF
100
AcDbScale
 70
     0
300
1/64" = 1'-0"
140
0.015625
141
12.0
290
     0
  0
SCALE
  5
E3
102
{ACAD_REACTORS
330
DF
102
}
330
DF
100
AcDbScale
 70
     0
300
1/32" = 1'-0"
140
0.03125
141
12.0
290
     0
  0
SCALE
  5
E4
102
{ACAD_REACTORS
330
DF
102
}
330
DF
100
AcDbScale
 70
     0
300
1/16" = 1'-0"
140
0.0625
141
12.0
290
     0
  0
SCALE
  5
E5
102
{ACAD_REACTORS
330
DF
102
}
330
DF
100
AcDbScale
 70
     0
300
3/32" = 1'-0"
140
0.09375
141
12.0
290
     0
  0
SCALE
  5
E6
102
{ACAD_REACTORS
330
DF
102
}
330
DF
100
AcDbScale
 70
     0
300
1/8" = 1'-0"
140
0.125
141
12.0
290
     0
  0
SCALE
  5
E7
102
{ACAD_REACTORS
330
DF
102
}
330
DF
100
AcDbScale
 70
     0
300
3/16" = 1'-0"
140
0.1875
141
12.0
290
     0
  0
SCALE
  5
E8
102
{ACAD_REACTORS
330
DF
102
}
330
DF
100
AcDbScale
 70
     0
300
1/4" = 1'-0"
140
0.25
141
12.0
290
     0
  0
SCALE
  5
E9
102
{ACAD_REACTORS
330
DF
102
}
330
DF
100
AcDbScale
 70
     0
300
3/8" = 1'-0"
140
0.375
141
12.0
290
     0
  0
SCALE
  5
EA
102
{ACAD_REACTORS
330
DF
102
}
330
DF
100
AcDbScale
 70
     0
300
1/2" = 1'-0"
140
0.5
141
12.0
290
     0
  0
SCALE
  5
EB
102
{ACAD_REACTORS
330
DF
102
}
330
DF
100
AcDbScale
 70
     0
300
3/4" = 1'-0"
140
0.75
141
12.0
290
     0
  0
SCALE
  5
EC
102
{ACAD_REACTORS
330
DF
102
}
330
DF
100
AcDbScale
 70
     0
300
1" = 1'-0"
140
1.0
141
12.0
290
     0
  0
SCALE
  5
ED
102
{ACAD_REACTORS
330
DF
102
}
330
DF
100
AcDbScale
 70
     0
300
1-1/2" = 1'-0"
140
1.5
141
12.0
290
     0
  0
SCALE
  5
EE
102
{ACAD_REACTORS
330
DF
102
}
330
DF
100
AcDbScale
 70
     0
300
3" = 1'-0"
140
3.0
141
12.0
290
     0
  0
SCALE
  5
EF
102
{ACAD_REACTORS
330
DF
102
}
330
DF
100
AcDbScale
 70
     0
300
6" = 1'-0"
140
6.0
141
12.0
290
     0
  0
SCALE
  5
F0
102
{ACAD_REACTORS
330
DF
102
}
330
DF
100
AcDbScale
 70
     0
300
1'-0" = 1'-0"
140
12.0
141
12.0
290
     0
  0
ACDBSECTIONVIEWSTYLE
  5
F4
102
{ACAD_XDICTIONARY
360
19D
102
}
102
{ACAD_REACTORS
330
F3
102
}
330
F3
100
AcDbModelDocViewStyle
 70
     0
  3
Imperial24
290
     0
100
AcDbSectionViewStyle
 70
     0
 71
     0
 90
       78
 71
     1
340
11
 62
   256
 40
0.24
340
0
340
0
 62
   256
 40
0.24
300
I, O, Q, S, X, Z
 40
0.48
 90
        3
 40
0.18
 90
        1
 71
     2
340
16
 90
       25
 62
   256
340
16
 90
       50
 62
   256
 40
0.24
 40
0.0
 40
0.24
 71
     3
340
11
 62
   256
 40
0.24
 90
        1
 40
0.75
 90
        1
300
%<\AcVar ViewType \f "%tc1">% %<\AcVar ViewSectionStartId>%-%<\AcVar ViewSectionEndId>%\PSCALE %<\AcVar ViewScale \f "%sn">%
 71
     4
 62
   256
 62
   257
300
ANSI31
 40
1.0
 90
        0
290
     0
290
     0
 90
        6
 40
0.0
 40
1.570796326794896
 40
0.2617993877991494
 40
1.308996938995747
 40
-0.2617993877991494
 40
1.832595714594046
  0
TABLESTYLE
  5
DE
102
{ACAD_XDICTIONARY
360
168
102
}
102
{ACAD_REACTORS
330
DD
102
}
330
DD
100
AcDbTableStyle
280
     0
  3
Standard
 70
     0
 71
     0
 40
0.06
 41
0.06
280
     0
281
     0
  7
Standard
140
0.18
170
     2
 62
     0
 63
     7
283
     0
 90
      512
 91
        0
  1

274
    -2
284
     1
 64
     0
275
    -2
285
     1
 65
     0
276
    -2
286
     1
 66
     0
277
    -2
287
     1
 67
     0
278
    -2
288
     1
 68
     0
279
    -2
289
     1
 69
     0
  7
Standard
140
0.25
170
     5
 62
     0
 63
     7
283
     0
 90
      512
 91
        0
  1

274
    -2
284
     1
 64
     0
275
    -2
285
     1
 65
     0
276
    -2
286
     1
 66
     0
277
    -2
287
     1
 67
     0
278
    -2
288
     1
 68
     0
279
    -2
289
     1
 69
     0
  7
Standard
140
0.18
170
     5
 62
     0
 63
     7
283
     0
 90
      512
 91
        0
  1

274
    -2
284
     1
 64
     0
275
    -2
285
     1
 65
     0
276
    -2
286
     1
 66
     0
277
    -2
287
     1
 67
     0
278
    -2
288
     1
 68
     0
279
    -2
289
     1
 69
     0
  0
VISUALSTYLE
  5
C9
102
{ACAD_XDICTIONARY
360
175
102
}
102
{ACAD_REACTORS
330
C3
102
}
330
C3
100
AcDbVisualStyle
  2
2dWireframe
 70
     4
177
     2
291
     0
 71
     0
176
     1
 72
     2
176
     1
 73
     0
176
     1
 90
        0
176
     1
 40
0.6
176
     1
 41
30.0
176
     1
 63
     7
421
 16777215
176
     1
 74
     1
176
     1
 91
        4
176
     1
 64
     7
176
     1
 65
   257
176
     1
 75
     1
176
     1
175
     1
176
     1
 42
1.0
176
     1
 92
        0
176
     1
 66
   257
176
     1
 43
1.0
176
     1
 76
     1
176
     1
 77
     6
176
     1
 78
     2
176
     1
 67
     7
176
     1
 79
     5
176
     1
170
     0
176
     1
171
     0
176
     1
290
     0
176
     1
 93
        1
176
     1
 44
0.0
176
     1
173
     0
176
     1
1001
ACAD
1000
AcDbSavedByObjectVersion
1070
     0
  0
VISUALSTYLE
  5
C8
102
{ACAD_XDICTIONARY
360
173
102
}
102
{ACAD_REACTORS
330
C3
102
}
330
C3
100
AcDbVisualStyle
  2
Basic
 70
     7
177
     2
291
     1
 71
     1
176
     1
 72
     0
176
     1
 73
     1
176
     1
 90
        0
176
     1
 40
0.6
176
     1
 41
30.0
176
     1
 63
     7
421
 16777215
176
     1
 74
     0
176
     1
 91
        4
176
     1
 64
     7
176
     1
 65
   257
176
     1
 75
     1
176
     1
175
     1
176
     1
 42
1.0
176
     1
 92
        8
176
     1
 66
     7
176
     1
 43
1.0
176
     1
 76
     1
176
     1
 77
     6
176
     1
 78
     2
176
     1
 67
     7
176
     1
 79
     5
176
     1
170
     0
176
     1
171
     0
176
     1
290
     0
176
     1
 93
        1
176
     1
 44
0.0
176
     1
173
     0
176
     1
1001
ACAD
1000
AcDbSavedByObjectVersion
1070
     0
  0
VISUALSTYLE
  5
CF
102
{ACAD_XDICTIONARY
360
181
102
}
102
{ACAD_REACTORS
330
C3
102
}
330
C3
100
AcDbVisualStyle
  2
Brighten
 70
    12
177
     2
291
     1
 71
     2
176
     1
 72
     2
176
     1
 73
     0
176
     1
 90
        0
176
     1
 40
0.6
176
     1
 41
30.0
176
     1
 63
     7
421
 16777215
176
     1
 74
     1
176
     1
 91
        4
176
     1
 64
     7
176
     1
 65
   257
176
     1
 75
     1
176
     1
175
     1
176
     1
 42
1.0
176
     1
 92
        8
176
     1
 66
     7
176
     1
 43
1.0
176
     1
 76
     1
176
     1
 77
     6
176
     1
 78
     2
176
     1
 67
     7
176
     1
 79
     5
176
     1
170
     0
176
     1
171
     0
176
     1
290
     0
176
     1
 93
        1
176
     1
 44
50.0
176
     1
173
     0
176
     1
1001
ACAD
1000
AcDbSavedByObjectVersion
1070
     0
  0
VISUALSTYLE
  5
D3
102
{ACAD_XDICTIONARY
360
189
102
}
102
{ACAD_REACTORS
330
C3
102
}
330
C3
100
AcDbVisualStyle
  2
ColorChange
 70
    16
177
     2
291
     1
 71
     2
176
     1
 72
     2
176
     1
 73
     3
176
     1
 90
        0
176
     1
 40
0.6
176
     1
 41
30.0
176
     1
 63
     8
421
  8421504
176
     1
 74
     1
176
     1
 91
        4
176
     1
 64
     7
176
     1
 65
   257
176
     1
 75
     1
176
     1
175
     1
176
     1
 42
1.0
176
     1
 92
        8
176
     1
 66
     8
424
  8421504
176
     1
 43
1.0
176
     1
 76
     1
176
     1
 77
     6
176
     1
 78
     2
176
     1
 67
     7
176
     1
 79
     5
176
     1
170
     0
176
     1
171
     0
176
     1
290
     0
176
     1
 93
        1
176
     1
 44
0.0
176
     1
173
     0
176
     1
1001
ACAD
1000
AcDbSavedByObjectVersion
1070
     0
  0
VISUALSTYLE
  5
CC
102
{ACAD_XDICTIONARY
360
17B
102
}
102
{ACAD_REACTORS
330
C3
102
}
330
C3
100
AcDbVisualStyle
  2
Conceptual
 70
     9
177
     2
291
     0
 71
     3
176
     1
 72
     2
176
     1
 73
     0
176
     1
 90
        0
176
     1
 40
0.6
176
     1
 41
30.0
176
     1
 63
     7
421
 16777215
176
     1
 74
     2
176
     1
 91
        2
176
     1
 64
     7
176
     1
 65
   257
176
     1
 75
     1
176
     1
175
     1
176
     1
 42
179.0
176
     1
 92
        8
176
     1
 66
     7
176
     1
 43
1.0
176
     1
 76
     1
176
     1
 77
     6
176
     1
 78
     2
176
     1
 67
     7
176
     1
 79
     3
176
     1
170
     0
176
     1
171
     0
176
     1
290
     0
176
     1
 93
        1
176
     1
 44
0.0
176
     1
173
     0
176
     1
1001
ACAD
1000
AcDbSavedByObjectVersion
1070
     0
  0
VISUALSTYLE
  5
CE
102
{ACAD_XDICTIONARY
360
17F
102
}
102
{ACAD_REACTORS
330
C3
102
}
330
C3
100
AcDbVisualStyle
  2
Dim
 70
    11
177
     2
291
     1
 71
     2
176
     1
 72
     2
176
     1
 73
     0
176
     1
 90
        0
176
     1
 40
0.6
176
     1
 41
30.0
176
     1
 63
     7
421
 16777215
176
     1
 74
     1
176
     1
 91
        4
176
     1
 64
     7
176
     1
 65
   257
176
     1
 75
     1
176
     1
175
     1
176
     1
 42
1.0
176
     1
 92
        8
176
     1
 66
     7
176
     1
 43
1.0
176
     1
 76
     1
176
     1
 77
     6
176
     1
 78
     2
176
     1
 67
     7
176
     1
 79
     5
176
     1
170
     0
176
     1
171
     0
176
     1
290
     0
176
     1
 93
        1
176
     1
 44
-50.0
176
     1
173
     0
176
     1
1001
ACAD
1000
AcDbSavedByObjectVersion
1070
     0
  0
VISUALSTYLE
  5
DB
102
{ACAD_XDICTIONARY
360
199
102
}
102
{ACAD_REACTORS
330
C3
102
}
330
C3
100
AcDbVisualStyle
  2
EdgeColorOff
 70
    22
177
     2
291
     1
 71
     2
176
     0
 72
     2
176
     0
 73
     0
176
     0
 90
        0
176
     0
 40
0.6
176
     0
 41
30.0
176
     0
 63
     7
421
 16777215
176
     0
 74
     1
176
     0
 91
        4
176
     0
 64
     7
176
     0
 65
   257
176
     0
 75
     1
176
     0
175
     1
176
     0
 42
1.0
176
     0
 92
        8
176
     2
 66
     7
176
     0
 43
1.0
176
     0
 76
     1
176
     0
 77
     6
176
     0
 78
     2
176
     0
 67
     7
176
     0
 79
     5
176
     0
170
     0
176
     0
171
     0
176
     0
290
     0
176
     0
 93
        1
176
     0
 44
0.0
176
     0
173
     0
176
     0
1001
ACAD
1000
AcDbSavedByObjectVersion
1070
     0
  0
VISUALSTYLE
  5
D2
102
{ACAD_XDICTIONARY
360
187
102
}
102
{ACAD_REACTORS
330
C3
102
}
330
C3
100
AcDbVisualStyle
  2
Facepattern
 70
    15
177
     2
291
     1
 71
     2
176
     1
 72
     2
176
     1
 73
     0
176
     1
 90
        0
176
     1
 40
0.6
176
     1
 41
30.0
176
     1
 63
     7
421
 16777215
176
     1
 74
     1
176
     1
 91
        4
176
     1
 64
     7
176
     1
 65
   257
176
     1
 75
     1
176
     1
175
     1
176
     1
 42
1.0
176
     1
 92
        8
176
     1
 66
     7
176
     1
 43
1.0
176
     1
 76
     1
176
     1
 77
     6
176
     1
 78
     2
176
     1
 67
     7
176
     1
 79
     5
176
     1
170
     0
176
     1
171
     0
176
     1
290
     0
176
     1
 93
        1
176
     1
 44
0.0
176
     1
173
     0
176
     1
1001
ACAD
1000
AcDbSavedByObjectVersion
1070
     0
  0
VISUALSTYLE
  5
C4
102
{ACAD_XDICTIONARY
360
16B
102
}
102
{ACAD_REACTORS
330
C3
102
}
330
C3
100
AcDbVisualStyle
  2
Flat
 70
     0
177
     2
291
     1
 71
     2
176
     1
 72
     1
176
     1
 73
     1
176
     1
 90
        2
176
     1
 40
0.6
176
     1
 41
30.0
176
     1
 63
     7
421
 16777215
176
     1
 74
     0
176
     1
 91
        0
176
     1
 64
     7
176
     1
 65
   257
176
     1
 75
     1
176
     1
175
     1
176
     1
 42
1.0
176
     1
 92
        8
176
     1
 66
     7
176
     1
 43
1.0
176
     1
 76
     1
176
     1
 77
     6
176
     1
 78
     2
176
     1
 67
     7
176
     1
 79
     5
176
     1
170
     0
176
     1
171
     0
176
     1
290
     0
176
     1
 93
       13
176
     1
 44
0.0
176
     1
173
     0
176
     1
1001
ACAD
1000
AcDbSavedByObjectVersion
1070
     0
  0
VISUALSTYLE
  5
C5
102
{ACAD_XDICTIONARY
360
16D
102
}
102
{ACAD_REACTORS
330
C3
102
}
330
C3
100
AcDbVisualStyle
  2
FlatWithEdges
 70
     1
177
     2
291
     1
 71
     2
176
     1
 72
     1
176
     1
 73
     1
176
     1
 90
        2
176
     1
 40
0.6
176
     1
 41
30.0
176
     1
 63
     7
421
 16777215
176
     1
 74
     1
176
     1
 91
        0
176
     1
 64
     7
176
     1
 65
   257
176
     1
 75
     1
176
     1
175
     1
176
     1
 42
1.0
176
     1
 92
        0
176
     1
 66
   257
176
     1
 43
1.0
176
     1
 76
     1
176
     1
 77
     6
176
     1
 78
     2
176
     1
 67
     7
176
     1
 79
     5
176
     1
170
     0
176
     1
171
     0
176
     1
290
     0
176
     1
 93
       13
176
     1
 44
0.0
176
     1
173
     0
176
     1
1001
ACAD
1000
AcDbSavedByObjectVersion
1070
     0
  0
VISUALSTYLE
  5
C6
102
{ACAD_XDICTIONARY
360
16F
102
}
102
{ACAD_REACTORS
330
C3
102
}
330
C3
100
AcDbVisualStyle
  2
Gouraud
 70
     2
177
     2
291
     1
 71
     2
176
     1
 72
     2
176
     1
 73
     1
176
     1
 90
        2
176
     1
 40
0.6
176
     1
 41
30.0
176
     1
 63
     7
421
 16777215
176
     1
 74
     0
176
     1
 91
        0
176
     1
 64
     7
176
     1
 65
   257
176
     1
 75
     1
176
     1
175
     1
176
     1
 42
1.0
176
     1
 92
        0
176
     1
 66
     7
176
     1
 43
1.0
176
     1
 76
     1
176
     1
 77
     6
176
     1
 78
     2
176
     1
 67
     7
176
     1
 79
     5
176
     1
170
     0
176
     1
171
     0
176
     1
290
     0
176
     1
 93
       13
176
     1
 44
0.0
176
     1
173
     0
176
     1
1001
ACAD
1000
AcDbSavedByObjectVersion
1070
     0
  0
VISUALSTYLE
  5
C7
102
{ACAD_XDICTIONARY
360
171
102
}
102
{ACAD_REACTORS
330
C3
102
}
330
C3
100
AcDbVisualStyle
  2
GouraudWithEdges
 70
     3
177
     2
291
     1
 71
     2
176
     1
 72
     2
176
     1
 73
     1
176
     1
 90
        2
176
     1
 40
0.6
176
     1
 41
30.0
176
     1
 63
     7
421
 16777215
176
     1
 74
     1
176
     1
 91
        0
176
     1
 64
     7
176
     1
 65
   257
176
     1
 75
     1
176
     1
175
     1
176
     1
 42
1.0
176
     1
 92
        0
176
     1
 66
   257
176
     1
 43
1.0
176
     1
 76
     1
176
     1
 77
     6
176
     1
 78
     2
176
     1
 67
     7
176
     1
 79
     5
176
     1
170
     0
176
     1
171
     0
176
     1
290
     0
176
     1
 93
       13
176
     1
 44
0.0
176
     1
173
     0
176
     1
1001
ACAD
1000
AcDbSavedByObjectVersion
1070
     0
  0
VISUALSTYLE
  5
CB
102
{ACAD_XDICTIONARY
360
179
102
}
102
{ACAD_REACTORS
330
C3
102
}
330
C3
100
AcDbVisualStyle
  2
Hidden
 70
     6
177
     2
291
     0
 71
     1
176
     1
 72
     2
176
     1
 73
     2
176
     1
 90
        0
176
     1
 40
0.6
176
     1
 41
30.0
176
     1
 63
     7
421
 16777215
176
     1
 74
     2
176
     1
 91
        2
176
     1
 64
     7
176
     1
 65
   257
176
     1
 75
     2
176
     1
175
     1
176
     1
 42
40.0
176
     1
 92
        0
176
     1
 66
   257
176
     1
 43
1.0
176
     1
 76
     1
176
     1
 77
     6
176
     1
 78
     2
176
     1
 67
     7
176
     1
 79
     3
176
     1
170
     0
176
     1
171
     0
176
     1
290
     0
176
     1
 93
        1
176
     1
 44
0.0
176
     1
173
     0
176
     1
1001
ACAD
1000
AcDbSavedByObjectVersion
1070
     0
  0
VISUALSTYLE
  5
D9
102
{ACAD_XDICTIONARY
360
195
102
}
102
{ACAD_REACTORS
330
C3
102
}
330
C3
100
AcDbVisualStyle
  2
JitterOff
 70
    20
177
     2
291
     1
 71
     2
176
     0
 72
     2
176
     0
 73
     0
176
     0
 90
        0
176
     0
 40
0.6
176
     0
 41
30.0
176
     0
 63
     7
421
 16777215
176
     0
 74
     1
176
     0
 91
        4
176
     0
 64
     7
176
     0
 65
   257
176
     0
 75
     1
176
     0
175
     1
176
     0
 42
1.0
176
     0
 92
       10
176
     2
 66
     7
176
     0
 43
1.0
176
     0
 76
     1
176
     0
 77
     6
176
     0
 78
     2
176
     0
 67
     7
176
     0
 79
     5
176
     0
170
     0
176
     0
171
     0
176
     0
290
     0
176
     0
 93
        1
176
     0
 44
0.0
176
     0
173
     0
176
     0
1001
ACAD
1000
AcDbSavedByObjectVersion
1070
     0
  0
VISUALSTYLE
  5
D1
102
{ACAD_XDICTIONARY
360
185
102
}
102
{ACAD_REACTORS
330
C3
102
}
330
C3
100
AcDbVisualStyle
  2
Linepattern
 70
    14
177
     2
291
     1
 71
     2
176
     1
 72
     2
176
     1
 73
     0
176
     1
 90
        0
176
     1
 40
0.6
176
     1
 41
30.0
176
     1
 63
     7
421
 16777215
176
     1
 74
     1
176
     1
 91
        4
176
     1
 64
     7
176
     1
 65
   257
176
     1
 75
     7
176
     1
175
     7
176
     1
 42
1.0
176
     1
 92
        8
176
     1
 66
     7
176
     1
 43
1.0
176
     1
 76
     1
176
     1
 77
     6
176
     1
 78
     2
176
     1
 67
     7
176
     1
 79
     5
176
     1
170
     0
176
     1
171
     0
176
     1
290
     0
176
     1
 93
        1
176
     1
 44
0.0
176
     1
173
     0
176
     1
1001
ACAD
1000
AcDbSavedByObjectVersion
1070
     0
  0
VISUALSTYLE
  5
DA
102
{ACAD_XDICTIONARY
360
197
102
}
102
{ACAD_REACTORS
330
C3
102
}
330
C3
100
AcDbVisualStyle
  2
OverhangOff
 70
    21
177
     2
291
     1
 71
     2
176
     0
 72
     2
176
     0
 73
     0
176
     0
 90
        0
176
     0
 40
0.6
176
     0
 41
30.0
176
     0
 63
     7
421
 16777215
176
     0
 74
     1
176
     0
 91
        4
176
     0
 64
     7
176
     0
 65
   257
176
     0
 75
     1
176
     0
175
     1
176
     0
 42
1.0
176
     0
 92
        9
176
     2
 66
     7
176
     0
 43
1.0
176
     0
 76
     1
176
     0
 77
     6
176
     0
 78
     2
176
     0
 67
     7
176
     0
 79
     5
176
     0
170
     0
176
     0
171
     0
176
     0
290
     0
176
     0
 93
        1
176
     0
 44
0.0
176
     0
173
     0
176
     0
1001
ACAD
1000
AcDbSavedByObjectVersion
1070
     0
  0
VISUALSTYLE
  5
CD
102
{ACAD_XDICTIONARY
360
17D
102
}
102
{ACAD_REACTORS
330
C3
102
}
330
C3
100
AcDbVisualStyle
  2
Realistic
 70
     8
177
     2
291
     0
 71
     2
176
     1
 72
     3
176
     1
 73
     0
176
     1
 90
        2
176
     1
 40
0.6
176
     1
 41
30.0
176
     1
 63
     7
421
 16777215
176
     1
 74
     0
176
     1
 91
        0
176
     1
 64
     7
176
     1
 65
   257
176
     1
 75
     1
176
     1
175
     1
176
     1
 42
1.0
176
     1
 92
        8
176
     1
 66
   257
176
     1
 43
1.0
176
     1
 76
     1
176
     1
 77
     6
176
     1
 78
     2
176
     1
 67
     7
176
     1
 79
     3
176
     1
170
     0
176
     1
171
     0
176
     1
290
     0
176
     1
 93
       13
176
     1
 44
0.0
176
     1
173
     0
176
     1
1001
ACAD
1000
AcDbSavedByObjectVersion
1070
     0
  0
VISUALSTYLE
  5
D8
102
{ACAD_XDICTIONARY
360
193
102
}
102
{ACAD_REACTORS
330
C3
102
}
330
C3
100
AcDbVisualStyle
  2
Shaded
 70
    27
177
     2
291
     0
 71
     2
176
     1
 72
     2
176
     1
 73
     1
176
     1
 90
        2
176
     1
 40
0.6
176
     1
 41
30.0
176
     1
 63
     7
421
 16777215
176
     1
 74
     0
176
     1
 91
        4
176
     1
 64
     7
176
     1
 65
   257
176
     1
 75
     1
176
     1
175
     1
176
     1
 42
1.0
176
     1
 92
        8
176
     1
 66
   257
176
     1
 43
1.0
176
     1
 76
     1
176
     1
 77
     6
176
     1
 78
     2
176
     1
 67
     8
425
  7895160
176
     1
 79
     3
176
     1
170
     0
176
     1
171
     0
176
     1
290
     0
176
     1
 93
        5
176
     1
 44
0.0
176
     1
173
     0
176
     1
1001
ACAD
1000
AcDbSavedByObjectVersion
1070
     0
  0
VISUALSTYLE
  5
D7
102
{ACAD_XDICTIONARY
360
191
102
}
102
{ACAD_REACTORS
330
C3
102
}
330
C3
100
AcDbVisualStyle
  2
Shaded with edges
 70
    26
177
     2
291
     0
 71
     2
176
     1
 72
     2
176
     1
 73
     1
176
     1
 90
        2
176
     1
 40
0.6
176
     1
 41
30.0
176
     1
 63
     7
421
 16777215
176
     1
 74
     1
176
     1
 91
       10
176
     1
 64
     7
176
     1
 65
   257
176
     1
 75
     2
176
     1
175
     1
176
     1
 42
1.0
176
     1
 92
        8
176
     1
 66
   257
176
     1
 43
1.0
176
     1
 76
     1
176
     1
 77
     6
176
     1
 78
     2
176
     1
 67
     7
176
     1
 79
     3
176
     1
170
     0
176
     1
171
     0
176
     1
290
     0
176
     1
 93
        5
176
     1
 44
0.0
176
     1
173
     0
176
     1
1001
ACAD
1000
AcDbSavedByObjectVersion
1070
     0
  0
VISUALSTYLE
  5
D4
102
{ACAD_XDICTIONARY
360
18B
102
}
102
{ACAD_REACTORS
330
C3
102
}
330
C3
100
AcDbVisualStyle
  2
Shades of Gray
 70
    23
177
     2
291
     0
 71
     2
176
     1
 72
     2
176
     1
 73
     3
176
     1
 90
        0
176
     1
 40
0.6
176
     1
 41
30.0
176
     1
 63
     7
421
 16777215
176
     1
 74
     2
176
     1
 91
        2
176
     1
 64
     7
176
     1
 65
     7
176
     1
 75
     1
176
     1
175
     1
176
     1
 42
40.0
176
     1
 92
        8
176
     1
 66
     7
176
     1
 43
1.0
176
     1
 76
     1
176
     1
 77
     6
176
     1
 78
     2
176
     1
 67
     7
176
     1
 79
     3
176
     1
170
     0
176
     1
171
     0
176
     1
290
     0
176
     1
 93
        1
176
     1
 44
0.0
176
     1
173
     0
176
     1
1001
ACAD
1000
AcDbSavedByObjectVersion
1070
     0
  0
VISUALSTYLE
  5
D5
102
{ACAD_XDICTIONARY
360
18D
102
}
102
{ACAD_REACTORS
330
C3
102
}
330
C3
100
AcDbVisualStyle
  2
Sketchy
 70
    24
177
     2
291
     0
 71
     1
176
     1
 72
     2
176
     1
 73
     2
176
     1
 90
        0
176
     1
 40
0.6
176
     1
 41
30.0
176
     1
 63
     7
421
 16777215
176
     1
 74
     2
176
     1
 91
        2
176
     1
 64
     7
176
     1
 65
     7
176
     1
 75
     1
176
     1
175
     1
176
     1
 42
40.0
176
     1
 92
       11
176
     1
 66
     7
176
     1
 43
1.0
176
     1
 76
     1
176
     1
 77
     6
176
     1
 78
     2
176
     1
 67
     7
176
     1
 79
     6
176
     1
170
     0
176
     1
171
     0
176
     1
290
     0
176
     1
 93
        1
176
     1
 44
0.0
176
     1
173
     0
176
     1
1001
ACAD
1000
AcDbSavedByObjectVersion
1070
     0
  0
VISUALSTYLE
  5
D0
102
{ACAD_XDICTIONARY
360
183
102
}
102
{ACAD_REACTORS
330
C3
102
}
330
C3
100
AcDbVisualStyle
  2
Thicken
 70
    13
177
     2
291
     1
 71
     2
176
     1
 72
     2
176
     1
 73
     0
176
     1
 90
        0
176
     1
 40
0.6
176
     1
 41
30.0
176
     1
 63
     7
421
 16777215
176
     1
 74
     1
176
     1
 91
        4
176
     1
 64
     7
176
     1
 65
   257
176
     1
 75
     1
176
     1
175
     1
176
     1
 42
1.0
176
     1
 92
       12
176
     1
 66
     7
176
     1
 43
1.0
176
     1
 76
     1
176
     1
 77
     6
176
     1
 78
     2
176
     1
 67
     7
176
     1
 79
     5
176
     1
170
     0
176
     1
171
     0
176
     1
290
     0
176
     1
 93
        1
176
     1
 44
0.0
176
     1
173
     0
176
     1
1001
ACAD
1000
AcDbSavedByObjectVersion
1070
     0
  0
VISUALSTYLE
  5
CA
102
{ACAD_XDICTIONARY
360
177
102
}
102
{ACAD_REACTORS
330
C3
102
}
330
C3
100
AcDbVisualStyle
  2
Wireframe
 70
     5
177
     2
291
     0
 71
     0
176
     1
 72
     2
176
     1
 73
     0
176
     1
 90
        0
176
     1
 40
0.6
176
     1
 41
30.0
176
     1
 63
     7
421
 16777215
176
     1
 74
     1
176
     1
 91
        4
176
     1
 64
     7
176
     1
 65
   257
176
     1
 75
     1
176
     1
175
     1
176
     1
 42
1.0
176
     1
 92
        0
176
     1
 66
   257
176
     1
 43
1.0
176
     1
 76
     1
176
     1
 77
     6
176
     1
 78
     2
176
     1
 67
     7
176
     1
 79
     3
176
     1
170
     0
176
     1
171
     0
176
     1
290
     0
176
     1
 93
        1
176
     1
 44
0.0
176
     1
173
     0
176
     1
1001
ACAD
1000
AcDbSavedByObjectVersion
1070
     0
  0
VISUALSTYLE
  5
D6
102
{ACAD_XDICTIONARY
360
18F
102
}
102
{ACAD_REACTORS
330
C3
102
}
330
C3
100
AcDbVisualStyle
  2
X-Ray
 70
    25
177
     2
291
     0
 71
     2
176
     1
 72
     2
176
     1
 73
     1
176
     1
 90
        1
176
     1
 40
0.5
176
     1
 41
30.0
176
     1
 63
     7
421
 16777215
176
     1
 74
     1
176
     1
 91
        0
176
     1
 64
     7
176
     1
 65
   257
176
     1
 75
     1
176
     1
175
     1
176
     1
 42
1.0
176
     1
 92
        8
176
     1
 66
     7
176
     1
 43
1.0
176
     1
 76
     1
176
     1
 77
     6
176
     1
 78
     2
176
     1
 67
     7
176
     1
 79
     3
176
     1
170
     0
176
     1
171
     0
176
     1
290
     0
176
     1
 93
       13
176
     1
 44
0.0
176
     1
173
     0
176
     1
1001
ACAD
1000
AcDbSavedByObjectVersion
1070
     0
  0
DICTIONARYVAR
  5
164
102
{ACAD_REACTORS
330
15E
102
}
330
15E
100
DictionaryVariables
280
     0
  1
1:1
  0
DICTIONARYVAR
  5
160
102
{ACAD_REACTORS
330
15E
102
}
330
15E
100
DictionaryVariables
280
     0
  1
STANDARD
  0
DICTIONARYVAR
  5
15F
102
{ACAD_REACTORS
330
15E
102
}
330
15E
100
DictionaryVariables
280
     0
  1
STANDARD
  0
DICTIONARYVAR
  5
161
102
{ACAD_REACTORS
330
15E
102
}
330
15E
100
DictionaryVariables
280
     0
  1
Imperial24
  0
DICTIONARYVAR
  5
162
102
{ACAD_REACTORS
330
15E
102
}
330
15E
100
DictionaryVariables
280
     0
  1
Imperial24
  0
DICTIONARYVAR
  5
166
102
{ACAD_REACTORS
330
15E
102
}
330
15E
100
DictionaryVariables
280
     0
  1
1
  0
DICTIONARYVAR
  5
167
102
{ACAD_REACTORS
330
15E
102
}
330
15E
100
DictionaryVariables
280
     0
  1
15
  0
DICTIONARYVAR
  5
165
102
{ACAD_REACTORS
330
15E
102
}
330
15E
100
DictionaryVariables
280
     0
  1
0
  0
DICTIONARYVAR
  5
163
102
{ACAD_REACTORS
330
15E
102
}
330
15E
100
DictionaryVariables
280
     0
  1
0
  0
DICTIONARY
  5
19F
330
F6
100
AcDbDictionary
280
     1
281
     1
  3
ACAD_XREC_ROUNDTRIP
360
1A0
  0
DICTIONARY
  5
B4
330
B3
100
AcDbDictionary
280
     1
281
     1
  3
BUMPTILE
360
B6
  3
DIFFUSETILE
360
B5
  3
OPACITYTILE
360
B9
  3
REFLECTIONTILE
360
B8
  3
REFRACTIONTILE
360
BA
  3
SPECULARTILE
360
B7
  0
DICTIONARY
  5
AC
330
AB
100
AcDbDictionary
280
     1
281
     1
  3
BUMPTILE
360
AE
  3
DIFFUSETILE
360
AD
  3
OPACITYTILE
360
B1
  3
REFLECTIONTILE
360
B0
  3
REFRACTIONTILE
360
B2
  3
SPECULARTILE
360
AF
  0
DICTIONARY
  5
BC
330
BB
100
AcDbDictionary
280
     1
281
     1
  3
BUMPTILE
360
BE
  3
DIFFUSETILE
360
BD
  3
OPACITYTILE
360
C1
  3
REFLECTIONTILE
360
C0
  3
REFRACTIONTILE
360
C2
  3
SPECULARTILE
360
BF
  0
DICTIONARY
  5
19B
330
F2
100
AcDbDictionary
280
     1
281
     1
  3
ACAD_XREC_ROUNDTRIP
360
19C
  0
DICTIONARY
  5
19D
330
F4
100
AcDbDictionary
280
     1
281
     1
  3
ACAD_XREC_ROUNDTRIP
360
19E
  0
DICTIONARY
  5
168
330
DE
100
AcDbDictionary
280
     1
281
     1
  3
ACAD_ROUNDTRIP_2008_TABLESTYLE_CELLSTYLEMAP
360
169
  0
DICTIONARY
  5
175
330
C9
100
AcDbDictionary
280
     1
281
     1
  3
ACAD_XREC_ROUNDTRIP
360
176
  0
DICTIONARY
  5
173
330
C8
100
AcDbDictionary
280
     1
281
     1
  3
ACAD_XREC_ROUNDTRIP
360
174
  0
DICTIONARY
  5
181
330
CF
100
AcDbDictionary
280
     1
281
     1
  3
ACAD_XREC_ROUNDTRIP
360
182
  0
DICTIONARY
  5
189
330
D3
100
AcDbDictionary
280
     1
281
     1
  3
ACAD_XREC_ROUNDTRIP
360
18A
  0
DICTIONARY
  5
17B
330
CC
100
AcDbDictionary
280
     1
281
     1
  3
ACAD_XREC_ROUNDTRIP
360
17C
  0
DICTIONARY
  5
17F
330
CE
100
AcDbDictionary
280
     1
281
     1
  3
ACAD_XREC_ROUNDTRIP
360
180
  0
DICTIONARY
  5
199
330
DB
100
AcDbDictionary
280
     1
281
     1
  3
ACAD_XREC_ROUNDTRIP
360
19A
  0
DICTIONARY
  5
187
330
D2
100
AcDbDictionary
280
     1
281
     1
  3
ACAD_XREC_ROUNDTRIP
360
188
  0
DICTIONARY
  5
16B
330
C4
100
AcDbDictionary
280
     1
281
     1
  3
ACAD_XREC_ROUNDTRIP
360
16C
  0
DICTIONARY
  5
16D
330
C5
100
AcDbDictionary
280
     1
281
     1
  3
ACAD_XREC_ROUNDTRIP
360
16E
  0
DICTIONARY
  5
16F
330
C6
100
AcDbDictionary
280
     1
281
     1
  3
ACAD_XREC_ROUNDTRIP
360
170
  0
DICTIONARY
  5
171
330
C7
100
AcDbDictionary
280
     1
281
     1
  3
ACAD_XREC_ROUNDTRIP
360
172
  0
DICTIONARY
  5
179
330
CB
100
AcDbDictionary
280
     1
281
     1
  3
ACAD_XREC_ROUNDTRIP
360
17A
  0
DICTIONARY
  5
195
330
D9
100
AcDbDictionary
280
     1
281
     1
  3
ACAD_XREC_ROUNDTRIP
360
196
  0
DICTIONARY
  5
185
330
D1
100
AcDbDictionary
280
     1
281
     1
  3
ACAD_XREC_ROUNDTRIP
360
186
  0
DICTIONARY
  5
197
330
DA
100
AcDbDictionary
280
     1
281
     1
  3
ACAD_XREC_ROUNDTRIP
360
198
  0
DICTIONARY
  5
17D
330
CD
100
AcDbDictionary
280
     1
281
     1
  3
ACAD_XREC_ROUNDTRIP
360
17E
  0
DICTIONARY
  5
193
330
D8
100
AcDbDictionary
280
     1
281
     1
  3
ACAD_XREC_ROUNDTRIP
360
194
  0
DICTIONARY
  5
191
330
D7
100
AcDbDictionary
280
     1
281
     1
  3
ACAD_XREC_ROUNDTRIP
360
192
  0
DICTIONARY
  5
18B
330
D4
100
AcDbDictionary
280
     1
281
     1
  3
ACAD_XREC_ROUNDTRIP
360
18C
  0
DICTIONARY
  5
18D
330
D5
100
AcDbDictionary
280
     1
281
     1
  3
ACAD_XREC_ROUNDTRIP
360
18E
  0
DICTIONARY
  5
183
330
D0
100
AcDbDictionary
280
     1
281
     1
  3
ACAD_XREC_ROUNDTRIP
360
184
  0
DICTIONARY
  5
177
330
CA
100
AcDbDictionary
280
     1
281
     1
  3
ACAD_XREC_ROUNDTRIP
360
178
  0
DICTIONARY
  5
18F
330
D6
100
AcDbDictionary
280
     1
281
     1
  3
ACAD_XREC_ROUNDTRIP
360
190
  0
XRECORD
  5
1A0
102
{ACAD_REACTORS
330
19F
102
}
330
19F
100
AcDbXrecord
280
     1
102
DISPLAYNAME
  1
Imperial24
102
FLAGS
 90
        0
  0
XRECORD
  5
B6
102
{ACAD_REACTORS
330
B4
102
}
330
B4
100
AcDbXrecord
280
     1
270
     1
271
     1
  0
XRECORD
  5
B5
102
{ACAD_REACTORS
330
B4
102
}
330
B4
100
AcDbXrecord
280
     1
270
     1
271
     1
  0
XRECORD
  5
B9
102
{ACAD_REACTORS
330
B4
102
}
330
B4
100
AcDbXrecord
280
     1
270
     1
271
     1
  0
XRECORD
  5
B8
102
{ACAD_REACTORS
330
B4
102
}
330
B4
100
AcDbXrecord
280
     1
270
     1
271
     1
  0
XRECORD
  5
BA
102
{ACAD_REACTORS
330
B4
102
}
330
B4
100
AcDbXrecord
280
     1
270
     1
271
     1
  0
XRECORD
  5
B7
102
{ACAD_REACTORS
330
B4
102
}
330
B4
100
AcDbXrecord
280
     1
270
     1
271
     1
  0
XRECORD
  5
AE
102
{ACAD_REACTORS
330
AC
102
}
330
AC
100
AcDbXrecord
280
     1
270
     1
271
     1
  0
XRECORD
  5
AD
102
{ACAD_REACTORS
330
AC
102
}
330
AC
100
AcDbXrecord
280
     1
270
     1
271
     1
  0
XRECORD
  5
B1
102
{ACAD_REACTORS
330
AC
102
}
330
AC
100
AcDbXrecord
280
     1
270
     1
271
     1
  0
XRECORD
  5
B0
102
{ACAD_REACTORS
330
AC
102
}
330
AC
100
AcDbXrecord
280
     1
270
     1
271
     1
  0
XRECORD
  5
B2
102
{ACAD_REACTORS
330
AC
102
}
330
AC
100
AcDbXrecord
280
     1
270
     1
271
     1
  0
XRECORD
  5
AF
102
{ACAD_REACTORS
330
AC
102
}
330
AC
100
AcDbXrecord
280
     1
270
     1
271
     1
  0
XRECORD
  5
BE
102
{ACAD_REACTORS
330
BC
102
}
330
BC
100
AcDbXrecord
280
     1
270
     1
271
     1
  0
XRECORD
  5
BD
102
{ACAD_REACTORS
330
BC
102
}
330
BC
100
AcDbXrecord
280
     1
270
     1
271
     1
  0
XRECORD
  5
C1
102
{ACAD_REACTORS
330
BC
102
}
330
BC
100
AcDbXrecord
280
     1
270
     1
271
     1
  0
XRECORD
  5
C0
102
{ACAD_REACTORS
330
BC
102
}
330
BC
100
AcDbXrecord
280
     1
270
     1
271
     1
  0
XRECORD
  5
C2
102
{ACAD_REACTORS
330
BC
102
}
330
BC
100
AcDbXrecord
280
     1
270
     1
271
     1
  0
XRECORD
  5
BF
102
{ACAD_REACTORS
330
BC
102
}
330
BC
100
AcDbXrecord
280
     1
270
     1
271
     1
  0
XRECORD
  5
19C
102
{ACAD_REACTORS
330
19B
102
}
330
19B
100
AcDbXrecord
280
     1
102
ACAD_ROUNDTRIP_2012_MLEADER_STYLE
298
     1
  0
XRECORD
  5
19E
102
{ACAD_REACTORS
330
19D
102
}
330
19D
100
AcDbXrecord
280
     1
102
DISPLAYNAME
  1
Imperial24
102
FLAGS
 90
        0
  0
CELLSTYLEMAP
  5
169
102
{ACAD_REACTORS
330
168
102
}
330
168
100
AcDbCellStyleMap
 90
        3
300
CELLSTYLE
  1
TABLEFORMAT_BEGIN
 90
        5
170
     1
 91
        0
 92
    32768
 62
   257
 93
        1
300
CONTENTFORMAT
  1
CONTENTFORMAT_BEGIN
 90
        0
 91
        0
 92
      512
 93
        0
300

 40
0.0
140
1.0
 94
        5
 62
     0
340
11
144
0.25
309
CONTENTFORMAT_END
171
     0
 94
        0
309
TABLEFORMAT_END
  1
CELLSTYLE_BEGIN
 90
        1
 91
        1
300
_TITLE
309
CELLSTYLE_END
300
CELLSTYLE
  1
TABLEFORMAT_BEGIN
 90
        5
170
     1
 91
        0
 92
        0
 62
   257
 93
        1
300
CONTENTFORMAT
  1
CONTENTFORMAT_BEGIN
 90
        0
 91
        0
 92
      512
 93
        0
300

 40
0.0
140
1.0
 94
        5
 62
     0
340
11
144
0.18
309
CONTENTFORMAT_END
171
     0
 94
        0
309
TABLEFORMAT_END
  1
CELLSTYLE_BEGIN
 90
        2
 91
        1
300
_HEADER
309
CELLSTYLE_END
300
CELLSTYLE
  1
TABLEFORMAT_BEGIN
 90
        5
170
     1
 91
        0
 92
        0
 62
   257
 93
        1
300
CONTENTFORMAT
  1
CONTENTFORMAT_BEGIN
 90
        0
 91
        0
 92
      512
 93
        0
300

 40
0.0
140
1.0
 94
        2
 62
     0
340
11
144
0.18
309
CONTENTFORMAT_END
171
     0
 94
        0
309
TABLEFORMAT_END
  1
CELLSTYLE_BEGIN
 90
        3
 91
        2
300
_DATA
309
CELLSTYLE_END
  0
XRECORD
  5
176
102
{ACAD_REACTORS
330
175
102
}
330
175
100
AcDbXrecord
280
     1
102
RTVSPost2010Prop28
280
     1
102
RTVSPost2010PropOp28
 70
     1
102
RTVSPost2010Prop29
280
     1
102
RTVSPost2010PropOp29
 70
     1
102
RTVSPost2010Prop30
280
     0
102
RTVSPost2010PropOp30
 70
     1
102
RTVSPost2010Prop31
280
     0
102
RTVSPost2010PropOp31
 70
     1
102
RTVSPost2010Prop32
280
     0
102
RTVSPost2010PropOp32
 70
     1
102
RTVSPost2010Prop33
280
     0
102
RTVSPost2010PropOp33
 70
     1
102
RTVSPost2010Prop34
280
     0
102
RTVSPost2010PropOp34
 70
     1
102
RTVSPost2010Prop35
280
     0
102
RTVSPost2010PropOp35
 70
     1
102
RTVSPost2010Prop36
280
     0
102
RTVSPost2010PropOp36
 70
     1
102
RTVSPost2010Prop37
 90
       50
102
RTVSPost2010PropOp37
 70
     1
102
RTVSPost2010Prop38
140
0.0
102
RTVSPost2010PropOp38
 70
     1
102
RTVSPost2010Prop39
140
1.0
102
RTVSPost2010PropOp39
 70
     1
102
RTVSPost2010Prop40
 90
        0
102
RTVSPost2010PropOp40
 70
     1
102
RTVSPost2010Prop41ColorIndex
 90
       18
102
RTVSPost2010Prop41ColorRGB
 90
        0
102
RTVSPost2010PropOp41
 70
     1
102
RTVSPost2010Prop42
 90
       50
102
RTVSPost2010PropOp42
 70
     1
102
RTVSPost2010Prop43
 90
        3
102
RTVSPost2010PropOp43
 70
     1
102
RTVSPost2010Prop44ColorIndex
 90
        5
102
RTVSPost2010Prop44ColorRGB
 90
      255
102
RTVSPost2010PropOp44
 70
     1
102
RTVSPost2010Prop45
280
     0
102
RTVSPost2010PropOp45
 70
     1
102
RTVSPost2010Prop46
 90
       50
102
RTVSPost2010PropOp46
 70
     1
102
RTVSPost2010Prop47
 90
       50
102
RTVSPost2010PropOp47
 70
     1
102
RTVSPost2010Prop48
 90
       50
102
RTVSPost2010PropOp48
 70
     1
102
RTVSPost2010Prop49
280
     0
102
RTVSPost2010PropOp49
 70
     1
102
RTVSPost2010Prop50
 90
       50
102
RTVSPost2010PropOp50
 70
     1
102
RTVSPost2010Prop51ColorIndex
 90
      256
102
RTVSPost2010Prop51ColorRGB
 90
-16777216
102
RTVSPost2010PropOp51
 70
     0
102
RTVSPost2010Prop52
140
1.0
102
RTVSPost2010PropOp52
 70
     0
102
RTVSPost2010Prop53
 90
        2
102
RTVSPost2010PropOp53
 70
     1
102
RTVSPost2010Prop54
  1
strokes_ogs.tif
102
RTVSPost2010PropOp54
 70
     1
102
RTVSPost2010Prop55
280
     0
102
RTVSPost2010PropOp55
 70
     1
102
RTVSPost2010Prop56
140
1.0
102
RTVSPost2010PropOp56
 70
     1
102
RTVSPost2010Prop57
140
1.0
102
RTVSPost2010PropOp57
 70
     1
  0
XRECORD
  5
174
102
{ACAD_REACTORS
330
173
102
}
330
173
100
AcDbXrecord
280
     1
102
RTVSPost2010Prop28
280
     0
102
RTVSPost2010PropOp28
 70
     1
102
RTVSPost2010Prop29
280
     1
102
RTVSPost2010PropOp29
 70
     1
102
RTVSPost2010Prop30
280
     1
102
RTVSPost2010PropOp30
 70
     1
102
RTVSPost2010Prop31
280
     0
102
RTVSPost2010PropOp31
 70
     1
102
RTVSPost2010Prop32
280
     0
102
RTVSPost2010PropOp32
 70
     1
102
RTVSPost2010Prop33
280
     0
102
RTVSPost2010PropOp33
 70
     1
102
RTVSPost2010Prop34
280
     0
102
RTVSPost2010PropOp34
 70
     1
102
RTVSPost2010Prop35
280
     0
102
RTVSPost2010PropOp35
 70
     1
102
RTVSPost2010Prop36
280
     0
102
RTVSPost2010PropOp36
 70
     1
102
RTVSPost2010Prop37
 90
       50
102
RTVSPost2010PropOp37
 70
     1
102
RTVSPost2010Prop38
140
0.0
102
RTVSPost2010PropOp38
 70
     1
102
RTVSPost2010Prop39
140
1.0
102
RTVSPost2010PropOp39
 70
     1
102
RTVSPost2010Prop40
 90
        0
102
RTVSPost2010PropOp40
 70
     1
102
RTVSPost2010Prop41ColorIndex
 90
       18
102
RTVSPost2010Prop41ColorRGB
 90
        0
102
RTVSPost2010PropOp41
 70
     1
102
RTVSPost2010Prop42
 90
       50
102
RTVSPost2010PropOp42
 70
     1
102
RTVSPost2010Prop43
 90
        3
102
RTVSPost2010PropOp43
 70
     1
102
RTVSPost2010Prop44ColorIndex
 90
        5
102
RTVSPost2010Prop44ColorRGB
 90
      255
102
RTVSPost2010PropOp44
 70
     1
102
RTVSPost2010Prop45
280
     0
102
RTVSPost2010PropOp45
 70
     1
102
RTVSPost2010Prop46
 90
       50
102
RTVSPost2010PropOp46
 70
     1
102
RTVSPost2010Prop47
 90
       50
102
RTVSPost2010PropOp47
 70
     1
102
RTVSPost2010Prop48
 90
       50
102
RTVSPost2010PropOp48
 70
     1
102
RTVSPost2010Prop49
280
     0
102
RTVSPost2010PropOp49
 70
     1
102
RTVSPost2010Prop50
 90
       50
102
RTVSPost2010PropOp50
 70
     1
102
RTVSPost2010Prop51ColorIndex
 90
      256
102
RTVSPost2010Prop51ColorRGB
 90
-16777216
102
RTVSPost2010PropOp51
 70
     0
102
RTVSPost2010Prop52
140
1.0
102
RTVSPost2010PropOp52
 70
     0
102
RTVSPost2010Prop53
 90
        2
102
RTVSPost2010PropOp53
 70
     1
102
RTVSPost2010Prop54
  1
strokes_ogs.tif
102
RTVSPost2010PropOp54
 70
     1
102
RTVSPost2010Prop55
280
     0
102
RTVSPost2010PropOp55
 70
     1
102
RTVSPost2010Prop56
140
1.0
102
RTVSPost2010PropOp56
 70
     1
102
RTVSPost2010Prop57
140
1.0
102
RTVSPost2010PropOp57
 70
     1
  0
XRECORD
  5
182
102
{ACAD_REACTORS
330
181
102
}
330
181
100
AcDbXrecord
280
     1
102
RTVSPost2010Prop28
280
     0
102
RTVSPost2010PropOp28
 70
     1
102
RTVSPost2010Prop29
280
     1
102
RTVSPost2010PropOp29
 70
     1
102
RTVSPost2010Prop30
280
     1
102
RTVSPost2010PropOp30
 70
     1
102
RTVSPost2010Prop31
280
     0
102
RTVSPost2010PropOp31
 70
     1
102
RTVSPost2010Prop32
280
     0
102
RTVSPost2010PropOp32
 70
     1
102
RTVSPost2010Prop33
280
     0
102
RTVSPost2010PropOp33
 70
     1
102
RTVSPost2010Prop34
280
     0
102
RTVSPost2010PropOp34
 70
     1
102
RTVSPost2010Prop35
280
     0
102
RTVSPost2010PropOp35
 70
     1
102
RTVSPost2010Prop36
280
     0
102
RTVSPost2010PropOp36
 70
     1
102
RTVSPost2010Prop37
 90
       50
102
RTVSPost2010PropOp37
 70
     1
102
RTVSPost2010Prop38
140
0.0
102
RTVSPost2010PropOp38
 70
     1
102
RTVSPost2010Prop39
140
1.0
102
RTVSPost2010PropOp39
 70
     1
102
RTVSPost2010Prop40
 90
        0
102
RTVSPost2010PropOp40
 70
     1
102
RTVSPost2010Prop41ColorIndex
 90
       18
102
RTVSPost2010Prop41ColorRGB
 90
        0
102
RTVSPost2010PropOp41
 70
     1
102
RTVSPost2010Prop42
 90
       50
102
RTVSPost2010PropOp42
 70
     1
102
RTVSPost2010Prop43
 90
        3
102
RTVSPost2010PropOp43
 70
     1
102
RTVSPost2010Prop44ColorIndex
 90
        5
102
RTVSPost2010Prop44ColorRGB
 90
      255
102
RTVSPost2010PropOp44
 70
     1
102
RTVSPost2010Prop45
280
     0
102
RTVSPost2010PropOp45
 70
     1
102
RTVSPost2010Prop46
 90
       50
102
RTVSPost2010PropOp46
 70
     1
102
RTVSPost2010Prop47
 90
       50
102
RTVSPost2010PropOp47
 70
     1
102
RTVSPost2010Prop48
 90
       50
102
RTVSPost2010PropOp48
 70
     1
102
RTVSPost2010Prop49
280
     0
102
RTVSPost2010PropOp49
 70
     1
102
RTVSPost2010Prop50
 90
       50
102
RTVSPost2010PropOp50
 70
     1
102
RTVSPost2010Prop51ColorIndex
 90
      256
102
RTVSPost2010Prop51ColorRGB
 90
-16777216
102
RTVSPost2010PropOp51
 70
     0
102
RTVSPost2010Prop52
140
1.0
102
RTVSPost2010PropOp52
 70
     0
102
RTVSPost2010Prop53
 90
        2
102
RTVSPost2010PropOp53
 70
     1
102
RTVSPost2010Prop54
  1
strokes_ogs.tif
102
RTVSPost2010PropOp54
 70
     1
102
RTVSPost2010Prop55
280
     0
102
RTVSPost2010PropOp55
 70
     1
102
RTVSPost2010Prop56
140
1.0
102
RTVSPost2010PropOp56
 70
     1
102
RTVSPost2010Prop57
140
1.0
102
RTVSPost2010PropOp57
 70
     1
  0
XRECORD
  5
18A
102
{ACAD_REACTORS
330
189
102
}
330
189
100
AcDbXrecord
280
     1
102
RTVSPost2010Prop28
280
     0
102
RTVSPost2010PropOp28
 70
     1
102
RTVSPost2010Prop29
280
     1
102
RTVSPost2010PropOp29
 70
     1
102
RTVSPost2010Prop30
280
     1
102
RTVSPost2010PropOp30
 70
     1
102
RTVSPost2010Prop31
280
     0
102
RTVSPost2010PropOp31
 70
     1
102
RTVSPost2010Prop32
280
     0
102
RTVSPost2010PropOp32
 70
     1
102
RTVSPost2010Prop33
280
     0
102
RTVSPost2010PropOp33
 70
     1
102
RTVSPost2010Prop34
280
     0
102
RTVSPost2010PropOp34
 70
     1
102
RTVSPost2010Prop35
280
     0
102
RTVSPost2010PropOp35
 70
     1
102
RTVSPost2010Prop36
280
     0
102
RTVSPost2010PropOp36
 70
     1
102
RTVSPost2010Prop37
 90
       50
102
RTVSPost2010PropOp37
 70
     1
102
RTVSPost2010Prop38
140
0.0
102
RTVSPost2010PropOp38
 70
     1
102
RTVSPost2010Prop39
140
1.0
102
RTVSPost2010PropOp39
 70
     1
102
RTVSPost2010Prop40
 90
        0
102
RTVSPost2010PropOp40
 70
     1
102
RTVSPost2010Prop41ColorIndex
 90
       18
102
RTVSPost2010Prop41ColorRGB
 90
        0
102
RTVSPost2010PropOp41
 70
     1
102
RTVSPost2010Prop42
 90
       50
102
RTVSPost2010PropOp42
 70
     1
102
RTVSPost2010Prop43
 90
        3
102
RTVSPost2010PropOp43
 70
     1
102
RTVSPost2010Prop44ColorIndex
 90
        5
102
RTVSPost2010Prop44ColorRGB
 90
      255
102
RTVSPost2010PropOp44
 70
     1
102
RTVSPost2010Prop45
280
     0
102
RTVSPost2010PropOp45
 70
     1
102
RTVSPost2010Prop46
 90
       50
102
RTVSPost2010PropOp46
 70
     1
102
RTVSPost2010Prop47
 90
       50
102
RTVSPost2010PropOp47
 70
     1
102
RTVSPost2010Prop48
 90
       50
102
RTVSPost2010PropOp48
 70
     1
102
RTVSPost2010Prop49
280
     0
102
RTVSPost2010PropOp49
 70
     1
102
RTVSPost2010Prop50
 90
       50
102
RTVSPost2010PropOp50
 70
     1
102
RTVSPost2010Prop51ColorIndex
 90
      256
102
RTVSPost2010Prop51ColorRGB
 90
-16777216
102
RTVSPost2010PropOp51
 70
     0
102
RTVSPost2010Prop52
140
1.0
102
RTVSPost2010PropOp52
 70
     0
102
RTVSPost2010Prop53
 90
        2
102
RTVSPost2010PropOp53
 70
     1
102
RTVSPost2010Prop54
  1
strokes_ogs.tif
102
RTVSPost2010PropOp54
 70
     1
102
RTVSPost2010Prop55
280
     0
102
RTVSPost2010PropOp55
 70
     1
102
RTVSPost2010Prop56
140
1.0
102
RTVSPost2010PropOp56
 70
     1
102
RTVSPost2010Prop57
140
1.0
102
RTVSPost2010PropOp57
 70
     1
  0
XRECORD
  5
17C
102
{ACAD_REACTORS
330
17B
102
}
330
17B
100
AcDbXrecord
280
     1
102
RTVSPost2010Prop28
280
     0
102
RTVSPost2010PropOp28
 70
     1
102
RTVSPost2010Prop29
280
     1
102
RTVSPost2010PropOp29
 70
     1
102
RTVSPost2010Prop30
280
     1
102
RTVSPost2010PropOp30
 70
     1
102
RTVSPost2010Prop31
280
     0
102
RTVSPost2010PropOp31
 70
     1
102
RTVSPost2010Prop32
280
     0
102
RTVSPost2010PropOp32
 70
     1
102
RTVSPost2010Prop33
280
     0
102
RTVSPost2010PropOp33
 70
     1
102
RTVSPost2010Prop34
280
     0
102
RTVSPost2010PropOp34
 70
     1
102
RTVSPost2010Prop35
280
     0
102
RTVSPost2010PropOp35
 70
     1
102
RTVSPost2010Prop36
280
     0
102
RTVSPost2010PropOp36
 70
     1
102
RTVSPost2010Prop37
 90
       50
102
RTVSPost2010PropOp37
 70
     1
102
RTVSPost2010Prop38
140
0.0
102
RTVSPost2010PropOp38
 70
     1
102
RTVSPost2010Prop39
140
1.0
102
RTVSPost2010PropOp39
 70
     1
102
RTVSPost2010Prop40
 90
        0
102
RTVSPost2010PropOp40
 70
     1
102
RTVSPost2010Prop41ColorIndex
 90
       18
102
RTVSPost2010Prop41ColorRGB
 90
        0
102
RTVSPost2010PropOp41
 70
     1
102
RTVSPost2010Prop42
 90
       50
102
RTVSPost2010PropOp42
 70
     1
102
RTVSPost2010Prop43
 90
        3
102
RTVSPost2010PropOp43
 70
     1
102
RTVSPost2010Prop44ColorIndex
 90
        5
102
RTVSPost2010Prop44ColorRGB
 90
      255
102
RTVSPost2010PropOp44
 70
     1
102
RTVSPost2010Prop45
280
     0
102
RTVSPost2010PropOp45
 70
     1
102
RTVSPost2010Prop46
 90
       50
102
RTVSPost2010PropOp46
 70
     1
102
RTVSPost2010Prop47
 90
       50
102
RTVSPost2010PropOp47
 70
     1
102
RTVSPost2010Prop48
 90
       50
102
RTVSPost2010PropOp48
 70
     1
102
RTVSPost2010Prop49
280
     0
102
RTVSPost2010PropOp49
 70
     1
102
RTVSPost2010Prop50
 90
       50
102
RTVSPost2010PropOp50
 70
     1
102
RTVSPost2010Prop51ColorIndex
 90
      256
102
RTVSPost2010Prop51ColorRGB
 90
-16777216
102
RTVSPost2010PropOp51
 70
     0
102
RTVSPost2010Prop52
140
1.0
102
RTVSPost2010PropOp52
 70
     0
102
RTVSPost2010Prop53
 90
        2
102
RTVSPost2010PropOp53
 70
     1
102
RTVSPost2010Prop54
  1
strokes_ogs.tif
102
RTVSPost2010PropOp54
 70
     1
102
RTVSPost2010Prop55
280
     0
102
RTVSPost2010PropOp55
 70
     1
102
RTVSPost2010Prop56
140
1.0
102
RTVSPost2010PropOp56
 70
     1
102
RTVSPost2010Prop57
140
1.0
102
RTVSPost2010PropOp57
 70
     1
  0
XRECORD
  5
180
102
{ACAD_REACTORS
330
17F
102
}
330
17F
100
AcDbXrecord
280
     1
102
RTVSPost2010Prop28
280
     0
102
RTVSPost2010PropOp28
 70
     1
102
RTVSPost2010Prop29
280
     1
102
RTVSPost2010PropOp29
 70
     1
102
RTVSPost2010Prop30
280
     1
102
RTVSPost2010PropOp30
 70
     1
102
RTVSPost2010Prop31
280
     0
102
RTVSPost2010PropOp31
 70
     1
102
RTVSPost2010Prop32
280
     0
102
RTVSPost2010PropOp32
 70
     1
102
RTVSPost2010Prop33
280
     0
102
RTVSPost2010PropOp33
 70
     1
102
RTVSPost2010Prop34
280
     0
102
RTVSPost2010PropOp34
 70
     1
102
RTVSPost2010Prop35
280
     0
102
RTVSPost2010PropOp35
 70
     1
102
RTVSPost2010Prop36
280
     0
102
RTVSPost2010PropOp36
 70
     1
102
RTVSPost2010Prop37
 90
       50
102
RTVSPost2010PropOp37
 70
     1
102
RTVSPost2010Prop38
140
0.0
102
RTVSPost2010PropOp38
 70
     1
102
RTVSPost2010Prop39
140
1.0
102
RTVSPost2010PropOp39
 70
     1
102
RTVSPost2010Prop40
 90
        0
102
RTVSPost2010PropOp40
 70
     1
102
RTVSPost2010Prop41ColorIndex
 90
       18
102
RTVSPost2010Prop41ColorRGB
 90
        0
102
RTVSPost2010PropOp41
 70
     1
102
RTVSPost2010Prop42
 90
       50
102
RTVSPost2010PropOp42
 70
     1
102
RTVSPost2010Prop43
 90
        3
102
RTVSPost2010PropOp43
 70
     1
102
RTVSPost2010Prop44ColorIndex
 90
        5
102
RTVSPost2010Prop44ColorRGB
 90
      255
102
RTVSPost2010PropOp44
 70
     1
102
RTVSPost2010Prop45
280
     0
102
RTVSPost2010PropOp45
 70
     1
102
RTVSPost2010Prop46
 90
       50
102
RTVSPost2010PropOp46
 70
     1
102
RTVSPost2010Prop47
 90
       50
102
RTVSPost2010PropOp47
 70
     1
102
RTVSPost2010Prop48
 90
       50
102
RTVSPost2010PropOp48
 70
     1
102
RTVSPost2010Prop49
280
     0
102
RTVSPost2010PropOp49
 70
     1
102
RTVSPost2010Prop50
 90
       50
102
RTVSPost2010PropOp50
 70
     1
102
RTVSPost2010Prop51ColorIndex
 90
      256
102
RTVSPost2010Prop51ColorRGB
 90
-16777216
102
RTVSPost2010PropOp51
 70
     0
102
RTVSPost2010Prop52
140
1.0
102
RTVSPost2010PropOp52
 70
     0
102
RTVSPost2010Prop53
 90
        2
102
RTVSPost2010PropOp53
 70
     1
102
RTVSPost2010Prop54
  1
strokes_ogs.tif
102
RTVSPost2010PropOp54
 70
     1
102
RTVSPost2010Prop55
280
     0
102
RTVSPost2010PropOp55
 70
     1
102
RTVSPost2010Prop56
140
1.0
102
RTVSPost2010PropOp56
 70
     1
102
RTVSPost2010Prop57
140
1.0
102
RTVSPost2010PropOp57
 70
     1
  0
XRECORD
  5
19A
102
{ACAD_REACTORS
330
199
102
}
330
199
100
AcDbXrecord
280
     1
102
RTVSPost2010Prop28
280
     0
102
RTVSPost2010PropOp28
 70
     0
102
RTVSPost2010Prop29
280
     1
102
RTVSPost2010PropOp29
 70
     0
102
RTVSPost2010Prop30
280
     1
102
RTVSPost2010PropOp30
 70
     0
102
RTVSPost2010Prop31
280
     0
102
RTVSPost2010PropOp31
 70
     0
102
RTVSPost2010Prop32
280
     0
102
RTVSPost2010PropOp32
 70
     0
102
RTVSPost2010Prop33
280
     0
102
RTVSPost2010PropOp33
 70
     0
102
RTVSPost2010Prop34
280
     0
102
RTVSPost2010PropOp34
 70
     0
102
RTVSPost2010Prop35
280
     0
102
RTVSPost2010PropOp35
 70
     0
102
RTVSPost2010Prop36
280
     0
102
RTVSPost2010PropOp36
 70
     0
102
RTVSPost2010Prop37
 90
       50
102
RTVSPost2010PropOp37
 70
     0
102
RTVSPost2010Prop38
140
0.0
102
RTVSPost2010PropOp38
 70
     0
102
RTVSPost2010Prop39
140
1.0
102
RTVSPost2010PropOp39
 70
     0
102
RTVSPost2010Prop40
 90
        0
102
RTVSPost2010PropOp40
 70
     0
102
RTVSPost2010Prop41ColorIndex
 90
       18
102
RTVSPost2010Prop41ColorRGB
 90
        0
102
RTVSPost2010PropOp41
 70
     0
102
RTVSPost2010Prop42
 90
       50
102
RTVSPost2010PropOp42
 70
     0
102
RTVSPost2010Prop43
 90
        3
102
RTVSPost2010PropOp43
 70
     0
102
RTVSPost2010Prop44ColorIndex
 90
        5
102
RTVSPost2010Prop44ColorRGB
 90
      255
102
RTVSPost2010PropOp44
 70
     0
102
RTVSPost2010Prop45
280
     0
102
RTVSPost2010PropOp45
 70
     0
102
RTVSPost2010Prop46
 90
       50
102
RTVSPost2010PropOp46
 70
     0
102
RTVSPost2010Prop47
 90
       50
102
RTVSPost2010PropOp47
 70
     0
102
RTVSPost2010Prop48
 90
       50
102
RTVSPost2010PropOp48
 70
     0
102
RTVSPost2010Prop49
280
     0
102
RTVSPost2010PropOp49
 70
     0
102
RTVSPost2010Prop50
 90
       50
102
RTVSPost2010PropOp50
 70
     0
102
RTVSPost2010Prop51ColorIndex
 90
      256
102
RTVSPost2010Prop51ColorRGB
 90
-16777216
102
RTVSPost2010PropOp51
 70
     0
102
RTVSPost2010Prop52
140
1.0
102
RTVSPost2010PropOp52
 70
     0
102
RTVSPost2010Prop53
 90
        2
102
RTVSPost2010PropOp53
 70
     0
102
RTVSPost2010Prop54
  1
strokes_ogs.tif
102
RTVSPost2010PropOp54
 70
     0
102
RTVSPost2010Prop55
280
     0
102
RTVSPost2010PropOp55
 70
     0
102
RTVSPost2010Prop56
140
1.0
102
RTVSPost2010PropOp56
 70
     0
102
RTVSPost2010Prop57
140
1.0
102
RTVSPost2010PropOp57
 70
     0
  0
XRECORD
  5
188
102
{ACAD_REACTORS
330
187
102
}
330
187
100
AcDbXrecord
280
     1
102
RTVSPost2010Prop28
280
     0
102
RTVSPost2010PropOp28
 70
     1
102
RTVSPost2010Prop29
280
     1
102
RTVSPost2010PropOp29
 70
     1
102
RTVSPost2010Prop30
280
     1
102
RTVSPost2010PropOp30
 70
     1
102
RTVSPost2010Prop31
280
     0
102
RTVSPost2010PropOp31
 70
     1
102
RTVSPost2010Prop32
280
     0
102
RTVSPost2010PropOp32
 70
     1
102
RTVSPost2010Prop33
280
     0
102
RTVSPost2010PropOp33
 70
     1
102
RTVSPost2010Prop34
280
     0
102
RTVSPost2010PropOp34
 70
     1
102
RTVSPost2010Prop35
280
     0
102
RTVSPost2010PropOp35
 70
     1
102
RTVSPost2010Prop36
280
     0
102
RTVSPost2010PropOp36
 70
     1
102
RTVSPost2010Prop37
 90
       50
102
RTVSPost2010PropOp37
 70
     1
102
RTVSPost2010Prop38
140
0.0
102
RTVSPost2010PropOp38
 70
     1
102
RTVSPost2010Prop39
140
1.0
102
RTVSPost2010PropOp39
 70
     1
102
RTVSPost2010Prop40
 90
        0
102
RTVSPost2010PropOp40
 70
     1
102
RTVSPost2010Prop41ColorIndex
 90
       18
102
RTVSPost2010Prop41ColorRGB
 90
        0
102
RTVSPost2010PropOp41
 70
     1
102
RTVSPost2010Prop42
 90
       50
102
RTVSPost2010PropOp42
 70
     1
102
RTVSPost2010Prop43
 90
        3
102
RTVSPost2010PropOp43
 70
     1
102
RTVSPost2010Prop44ColorIndex
 90
        5
102
RTVSPost2010Prop44ColorRGB
 90
      255
102
RTVSPost2010PropOp44
 70
     1
102
RTVSPost2010Prop45
280
     0
102
RTVSPost2010PropOp45
 70
     1
102
RTVSPost2010Prop46
 90
       50
102
RTVSPost2010PropOp46
 70
     1
102
RTVSPost2010Prop47
 90
       50
102
RTVSPost2010PropOp47
 70
     1
102
RTVSPost2010Prop48
 90
       50
102
RTVSPost2010PropOp48
 70
     1
102
RTVSPost2010Prop49
280
     0
102
RTVSPost2010PropOp49
 70
     1
102
RTVSPost2010Prop50
 90
       50
102
RTVSPost2010PropOp50
 70
     1
102
RTVSPost2010Prop51ColorIndex
 90
      256
102
RTVSPost2010Prop51ColorRGB
 90
-16777216
102
RTVSPost2010PropOp51
 70
     0
102
RTVSPost2010Prop52
140
1.0
102
RTVSPost2010PropOp52
 70
     0
102
RTVSPost2010Prop53
 90
        2
102
RTVSPost2010PropOp53
 70
     1
102
RTVSPost2010Prop54
  1
strokes_ogs.tif
102
RTVSPost2010PropOp54
 70
     1
102
RTVSPost2010Prop55
280
     0
102
RTVSPost2010PropOp55
 70
     1
102
RTVSPost2010Prop56
140
1.0
102
RTVSPost2010PropOp56
 70
     1
102
RTVSPost2010Prop57
140
1.0
102
RTVSPost2010PropOp57
 70
     1
  0
XRECORD
  5
16C
102
{ACAD_REACTORS
330
16B
102
}
330
16B
100
AcDbXrecord
280
     1
102
RTVSPost2010Prop28
280
     0
102
RTVSPost2010PropOp28
 70
     1
102
RTVSPost2010Prop29
280
     1
102
RTVSPost2010PropOp29
 70
     1
102
RTVSPost2010Prop30
280
     1
102
RTVSPost2010PropOp30
 70
     1
102
RTVSPost2010Prop31
280
     0
102
RTVSPost2010PropOp31
 70
     1
102
RTVSPost2010Prop32
280
     0
102
RTVSPost2010PropOp32
 70
     1
102
RTVSPost2010Prop33
280
     0
102
RTVSPost2010PropOp33
 70
     1
102
RTVSPost2010Prop34
280
     0
102
RTVSPost2010PropOp34
 70
     1
102
RTVSPost2010Prop35
280
     0
102
RTVSPost2010PropOp35
 70
     1
102
RTVSPost2010Prop36
280
     0
102
RTVSPost2010PropOp36
 70
     1
102
RTVSPost2010Prop37
 90
       50
102
RTVSPost2010PropOp37
 70
     1
102
RTVSPost2010Prop38
140
0.0
102
RTVSPost2010PropOp38
 70
     1
102
RTVSPost2010Prop39
140
1.0
102
RTVSPost2010PropOp39
 70
     1
102
RTVSPost2010Prop40
 90
        0
102
RTVSPost2010PropOp40
 70
     1
102
RTVSPost2010Prop41ColorIndex
 90
       18
102
RTVSPost2010Prop41ColorRGB
 90
        0
102
RTVSPost2010PropOp41
 70
     1
102
RTVSPost2010Prop42
 90
       50
102
RTVSPost2010PropOp42
 70
     1
102
RTVSPost2010Prop43
 90
        3
102
RTVSPost2010PropOp43
 70
     1
102
RTVSPost2010Prop44ColorIndex
 90
        5
102
RTVSPost2010Prop44ColorRGB
 90
      255
102
RTVSPost2010PropOp44
 70
     1
102
RTVSPost2010Prop45
280
     0
102
RTVSPost2010PropOp45
 70
     1
102
RTVSPost2010Prop46
 90
       50
102
RTVSPost2010PropOp46
 70
     1
102
RTVSPost2010Prop47
 90
       50
102
RTVSPost2010PropOp47
 70
     1
102
RTVSPost2010Prop48
 90
       50
102
RTVSPost2010PropOp48
 70
     1
102
RTVSPost2010Prop49
280
     0
102
RTVSPost2010PropOp49
 70
     1
102
RTVSPost2010Prop50
 90
       50
102
RTVSPost2010PropOp50
 70
     1
102
RTVSPost2010Prop51ColorIndex
 90
      256
102
RTVSPost2010Prop51ColorRGB
 90
-16777216
102
RTVSPost2010PropOp51
 70
     0
102
RTVSPost2010Prop52
140
1.0
102
RTVSPost2010PropOp52
 70
     0
102
RTVSPost2010Prop53
 90
        2
102
RTVSPost2010PropOp53
 70
     1
102
RTVSPost2010Prop54
  1
strokes_ogs.tif
102
RTVSPost2010PropOp54
 70
     1
102
RTVSPost2010Prop55
280
     0
102
RTVSPost2010PropOp55
 70
     1
102
RTVSPost2010Prop56
140
1.0
102
RTVSPost2010PropOp56
 70
     1
102
RTVSPost2010Prop57
140
1.0
102
RTVSPost2010PropOp57
 70
     1
  0
XRECORD
  5
16E
102
{ACAD_REACTORS
330
16D
102
}
330
16D
100
AcDbXrecord
280
     1
102
RTVSPost2010Prop28
280
     0
102
RTVSPost2010PropOp28
 70
     1
102
RTVSPost2010Prop29
280
     1
102
RTVSPost2010PropOp29
 70
     1
102
RTVSPost2010Prop30
280
     1
102
RTVSPost2010PropOp30
 70
     1
102
RTVSPost2010Prop31
280
     0
102
RTVSPost2010PropOp31
 70
     1
102
RTVSPost2010Prop32
280
     0
102
RTVSPost2010PropOp32
 70
     1
102
RTVSPost2010Prop33
280
     0
102
RTVSPost2010PropOp33
 70
     1
102
RTVSPost2010Prop34
280
     0
102
RTVSPost2010PropOp34
 70
     1
102
RTVSPost2010Prop35
280
     0
102
RTVSPost2010PropOp35
 70
     1
102
RTVSPost2010Prop36
280
     0
102
RTVSPost2010PropOp36
 70
     1
102
RTVSPost2010Prop37
 90
       50
102
RTVSPost2010PropOp37
 70
     1
102
RTVSPost2010Prop38
140
0.0
102
RTVSPost2010PropOp38
 70
     1
102
RTVSPost2010Prop39
140
1.0
102
RTVSPost2010PropOp39
 70
     1
102
RTVSPost2010Prop40
 90
        0
102
RTVSPost2010PropOp40
 70
     1
102
RTVSPost2010Prop41ColorIndex
 90
       18
102
RTVSPost2010Prop41ColorRGB
 90
        0
102
RTVSPost2010PropOp41
 70
     1
102
RTVSPost2010Prop42
 90
       50
102
RTVSPost2010PropOp42
 70
     1
102
RTVSPost2010Prop43
 90
        3
102
RTVSPost2010PropOp43
 70
     1
102
RTVSPost2010Prop44ColorIndex
 90
        5
102
RTVSPost2010Prop44ColorRGB
 90
      255
102
RTVSPost2010PropOp44
 70
     1
102
RTVSPost2010Prop45
280
     0
102
RTVSPost2010PropOp45
 70
     1
102
RTVSPost2010Prop46
 90
       50
102
RTVSPost2010PropOp46
 70
     1
102
RTVSPost2010Prop47
 90
       50
102
RTVSPost2010PropOp47
 70
     1
102
RTVSPost2010Prop48
 90
       50
102
RTVSPost2010PropOp48
 70
     1
102
RTVSPost2010Prop49
280
     0
102
RTVSPost2010PropOp49
 70
     1
102
RTVSPost2010Prop50
 90
       50
102
RTVSPost2010PropOp50
 70
     1
102
RTVSPost2010Prop51ColorIndex
 90
      256
102
RTVSPost2010Prop51ColorRGB
 90
-16777216
102
RTVSPost2010PropOp51
 70
     0
102
RTVSPost2010Prop52
140
1.0
102
RTVSPost2010PropOp52
 70
     0
102
RTVSPost2010Prop53
 90
        2
102
RTVSPost2010PropOp53
 70
     1
102
RTVSPost2010Prop54
  1
strokes_ogs.tif
102
RTVSPost2010PropOp54
 70
     1
102
RTVSPost2010Prop55
280
     0
102
RTVSPost2010PropOp55
 70
     1
102
RTVSPost2010Prop56
140
1.0
102
RTVSPost2010PropOp56
 70
     1
102
RTVSPost2010Prop57
140
1.0
102
RTVSPost2010PropOp57
 70
     1
  0
XRECORD
  5
170
102
{ACAD_REACTORS
330
16F
102
}
330
16F
100
AcDbXrecord
280
     1
102
RTVSPost2010Prop28
280
     0
102
RTVSPost2010PropOp28
 70
     1
102
RTVSPost2010Prop29
280
     1
102
RTVSPost2010PropOp29
 70
     1
102
RTVSPost2010Prop30
280
     1
102
RTVSPost2010PropOp30
 70
     1
102
RTVSPost2010Prop31
280
     0
102
RTVSPost2010PropOp31
 70
     1
102
RTVSPost2010Prop32
280
     0
102
RTVSPost2010PropOp32
 70
     1
102
RTVSPost2010Prop33
280
     0
102
RTVSPost2010PropOp33
 70
     1
102
RTVSPost2010Prop34
280
     0
102
RTVSPost2010PropOp34
 70
     1
102
RTVSPost2010Prop35
280
     0
102
RTVSPost2010PropOp35
 70
     1
102
RTVSPost2010Prop36
280
     0
102
RTVSPost2010PropOp36
 70
     1
102
RTVSPost2010Prop37
 90
       50
102
RTVSPost2010PropOp37
 70
     1
102
RTVSPost2010Prop38
140
0.0
102
RTVSPost2010PropOp38
 70
     1
102
RTVSPost2010Prop39
140
1.0
102
RTVSPost2010PropOp39
 70
     1
102
RTVSPost2010Prop40
 90
        0
102
RTVSPost2010PropOp40
 70
     1
102
RTVSPost2010Prop41ColorIndex
 90
       18
102
RTVSPost2010Prop41ColorRGB
 90
        0
102
RTVSPost2010PropOp41
 70
     1
102
RTVSPost2010Prop42
 90
       50
102
RTVSPost2010PropOp42
 70
     1
102
RTVSPost2010Prop43
 90
        3
102
RTVSPost2010PropOp43
 70
     1
102
RTVSPost2010Prop44ColorIndex
 90
        5
102
RTVSPost2010Prop44ColorRGB
 90
      255
102
RTVSPost2010PropOp44
 70
     1
102
RTVSPost2010Prop45
280
     0
102
RTVSPost2010PropOp45
 70
     1
102
RTVSPost2010Prop46
 90
       50
102
RTVSPost2010PropOp46
 70
     1
102
RTVSPost2010Prop47
 90
       50
102
RTVSPost2010PropOp47
 70
     1
102
RTVSPost2010Prop48
 90
       50
102
RTVSPost2010PropOp48
 70
     1
102
RTVSPost2010Prop49
280
     0
102
RTVSPost2010PropOp49
 70
     1
102
RTVSPost2010Prop50
 90
       50
102
RTVSPost2010PropOp50
 70
     1
102
RTVSPost2010Prop51ColorIndex
 90
      256
102
RTVSPost2010Prop51ColorRGB
 90
-16777216
102
RTVSPost2010PropOp51
 70
     0
102
RTVSPost2010Prop52
140
1.0
102
RTVSPost2010PropOp52
 70
     0
102
RTVSPost2010Prop53
 90
        2
102
RTVSPost2010PropOp53
 70
     1
102
RTVSPost2010Prop54
  1
strokes_ogs.tif
102
RTVSPost2010PropOp54
 70
     1
102
RTVSPost2010Prop55
280
     0
102
RTVSPost2010PropOp55
 70
     1
102
RTVSPost2010Prop56
140
1.0
102
RTVSPost2010PropOp56
 70
     1
102
RTVSPost2010Prop57
140
1.0
102
RTVSPost2010PropOp57
 70
     1
  0
XRECORD
  5
172
102
{ACAD_REACTORS
330
171
102
}
330
171
100
AcDbXrecord
280
     1
102
RTVSPost2010Prop28
280
     0
102
RTVSPost2010PropOp28
 70
     1
102
RTVSPost2010Prop29
280
     1
102
RTVSPost2010PropOp29
 70
     1
102
RTVSPost2010Prop30
280
     1
102
RTVSPost2010PropOp30
 70
     1
102
RTVSPost2010Prop31
280
     0
102
RTVSPost2010PropOp31
 70
     1
102
RTVSPost2010Prop32
280
     0
102
RTVSPost2010PropOp32
 70
     1
102
RTVSPost2010Prop33
280
     0
102
RTVSPost2010PropOp33
 70
     1
102
RTVSPost2010Prop34
280
     0
102
RTVSPost2010PropOp34
 70
     1
102
RTVSPost2010Prop35
280
     0
102
RTVSPost2010PropOp35
 70
     1
102
RTVSPost2010Prop36
280
     0
102
RTVSPost2010PropOp36
 70
     1
102
RTVSPost2010Prop37
 90
       50
102
RTVSPost2010PropOp37
 70
     1
102
RTVSPost2010Prop38
140
0.0
102
RTVSPost2010PropOp38
 70
     1
102
RTVSPost2010Prop39
140
1.0
102
RTVSPost2010PropOp39
 70
     1
102
RTVSPost2010Prop40
 90
        0
102
RTVSPost2010PropOp40
 70
     1
102
RTVSPost2010Prop41ColorIndex
 90
       18
102
RTVSPost2010Prop41ColorRGB
 90
        0
102
RTVSPost2010PropOp41
 70
     1
102
RTVSPost2010Prop42
 90
       50
102
RTVSPost2010PropOp42
 70
     1
102
RTVSPost2010Prop43
 90
        3
102
RTVSPost2010PropOp43
 70
     1
102
RTVSPost2010Prop44ColorIndex
 90
        5
102
RTVSPost2010Prop44ColorRGB
 90
      255
102
RTVSPost2010PropOp44
 70
     1
102
RTVSPost2010Prop45
280
     0
102
RTVSPost2010PropOp45
 70
     1
102
RTVSPost2010Prop46
 90
       50
102
RTVSPost2010PropOp46
 70
     1
102
RTVSPost2010Prop47
 90
       50
102
RTVSPost2010PropOp47
 70
     1
102
RTVSPost2010Prop48
 90
       50
102
RTVSPost2010PropOp48
 70
     1
102
RTVSPost2010Prop49
280
     0
102
RTVSPost2010PropOp49
 70
     1
102
RTVSPost2010Prop50
 90
       50
102
RTVSPost2010PropOp50
 70
     1
102
RTVSPost2010Prop51ColorIndex
 90
      256
102
RTVSPost2010Prop51ColorRGB
 90
-16777216
102
RTVSPost2010PropOp51
 70
     0
102
RTVSPost2010Prop52
140
1.0
102
RTVSPost2010PropOp52
 70
     0
102
RTVSPost2010Prop53
 90
        2
102
RTVSPost2010PropOp53
 70
     1
102
RTVSPost2010Prop54
  1
strokes_ogs.tif
102
RTVSPost2010PropOp54
 70
     1
102
RTVSPost2010Prop55
280
     0
102
RTVSPost2010PropOp55
 70
     1
102
RTVSPost2010Prop56
140
1.0
102
RTVSPost2010PropOp56
 70
     1
102
RTVSPost2010Prop57
140
1.0
102
RTVSPost2010PropOp57
 70
     1
  0
XRECORD
  5
17A
102
{ACAD_REACTORS
330
179
102
}
330
179
100
AcDbXrecord
280
     1
102
RTVSPost2010Prop28
280
     0
102
RTVSPost2010PropOp28
 70
     1
102
RTVSPost2010Prop29
280
     1
102
RTVSPost2010PropOp29
 70
     1
102
RTVSPost2010Prop30
280
     1
102
RTVSPost2010PropOp30
 70
     1
102
RTVSPost2010Prop31
280
     0
102
RTVSPost2010PropOp31
 70
     1
102
RTVSPost2010Prop32
280
     0
102
RTVSPost2010PropOp32
 70
     1
102
RTVSPost2010Prop33
280
     0
102
RTVSPost2010PropOp33
 70
     1
102
RTVSPost2010Prop34
280
     0
102
RTVSPost2010PropOp34
 70
     1
102
RTVSPost2010Prop35
280
     0
102
RTVSPost2010PropOp35
 70
     1
102
RTVSPost2010Prop36
280
     0
102
RTVSPost2010PropOp36
 70
     1
102
RTVSPost2010Prop37
 90
       50
102
RTVSPost2010PropOp37
 70
     1
102
RTVSPost2010Prop38
140
0.0
102
RTVSPost2010PropOp38
 70
     1
102
RTVSPost2010Prop39
140
1.0
102
RTVSPost2010PropOp39
 70
     1
102
RTVSPost2010Prop40
 90
        0
102
RTVSPost2010PropOp40
 70
     1
102
RTVSPost2010Prop41ColorIndex
 90
       18
102
RTVSPost2010Prop41ColorRGB
 90
        0
102
RTVSPost2010PropOp41
 70
     1
102
RTVSPost2010Prop42
 90
       50
102
RTVSPost2010PropOp42
 70
     1
102
RTVSPost2010Prop43
 90
        3
102
RTVSPost2010PropOp43
 70
     1
102
RTVSPost2010Prop44ColorIndex
 90
        5
102
RTVSPost2010Prop44ColorRGB
 90
      255
102
RTVSPost2010PropOp44
 70
     1
102
RTVSPost2010Prop45
280
     0
102
RTVSPost2010PropOp45
 70
     1
102
RTVSPost2010Prop46
 90
       50
102
RTVSPost2010PropOp46
 70
     1
102
RTVSPost2010Prop47
 90
       50
102
RTVSPost2010PropOp47
 70
     1
102
RTVSPost2010Prop48
 90
       50
102
RTVSPost2010PropOp48
 70
     1
102
RTVSPost2010Prop49
280
     0
102
RTVSPost2010PropOp49
 70
     1
102
RTVSPost2010Prop50
 90
       50
102
RTVSPost2010PropOp50
 70
     1
102
RTVSPost2010Prop51ColorIndex
 90
      256
102
RTVSPost2010Prop51ColorRGB
 90
-16777216
102
RTVSPost2010PropOp51
 70
     0
102
RTVSPost2010Prop52
140
1.0
102
RTVSPost2010PropOp52
 70
     0
102
RTVSPost2010Prop53
 90
        2
102
RTVSPost2010PropOp53
 70
     1
102
RTVSPost2010Prop54
  1
strokes_ogs.tif
102
RTVSPost2010PropOp54
 70
     1
102
RTVSPost2010Prop55
280
     0
102
RTVSPost2010PropOp55
 70
     1
102
RTVSPost2010Prop56
140
1.0
102
RTVSPost2010PropOp56
 70
     1
102
RTVSPost2010Prop57
140
1.0
102
RTVSPost2010PropOp57
 70
     1
  0
XRECORD
  5
196
102
{ACAD_REACTORS
330
195
102
}
330
195
100
AcDbXrecord
280
     1
102
RTVSPost2010Prop28
280
     0
102
RTVSPost2010PropOp28
 70
     0
102
RTVSPost2010Prop29
280
     1
102
RTVSPost2010PropOp29
 70
     0
102
RTVSPost2010Prop30
280
     1
102
RTVSPost2010PropOp30
 70
     0
102
RTVSPost2010Prop31
280
     0
102
RTVSPost2010PropOp31
 70
     0
102
RTVSPost2010Prop32
280
     0
102
RTVSPost2010PropOp32
 70
     0
102
RTVSPost2010Prop33
280
     0
102
RTVSPost2010PropOp33
 70
     0
102
RTVSPost2010Prop34
280
     0
102
RTVSPost2010PropOp34
 70
     0
102
RTVSPost2010Prop35
280
     0
102
RTVSPost2010PropOp35
 70
     0
102
RTVSPost2010Prop36
280
     0
102
RTVSPost2010PropOp36
 70
     0
102
RTVSPost2010Prop37
 90
       50
102
RTVSPost2010PropOp37
 70
     0
102
RTVSPost2010Prop38
140
0.0
102
RTVSPost2010PropOp38
 70
     0
102
RTVSPost2010Prop39
140
1.0
102
RTVSPost2010PropOp39
 70
     0
102
RTVSPost2010Prop40
 90
        0
102
RTVSPost2010PropOp40
 70
     0
102
RTVSPost2010Prop41ColorIndex
 90
       18
102
RTVSPost2010Prop41ColorRGB
 90
        0
102
RTVSPost2010PropOp41
 70
     0
102
RTVSPost2010Prop42
 90
       50
102
RTVSPost2010PropOp42
 70
     0
102
RTVSPost2010Prop43
 90
        3
102
RTVSPost2010PropOp43
 70
     0
102
RTVSPost2010Prop44ColorIndex
 90
        5
102
RTVSPost2010Prop44ColorRGB
 90
      255
102
RTVSPost2010PropOp44
 70
     0
102
RTVSPost2010Prop45
280
     0
102
RTVSPost2010PropOp45
 70
     0
102
RTVSPost2010Prop46
 90
       50
102
RTVSPost2010PropOp46
 70
     0
102
RTVSPost2010Prop47
 90
       50
102
RTVSPost2010PropOp47
 70
     0
102
RTVSPost2010Prop48
 90
       50
102
RTVSPost2010PropOp48
 70
     0
102
RTVSPost2010Prop49
280
     0
102
RTVSPost2010PropOp49
 70
     0
102
RTVSPost2010Prop50
 90
       50
102
RTVSPost2010PropOp50
 70
     0
102
RTVSPost2010Prop51ColorIndex
 90
      256
102
RTVSPost2010Prop51ColorRGB
 90
-16777216
102
RTVSPost2010PropOp51
 70
     0
102
RTVSPost2010Prop52
140
1.0
102
RTVSPost2010PropOp52
 70
     0
102
RTVSPost2010Prop53
 90
        2
102
RTVSPost2010PropOp53
 70
     0
102
RTVSPost2010Prop54
  1
strokes_ogs.tif
102
RTVSPost2010PropOp54
 70
     0
102
RTVSPost2010Prop55
280
     0
102
RTVSPost2010PropOp55
 70
     0
102
RTVSPost2010Prop56
140
1.0
102
RTVSPost2010PropOp56
 70
     0
102
RTVSPost2010Prop57
140
1.0
102
RTVSPost2010PropOp57
 70
     0
  0
XRECORD
  5
186
102
{ACAD_REACTORS
330
185
102
}
330
185
100
AcDbXrecord
280
     1
102
RTVSPost2010Prop28
280
     0
102
RTVSPost2010PropOp28
 70
     1
102
RTVSPost2010Prop29
280
     1
102
RTVSPost2010PropOp29
 70
     1
102
RTVSPost2010Prop30
280
     1
102
RTVSPost2010PropOp30
 70
     1
102
RTVSPost2010Prop31
280
     0
102
RTVSPost2010PropOp31
 70
     1
102
RTVSPost2010Prop32
280
     0
102
RTVSPost2010PropOp32
 70
     1
102
RTVSPost2010Prop33
280
     0
102
RTVSPost2010PropOp33
 70
     1
102
RTVSPost2010Prop34
280
     0
102
RTVSPost2010PropOp34
 70
     1
102
RTVSPost2010Prop35
280
     0
102
RTVSPost2010PropOp35
 70
     1
102
RTVSPost2010Prop36
280
     0
102
RTVSPost2010PropOp36
 70
     1
102
RTVSPost2010Prop37
 90
       50
102
RTVSPost2010PropOp37
 70
     1
102
RTVSPost2010Prop38
140
0.0
102
RTVSPost2010PropOp38
 70
     1
102
RTVSPost2010Prop39
140
1.0
102
RTVSPost2010PropOp39
 70
     1
102
RTVSPost2010Prop40
 90
        0
102
RTVSPost2010PropOp40
 70
     1
102
RTVSPost2010Prop41ColorIndex
 90
       18
102
RTVSPost2010Prop41ColorRGB
 90
        0
102
RTVSPost2010PropOp41
 70
     1
102
RTVSPost2010Prop42
 90
       50
102
RTVSPost2010PropOp42
 70
     1
102
RTVSPost2010Prop43
 90
        3
102
RTVSPost2010PropOp43
 70
     1
102
RTVSPost2010Prop44ColorIndex
 90
        5
102
RTVSPost2010Prop44ColorRGB
 90
      255
102
RTVSPost2010PropOp44
 70
     1
102
RTVSPost2010Prop45
280
     0
102
RTVSPost2010PropOp45
 70
     1
102
RTVSPost2010Prop46
 90
       50
102
RTVSPost2010PropOp46
 70
     1
102
RTVSPost2010Prop47
 90
       50
102
RTVSPost2010PropOp47
 70
     1
102
RTVSPost2010Prop48
 90
       50
102
RTVSPost2010PropOp48
 70
     1
102
RTVSPost2010Prop49
280
     0
102
RTVSPost2010PropOp49
 70
     1
102
RTVSPost2010Prop50
 90
       50
102
RTVSPost2010PropOp50
 70
     1
102
RTVSPost2010Prop51ColorIndex
 90
      256
102
RTVSPost2010Prop51ColorRGB
 90
-16777216
102
RTVSPost2010PropOp51
 70
     0
102
RTVSPost2010Prop52
140
1.0
102
RTVSPost2010PropOp52
 70
     0
102
RTVSPost2010Prop53
 90
        2
102
RTVSPost2010PropOp53
 70
     1
102
RTVSPost2010Prop54
  1
strokes_ogs.tif
102
RTVSPost2010PropOp54
 70
     1
102
RTVSPost2010Prop55
280
     0
102
RTVSPost2010PropOp55
 70
     1
102
RTVSPost2010Prop56
140
1.0
102
RTVSPost2010PropOp56
 70
     1
102
RTVSPost2010Prop57
140
1.0
102
RTVSPost2010PropOp57
 70
     1
  0
XRECORD
  5
198
102
{ACAD_REACTORS
330
197
102
}
330
197
100
AcDbXrecord
280
     1
102
RTVSPost2010Prop28
280
     0
102
RTVSPost2010PropOp28
 70
     0
102
RTVSPost2010Prop29
280
     1
102
RTVSPost2010PropOp29
 70
     0
102
RTVSPost2010Prop30
280
     1
102
RTVSPost2010PropOp30
 70
     0
102
RTVSPost2010Prop31
280
     0
102
RTVSPost2010PropOp31
 70
     0
102
RTVSPost2010Prop32
280
     0
102
RTVSPost2010PropOp32
 70
     0
102
RTVSPost2010Prop33
280
     0
102
RTVSPost2010PropOp33
 70
     0
102
RTVSPost2010Prop34
280
     0
102
RTVSPost2010PropOp34
 70
     0
102
RTVSPost2010Prop35
280
     0
102
RTVSPost2010PropOp35
 70
     0
102
RTVSPost2010Prop36
280
     0
102
RTVSPost2010PropOp36
 70
     0
102
RTVSPost2010Prop37
 90
       50
102
RTVSPost2010PropOp37
 70
     0
102
RTVSPost2010Prop38
140
0.0
102
RTVSPost2010PropOp38
 70
     0
102
RTVSPost2010Prop39
140
1.0
102
RTVSPost2010PropOp39
 70
     0
102
RTVSPost2010Prop40
 90
        0
102
RTVSPost2010PropOp40
 70
     0
102
RTVSPost2010Prop41ColorIndex
 90
       18
102
RTVSPost2010Prop41ColorRGB
 90
        0
102
RTVSPost2010PropOp41
 70
     0
102
RTVSPost2010Prop42
 90
       50
102
RTVSPost2010PropOp42
 70
     0
102
RTVSPost2010Prop43
 90
        3
102
RTVSPost2010PropOp43
 70
     0
102
RTVSPost2010Prop44ColorIndex
 90
        5
102
RTVSPost2010Prop44ColorRGB
 90
      255
102
RTVSPost2010PropOp44
 70
     0
102
RTVSPost2010Prop45
280
     0
102
RTVSPost2010PropOp45
 70
     0
102
RTVSPost2010Prop46
 90
       50
102
RTVSPost2010PropOp46
 70
     0
102
RTVSPost2010Prop47
 90
       50
102
RTVSPost2010PropOp47
 70
     0
102
RTVSPost2010Prop48
 90
       50
102
RTVSPost2010PropOp48
 70
     0
102
RTVSPost2010Prop49
280
     0
102
RTVSPost2010PropOp49
 70
     0
102
RTVSPost2010Prop50
 90
       50
102
RTVSPost2010PropOp50
 70
     0
102
RTVSPost2010Prop51ColorIndex
 90
      256
102
RTVSPost2010Prop51ColorRGB
 90
-16777216
102
RTVSPost2010PropOp51
 70
     0
102
RTVSPost2010Prop52
140
1.0
102
RTVSPost2010PropOp52
 70
     0
102
RTVSPost2010Prop53
 90
        2
102
RTVSPost2010PropOp53
 70
     0
102
RTVSPost2010Prop54
  1
strokes_ogs.tif
102
RTVSPost2010PropOp54
 70
     0
102
RTVSPost2010Prop55
280
     0
102
RTVSPost2010PropOp55
 70
     0
102
RTVSPost2010Prop56
140
1.0
102
RTVSPost2010PropOp56
 70
     0
102
RTVSPost2010Prop57
140
1.0
102
RTVSPost2010PropOp57
 70
     0
  0
XRECORD
  5
17E
102
{ACAD_REACTORS
330
17D
102
}
330
17D
100
AcDbXrecord
280
     1
102
RTVSPost2010Prop28
280
     0
102
RTVSPost2010PropOp28
 70
     1
102
RTVSPost2010Prop29
280
     1
102
RTVSPost2010PropOp29
 70
     1
102
RTVSPost2010Prop30
280
     1
102
RTVSPost2010PropOp30
 70
     1
102
RTVSPost2010Prop31
280
     0
102
RTVSPost2010PropOp31
 70
     1
102
RTVSPost2010Prop32
280
     0
102
RTVSPost2010PropOp32
 70
     1
102
RTVSPost2010Prop33
280
     0
102
RTVSPost2010PropOp33
 70
     1
102
RTVSPost2010Prop34
280
     0
102
RTVSPost2010PropOp34
 70
     1
102
RTVSPost2010Prop35
280
     0
102
RTVSPost2010PropOp35
 70
     1
102
RTVSPost2010Prop36
280
     0
102
RTVSPost2010PropOp36
 70
     1
102
RTVSPost2010Prop37
 90
       50
102
RTVSPost2010PropOp37
 70
     1
102
RTVSPost2010Prop38
140
0.0
102
RTVSPost2010PropOp38
 70
     1
102
RTVSPost2010Prop39
140
1.0
102
RTVSPost2010PropOp39
 70
     1
102
RTVSPost2010Prop40
 90
        0
102
RTVSPost2010PropOp40
 70
     1
102
RTVSPost2010Prop41ColorIndex
 90
       18
102
RTVSPost2010Prop41ColorRGB
 90
        0
102
RTVSPost2010PropOp41
 70
     1
102
RTVSPost2010Prop42
 90
       50
102
RTVSPost2010PropOp42
 70
     1
102
RTVSPost2010Prop43
 90
        3
102
RTVSPost2010PropOp43
 70
     1
102
RTVSPost2010Prop44ColorIndex
 90
        5
102
RTVSPost2010Prop44ColorRGB
 90
      255
102
RTVSPost2010PropOp44
 70
     1
102
RTVSPost2010Prop45
280
     0
102
RTVSPost2010PropOp45
 70
     1
102
RTVSPost2010Prop46
 90
       50
102
RTVSPost2010PropOp46
 70
     1
102
RTVSPost2010Prop47
 90
       50
102
RTVSPost2010PropOp47
 70
     1
102
RTVSPost2010Prop48
 90
       50
102
RTVSPost2010PropOp48
 70
     1
102
RTVSPost2010Prop49
280
     0
102
RTVSPost2010PropOp49
 70
     1
102
RTVSPost2010Prop50
 90
       50
102
RTVSPost2010PropOp50
 70
     1
102
RTVSPost2010Prop51ColorIndex
 90
      256
102
RTVSPost2010Prop51ColorRGB
 90
-16777216
102
RTVSPost2010PropOp51
 70
     0
102
RTVSPost2010Prop52
140
1.0
102
RTVSPost2010PropOp52
 70
     0
102
RTVSPost2010Prop53
 90
        2
102
RTVSPost2010PropOp53
 70
     1
102
RTVSPost2010Prop54
  1
strokes_ogs.tif
102
RTVSPost2010PropOp54
 70
     1
102
RTVSPost2010Prop55
280
     0
102
RTVSPost2010PropOp55
 70
     1
102
RTVSPost2010Prop56
140
1.0
102
RTVSPost2010PropOp56
 70
     1
102
RTVSPost2010Prop57
140
1.0
102
RTVSPost2010PropOp57
 70
     1
  0
XRECORD
  5
194
102
{ACAD_REACTORS
330
193
102
}
330
193
100
AcDbXrecord
280
     1
102
RTVSPost2010Prop28
280
     0
102
RTVSPost2010PropOp28
 70
     1
102
RTVSPost2010Prop29
280
     1
102
RTVSPost2010PropOp29
 70
     1
102
RTVSPost2010Prop30
280
     1
102
RTVSPost2010PropOp30
 70
     1
102
RTVSPost2010Prop31
280
     0
102
RTVSPost2010PropOp31
 70
     1
102
RTVSPost2010Prop32
280
     0
102
RTVSPost2010PropOp32
 70
     1
102
RTVSPost2010Prop33
280
     0
102
RTVSPost2010PropOp33
 70
     1
102
RTVSPost2010Prop34
280
     0
102
RTVSPost2010PropOp34
 70
     1
102
RTVSPost2010Prop35
280
     0
102
RTVSPost2010PropOp35
 70
     1
102
RTVSPost2010Prop36
280
     0
102
RTVSPost2010PropOp36
 70
     1
102
RTVSPost2010Prop37
 90
       50
102
RTVSPost2010PropOp37
 70
     1
102
RTVSPost2010Prop38
140
0.0
102
RTVSPost2010PropOp38
 70
     1
102
RTVSPost2010Prop39
140
1.0
102
RTVSPost2010PropOp39
 70
     1
102
RTVSPost2010Prop40
 90
        0
102
RTVSPost2010PropOp40
 70
     1
102
RTVSPost2010Prop41ColorIndex
 90
       18
102
RTVSPost2010Prop41ColorRGB
 90
        0
102
RTVSPost2010PropOp41
 70
     1
102
RTVSPost2010Prop42
 90
       50
102
RTVSPost2010PropOp42
 70
     1
102
RTVSPost2010Prop43
 90
        3
102
RTVSPost2010PropOp43
 70
     1
102
RTVSPost2010Prop44ColorIndex
 90
        5
102
RTVSPost2010Prop44ColorRGB
 90
      255
102
RTVSPost2010PropOp44
 70
     1
102
RTVSPost2010Prop45
280
     0
102
RTVSPost2010PropOp45
 70
     1
102
RTVSPost2010Prop46
 90
       50
102
RTVSPost2010PropOp46
 70
     1
102
RTVSPost2010Prop47
 90
       50
102
RTVSPost2010PropOp47
 70
     1
102
RTVSPost2010Prop48
 90
       50
102
RTVSPost2010PropOp48
 70
     1
102
RTVSPost2010Prop49
280
     0
102
RTVSPost2010PropOp49
 70
     1
102
RTVSPost2010Prop50
 90
       50
102
RTVSPost2010PropOp50
 70
     1
102
RTVSPost2010Prop51ColorIndex
 90
      256
102
RTVSPost2010Prop51ColorRGB
 90
-16777216
102
RTVSPost2010PropOp51
 70
     0
102
RTVSPost2010Prop52
140
1.0
102
RTVSPost2010PropOp52
 70
     0
102
RTVSPost2010Prop53
 90
        2
102
RTVSPost2010PropOp53
 70
     1
102
RTVSPost2010Prop54
  1
strokes_ogs.tif
102
RTVSPost2010PropOp54
 70
     1
102
RTVSPost2010Prop55
280
     0
102
RTVSPost2010PropOp55
 70
     1
102
RTVSPost2010Prop56
140
1.0
102
RTVSPost2010PropOp56
 70
     1
102
RTVSPost2010Prop57
140
1.0
102
RTVSPost2010PropOp57
 70
     1
  0
XRECORD
  5
192
102
{ACAD_REACTORS
330
191
102
}
330
191
100
AcDbXrecord
280
     1
102
RTVSPost2010Prop28
280
     0
102
RTVSPost2010PropOp28
 70
     1
102
RTVSPost2010Prop29
280
     1
102
RTVSPost2010PropOp29
 70
     1
102
RTVSPost2010Prop30
280
     1
102
RTVSPost2010PropOp30
 70
     1
102
RTVSPost2010Prop31
280
     0
102
RTVSPost2010PropOp31
 70
     1
102
RTVSPost2010Prop32
280
     0
102
RTVSPost2010PropOp32
 70
     1
102
RTVSPost2010Prop33
280
     0
102
RTVSPost2010PropOp33
 70
     1
102
RTVSPost2010Prop34
280
     0
102
RTVSPost2010PropOp34
 70
     1
102
RTVSPost2010Prop35
280
     0
102
RTVSPost2010PropOp35
 70
     1
102
RTVSPost2010Prop36
280
     0
102
RTVSPost2010PropOp36
 70
     1
102
RTVSPost2010Prop37
 90
       50
102
RTVSPost2010PropOp37
 70
     1
102
RTVSPost2010Prop38
140
0.0
102
RTVSPost2010PropOp38
 70
     1
102
RTVSPost2010Prop39
140
1.0
102
RTVSPost2010PropOp39
 70
     1
102
RTVSPost2010Prop40
 90
        0
102
RTVSPost2010PropOp40
 70
     1
102
RTVSPost2010Prop41ColorIndex
 90
       18
102
RTVSPost2010Prop41ColorRGB
 90
        0
102
RTVSPost2010PropOp41
 70
     1
102
RTVSPost2010Prop42
 90
       50
102
RTVSPost2010PropOp42
 70
     1
102
RTVSPost2010Prop43
 90
        3
102
RTVSPost2010PropOp43
 70
     1
102
RTVSPost2010Prop44ColorIndex
 90
        5
102
RTVSPost2010Prop44ColorRGB
 90
      255
102
RTVSPost2010PropOp44
 70
     1
102
RTVSPost2010Prop45
280
     0
102
RTVSPost2010PropOp45
 70
     1
102
RTVSPost2010Prop46
 90
       50
102
RTVSPost2010PropOp46
 70
     1
102
RTVSPost2010Prop47
 90
       50
102
RTVSPost2010PropOp47
 70
     1
102
RTVSPost2010Prop48
 90
       50
102
RTVSPost2010PropOp48
 70
     1
102
RTVSPost2010Prop49
280
     0
102
RTVSPost2010PropOp49
 70
     1
102
RTVSPost2010Prop50
 90
       50
102
RTVSPost2010PropOp50
 70
     1
102
RTVSPost2010Prop51ColorIndex
 90
      256
102
RTVSPost2010Prop51ColorRGB
 90
-16777216
102
RTVSPost2010PropOp51
 70
     0
102
RTVSPost2010Prop52
140
1.0
102
RTVSPost2010PropOp52
 70
     0
102
RTVSPost2010Prop53
 90
        2
102
RTVSPost2010PropOp53
 70
     1
102
RTVSPost2010Prop54
  1
strokes_ogs.tif
102
RTVSPost2010PropOp54
 70
     1
102
RTVSPost2010Prop55
280
     0
102
RTVSPost2010PropOp55
 70
     1
102
RTVSPost2010Prop56
140
1.0
102
RTVSPost2010PropOp56
 70
     1
102
RTVSPost2010Prop57
140
1.0
102
RTVSPost2010PropOp57
 70
     1
  0
XRECORD
  5
18C
102
{ACAD_REACTORS
330
18B
102
}
330
18B
100
AcDbXrecord
280
     1
102
RTVSPost2010Prop28
280
     0
102
RTVSPost2010PropOp28
 70
     1
102
RTVSPost2010Prop29
280
     1
102
RTVSPost2010PropOp29
 70
     1
102
RTVSPost2010Prop30
280
     1
102
RTVSPost2010PropOp30
 70
     1
102
RTVSPost2010Prop31
280
     0
102
RTVSPost2010PropOp31
 70
     1
102
RTVSPost2010Prop32
280
     0
102
RTVSPost2010PropOp32
 70
     1
102
RTVSPost2010Prop33
280
     0
102
RTVSPost2010PropOp33
 70
     1
102
RTVSPost2010Prop34
280
     0
102
RTVSPost2010PropOp34
 70
     1
102
RTVSPost2010Prop35
280
     0
102
RTVSPost2010PropOp35
 70
     1
102
RTVSPost2010Prop36
280
     0
102
RTVSPost2010PropOp36
 70
     1
102
RTVSPost2010Prop37
 90
       50
102
RTVSPost2010PropOp37
 70
     1
102
RTVSPost2010Prop38
140
0.0
102
RTVSPost2010PropOp38
 70
     1
102
RTVSPost2010Prop39
140
1.0
102
RTVSPost2010PropOp39
 70
     1
102
RTVSPost2010Prop40
 90
        0
102
RTVSPost2010PropOp40
 70
     1
102
RTVSPost2010Prop41ColorIndex
 90
       18
102
RTVSPost2010Prop41ColorRGB
 90
        0
102
RTVSPost2010PropOp41
 70
     1
102
RTVSPost2010Prop42
 90
       50
102
RTVSPost2010PropOp42
 70
     1
102
RTVSPost2010Prop43
 90
        3
102
RTVSPost2010PropOp43
 70
     1
102
RTVSPost2010Prop44ColorIndex
 90
        5
102
RTVSPost2010Prop44ColorRGB
 90
      255
102
RTVSPost2010PropOp44
 70
     1
102
RTVSPost2010Prop45
280
     0
102
RTVSPost2010PropOp45
 70
     1
102
RTVSPost2010Prop46
 90
       50
102
RTVSPost2010PropOp46
 70
     1
102
RTVSPost2010Prop47
 90
       50
102
RTVSPost2010PropOp47
 70
     1
102
RTVSPost2010Prop48
 90
       50
102
RTVSPost2010PropOp48
 70
     1
102
RTVSPost2010Prop49
280
     0
102
RTVSPost2010PropOp49
 70
     1
102
RTVSPost2010Prop50
 90
       50
102
RTVSPost2010PropOp50
 70
     1
102
RTVSPost2010Prop51ColorIndex
 90
      256
102
RTVSPost2010Prop51ColorRGB
 90
-16777216
102
RTVSPost2010PropOp51
 70
     0
102
RTVSPost2010Prop52
140
1.0
102
RTVSPost2010PropOp52
 70
     0
102
RTVSPost2010Prop53
 90
        2
102
RTVSPost2010PropOp53
 70
     1
102
RTVSPost2010Prop54
  1
strokes_ogs.tif
102
RTVSPost2010PropOp54
 70
     1
102
RTVSPost2010Prop55
280
     0
102
RTVSPost2010PropOp55
 70
     1
102
RTVSPost2010Prop56
140
1.0
102
RTVSPost2010PropOp56
 70
     1
102
RTVSPost2010Prop57
140
1.0
102
RTVSPost2010PropOp57
 70
     1
  0
XRECORD
  5
18E
102
{ACAD_REACTORS
330
18D
102
}
330
18D
100
AcDbXrecord
280
     1
102
RTVSPost2010Prop28
280
     0
102
RTVSPost2010PropOp28
 70
     1
102
RTVSPost2010Prop29
280
     1
102
RTVSPost2010PropOp29
 70
     1
102
RTVSPost2010Prop30
280
     1
102
RTVSPost2010PropOp30
 70
     1
102
RTVSPost2010Prop31
280
     0
102
RTVSPost2010PropOp31
 70
     1
102
RTVSPost2010Prop32
280
     0
102
RTVSPost2010PropOp32
 70
     1
102
RTVSPost2010Prop33
280
     0
102
RTVSPost2010PropOp33
 70
     1
102
RTVSPost2010Prop34
280
     0
102
RTVSPost2010PropOp34
 70
     1
102
RTVSPost2010Prop35
280
     0
102
RTVSPost2010PropOp35
 70
     1
102
RTVSPost2010Prop36
280
     0
102
RTVSPost2010PropOp36
 70
     1
102
RTVSPost2010Prop37
 90
       50
102
RTVSPost2010PropOp37
 70
     1
102
RTVSPost2010Prop38
140
0.0
102
RTVSPost2010PropOp38
 70
     1
102
RTVSPost2010Prop39
140
1.0
102
RTVSPost2010PropOp39
 70
     1
102
RTVSPost2010Prop40
 90
        0
102
RTVSPost2010PropOp40
 70
     1
102
RTVSPost2010Prop41ColorIndex
 90
       18
102
RTVSPost2010Prop41ColorRGB
 90
        0
102
RTVSPost2010PropOp41
 70
     1
102
RTVSPost2010Prop42
 90
       50
102
RTVSPost2010PropOp42
 70
     1
102
RTVSPost2010Prop43
 90
        3
102
RTVSPost2010PropOp43
 70
     1
102
RTVSPost2010Prop44ColorIndex
 90
        5
102
RTVSPost2010Prop44ColorRGB
 90
      255
102
RTVSPost2010PropOp44
 70
     1
102
RTVSPost2010Prop45
280
     0
102
RTVSPost2010PropOp45
 70
     1
102
RTVSPost2010Prop46
 90
       50
102
RTVSPost2010PropOp46
 70
     1
102
RTVSPost2010Prop47
 90
       50
102
RTVSPost2010PropOp47
 70
     1
102
RTVSPost2010Prop48
 90
       50
102
RTVSPost2010PropOp48
 70
     1
102
RTVSPost2010Prop49
280
     0
102
RTVSPost2010PropOp49
 70
     1
102
RTVSPost2010Prop50
 90
       50
102
RTVSPost2010PropOp50
 70
     1
102
RTVSPost2010Prop51ColorIndex
 90
      256
102
RTVSPost2010Prop51ColorRGB
 90
-16777216
102
RTVSPost2010PropOp51
 70
     0
102
RTVSPost2010Prop52
140
1.0
102
RTVSPost2010PropOp52
 70
     0
102
RTVSPost2010Prop53
 90
        2
102
RTVSPost2010PropOp53
 70
     1
102
RTVSPost2010Prop54
  1
strokes_ogs.tif
102
RTVSPost2010PropOp54
 70
     1
102
RTVSPost2010Prop55
280
     0
102
RTVSPost2010PropOp55
 70
     1
102
RTVSPost2010Prop56
140
1.0
102
RTVSPost2010PropOp56
 70
     1
102
RTVSPost2010Prop57
140
1.0
102
RTVSPost2010PropOp57
 70
     1
  0
XRECORD
  5
184
102
{ACAD_REACTORS
330
183
102
}
330
183
100
AcDbXrecord
280
     1
102
RTVSPost2010Prop28
280
     0
102
RTVSPost2010PropOp28
 70
     1
102
RTVSPost2010Prop29
280
     1
102
RTVSPost2010PropOp29
 70
     1
102
RTVSPost2010Prop30
280
     1
102
RTVSPost2010PropOp30
 70
     1
102
RTVSPost2010Prop31
280
     0
102
RTVSPost2010PropOp31
 70
     1
102
RTVSPost2010Prop32
280
     0
102
RTVSPost2010PropOp32
 70
     1
102
RTVSPost2010Prop33
280
     0
102
RTVSPost2010PropOp33
 70
     1
102
RTVSPost2010Prop34
280
     0
102
RTVSPost2010PropOp34
 70
     1
102
RTVSPost2010Prop35
280
     0
102
RTVSPost2010PropOp35
 70
     1
102
RTVSPost2010Prop36
280
     0
102
RTVSPost2010PropOp36
 70
     1
102
RTVSPost2010Prop37
 90
       50
102
RTVSPost2010PropOp37
 70
     1
102
RTVSPost2010Prop38
140
0.0
102
RTVSPost2010PropOp38
 70
     1
102
RTVSPost2010Prop39
140
1.0
102
RTVSPost2010PropOp39
 70
     1
102
RTVSPost2010Prop40
 90
        0
102
RTVSPost2010PropOp40
 70
     1
102
RTVSPost2010Prop41ColorIndex
 90
       18
102
RTVSPost2010Prop41ColorRGB
 90
        0
102
RTVSPost2010PropOp41
 70
     1
102
RTVSPost2010Prop42
 90
       50
102
RTVSPost2010PropOp42
 70
     1
102
RTVSPost2010Prop43
 90
        3
102
RTVSPost2010PropOp43
 70
     1
102
RTVSPost2010Prop44ColorIndex
 90
        5
102
RTVSPost2010Prop44ColorRGB
 90
      255
102
RTVSPost2010PropOp44
 70
     1
102
RTVSPost2010Prop45
280
     0
102
RTVSPost2010PropOp45
 70
     1
102
RTVSPost2010Prop46
 90
       50
102
RTVSPost2010PropOp46
 70
     1
102
RTVSPost2010Prop47
 90
       50
102
RTVSPost2010PropOp47
 70
     1
102
RTVSPost2010Prop48
 90
       50
102
RTVSPost2010PropOp48
 70
     1
102
RTVSPost2010Prop49
280
     0
102
RTVSPost2010PropOp49
 70
     1
102
RTVSPost2010Prop50
 90
       50
102
RTVSPost2010PropOp50
 70
     1
102
RTVSPost2010Prop51ColorIndex
 90
      256
102
RTVSPost2010Prop51ColorRGB
 90
-16777216
102
RTVSPost2010PropOp51
 70
     0
102
RTVSPost2010Prop52
140
1.0
102
RTVSPost2010PropOp52
 70
     0
102
RTVSPost2010Prop53
 90
        2
102
RTVSPost2010PropOp53
 70
     1
102
RTVSPost2010Prop54
  1
strokes_ogs.tif
102
RTVSPost2010PropOp54
 70
     1
102
RTVSPost2010Prop55
280
     0
102
RTVSPost2010PropOp55
 70
     1
102
RTVSPost2010Prop56
140
1.0
102
RTVSPost2010PropOp56
 70
     1
102
RTVSPost2010Prop57
140
1.0
102
RTVSPost2010PropOp57
 70
     1
  0
XRECORD
  5
178
102
{ACAD_REACTORS
330
177
102
}
330
177
100
AcDbXrecord
280
     1
102
RTVSPost2010Prop28
280
     0
102
RTVSPost2010PropOp28
 70
     1
102
RTVSPost2010Prop29
280
     1
102
RTVSPost2010PropOp29
 70
     1
102
RTVSPost2010Prop30
280
     1
102
RTVSPost2010PropOp30
 70
     1
102
RTVSPost2010Prop31
280
     0
102
RTVSPost2010PropOp31
 70
     1
102
RTVSPost2010Prop32
280
     0
102
RTVSPost2010PropOp32
 70
     1
102
RTVSPost2010Prop33
280
     0
102
RTVSPost2010PropOp33
 70
     1
102
RTVSPost2010Prop34
280
     0
102
RTVSPost2010PropOp34
 70
     1
102
RTVSPost2010Prop35
280
     0
102
RTVSPost2010PropOp35
 70
     1
102
RTVSPost2010Prop36
280
     0
102
RTVSPost2010PropOp36
 70
     1
102
RTVSPost2010Prop37
 90
       50
102
RTVSPost2010PropOp37
 70
     1
102
RTVSPost2010Prop38
140
0.0
102
RTVSPost2010PropOp38
 70
     1
102
RTVSPost2010Prop39
140
1.0
102
RTVSPost2010PropOp39
 70
     1
102
RTVSPost2010Prop40
 90
        0
102
RTVSPost2010PropOp40
 70
     1
102
RTVSPost2010Prop41ColorIndex
 90
       18
102
RTVSPost2010Prop41ColorRGB
 90
        0
102
RTVSPost2010PropOp41
 70
     1
102
RTVSPost2010Prop42
 90
       50
102
RTVSPost2010PropOp42
 70
     1
102
RTVSPost2010Prop43
 90
        3
102
RTVSPost2010PropOp43
 70
     1
102
RTVSPost2010Prop44ColorIndex
 90
        5
102
RTVSPost2010Prop44ColorRGB
 90
      255
102
RTVSPost2010PropOp44
 70
     1
102
RTVSPost2010Prop45
280
     0
102
RTVSPost2010PropOp45
 70
     1
102
RTVSPost2010Prop46
 90
       50
102
RTVSPost2010PropOp46
 70
     1
102
RTVSPost2010Prop47
 90
       50
102
RTVSPost2010PropOp47
 70
     1
102
RTVSPost2010Prop48
 90
       50
102
RTVSPost2010PropOp48
 70
     1
102
RTVSPost2010Prop49
280
     0
102
RTVSPost2010PropOp49
 70
     1
102
RTVSPost2010Prop50
 90
       50
102
RTVSPost2010PropOp50
 70
     1
102
RTVSPost2010Prop51ColorIndex
 90
      256
102
RTVSPost2010Prop51ColorRGB
 90
-16777216
102
RTVSPost2010PropOp51
 70
     0
102
RTVSPost2010Prop52
140
1.0
102
RTVSPost2010PropOp52
 70
     0
102
RTVSPost2010Prop53
 90
        2
102
RTVSPost2010PropOp53
 70
     1
102
RTVSPost2010Prop54
  1
strokes_ogs.tif
102
RTVSPost2010PropOp54
 70
     1
102
RTVSPost2010Prop55
280
     0
102
RTVSPost2010PropOp55
 70
     1
102
RTVSPost2010Prop56
140
1.0
102
RTVSPost2010PropOp56
 70
     1
102
RTVSPost2010Prop57
140
1.0
102
RTVSPost2010PropOp57
 70
     1
  0
XRECORD
  5
190
102
{ACAD_REACTORS
330
18F
102
}
330
18F
100
AcDbXrecord
280
     1
102
RTVSPost2010Prop28
280
     0
102
RTVSPost2010PropOp28
 70
     1
102
RTVSPost2010Prop29
280
     1
102
RTVSPost2010PropOp29
 70
     1
102
RTVSPost2010Prop30
280
     1
102
RTVSPost2010PropOp30
 70
     1
102
RTVSPost2010Prop31
280
     0
102
RTVSPost2010PropOp31
 70
     1
102
RTVSPost2010Prop32
280
     0
102
RTVSPost2010PropOp32
 70
     1
102
RTVSPost2010Prop33
280
     0
102
RTVSPost2010PropOp33
 70
     1
102
RTVSPost2010Prop34
280
     0
102
RTVSPost2010PropOp34
 70
     1
102
RTVSPost2010Prop35
280
     0
102
RTVSPost2010PropOp35
 70
     1
102
RTVSPost2010Prop36
280
     0
102
RTVSPost2010PropOp36
 70
     1
102
RTVSPost2010Prop37
 90
       50
102
RTVSPost2010PropOp37
 70
     1
102
RTVSPost2010Prop38
140
0.0
102
RTVSPost2010PropOp38
 70
     1
102
RTVSPost2010Prop39
140
1.0
102
RTVSPost2010PropOp39
 70
     1
102
RTVSPost2010Prop40
 90
        0
102
RTVSPost2010PropOp40
 70
     1
102
RTVSPost2010Prop41ColorIndex
 90
       18
102
RTVSPost2010Prop41ColorRGB
 90
        0
102
RTVSPost2010PropOp41
 70
     1
102
RTVSPost2010Prop42
 90
       50
102
RTVSPost2010PropOp42
 70
     1
102
RTVSPost2010Prop43
 90
        3
102
RTVSPost2010PropOp43
 70
     1
102
RTVSPost2010Prop44ColorIndex
 90
        5
102
RTVSPost2010Prop44ColorRGB
 90
      255
102
RTVSPost2010PropOp44
 70
     1
102
RTVSPost2010Prop45
280
     0
102
RTVSPost2010PropOp45
 70
     1
102
RTVSPost2010Prop46
 90
       50
102
RTVSPost2010PropOp46
 70
     1
102
RTVSPost2010Prop47
 90
       50
102
RTVSPost2010PropOp47
 70
     1
102
RTVSPost2010Prop48
 90
       50
102
RTVSPost2010PropOp48
 70
     1
102
RTVSPost2010Prop49
280
     0
102
RTVSPost2010PropOp49
 70
     1
102
RTVSPost2010Prop50
 90
       50
102
RTVSPost2010PropOp50
 70
     1
102
RTVSPost2010Prop51ColorIndex
 90
      256
102
RTVSPost2010Prop51ColorRGB
 90
-16777216
102
RTVSPost2010PropOp51
 70
     0
102
RTVSPost2010Prop52
140
1.0
102
RTVSPost2010PropOp52
 70
     0
102
RTVSPost2010Prop53
 90
        2
102
RTVSPost2010PropOp53
 70
     1
102
RTVSPost2010Prop54
  1
strokes_ogs.tif
102
RTVSPost2010PropOp54
 70
     1
102
RTVSPost2010Prop55
280
     0
102
RTVSPost2010PropOp55
 70
     1
102
RTVSPost2010Prop56
140
1.0
102
RTVSPost2010PropOp56
 70
     1
102
RTVSPost2010Prop57
140
1.0
102
RTVSPost2010PropOp57
 70
     1
  0
ENDSEC
  0
EOF
