  0
SECTION
  2
HEADER
  9
$ACADVER
  1
AC1024
  9
$ACADMAINTVER
 70
   205
  9
$DWGCODEPAGE
  3
ANSI_1251
  9
$INSBASE
 10
0.0
 20
0.0
 30
0.0
  9
$EXTMIN
 10
1.000000000000000E+20
 20
1.000000000000000E+20
 30
1.000000000000000E+20
  9
$EXTMAX
 10
-1.000000000000000E+20
 20
-1.000000000000000E+20
 30
-1.000000000000000E+20
  9
$LIMMIN
 10
0.0
 20
0.0
  9
$LIMMAX
 10
12.0
 20
9.0
  9
$ORTHOMODE
 70
     0
  9
$REGENMODE
 70
     1
  9
$FILLMODE
 70
     1
  9
$QTEXTMODE
 70
     0
  9
$MIRRTEXT
 70
     1
  9
$LTSCALE
 40
1.0
  9
$ATTMODE
 70
     1
  9
$TEXTSIZE
 40
0.2
  9
$TRACEWID
 40
0.05
  9
$TEXTSTYLE
  7
Standard
  9
$CLAYER
  8
OracDecor_cornice_mouldings
  9
$CELTYPE
  6
ByLayer
  9
$CECOLOR
 62
   256
  9
$CELTSCALE
 40
1.0
  9
$DISPSILH
 70
     0
  9
$DIMSCALE
 40
1.0
  9
$DIMASZ
 40
0.18
  9
$DIMEXO
 40
0.0625
  9
$DIMDLI
 40
0.38
  9
$DIMRND
 40
0.0
  9
$DIMDLE
 40
0.0
  9
$DIMEXE
 40
0.18
  9
$DIMTP
 40
0.0
  9
$DIMTM
 40
0.0
  9
$DIMTXT
 40
0.18
  9
$DIMCEN
 40
0.09
  9
$DIMTSZ
 40
0.0
  9
$DIMTOL
 70
     0
  9
$DIMLIM
 70
     0
  9
$DIMTIH
 70
     1
  9
$DIMTOH
 70
     1
  9
$DIMSE1
 70
     0
  9
$DIMSE2
 70
     0
  9
$DIMTAD
 70
     0
  9
$DIMZIN
 70
     0
  9
$DIMBLK
  1

  9
$DIMASO
 70
     1
  9
$DIMSHO
 70
     1
  9
$DIMPOST
  1

  9
$DIMAPOST
  1

  9
$DIMALT
 70
     0
  9
$DIMALTD
 70
     2
  9
$DIMALTF
 40
25.4
  9
$DIMLFAC
 40
1.0
  9
$DIMTOFL
 70
     0
  9
$DIMTVP
 40
0.0
  9
$DIMTIX
 70
     0
  9
$DIMSOXD
 70
     0
  9
$DIMSAH
 70
     0
  9
$DIMBLK1
  1

  9
$DIMBLK2
  1

  9
$DIMSTYLE
  2
Standard
  9
$DIMCLRD
 70
     0
  9
$DIMCLRE
 70
     0
  9
$DIMCLRT
 70
     0
  9
$DIMTFAC
 40
1.0
  9
$DIMGAP
 40
0.09
  9
$DIMJUST
 70
     0
  9
$DIMSD1
 70
     0
  9
$DIMSD2
 70
     0
  9
$DIMTOLJ
 70
     1
  9
$DIMTZIN
 70
     0
  9
$DIMALTZ
 70
     0
  9
$DIMALTTZ
 70
     0
  9
$DIMUPT
 70
     0
  9
$DIMDEC
 70
     4
  9
$DIMTDEC
 70
     4
  9
$DIMALTU
 70
     2
  9
$DIMALTTD
 70
     2
  9
$DIMTXSTY
  7
Standard
  9
$DIMAUNIT
 70
     0
  9
$DIMADEC
 70
     0
  9
$DIMALTRND
 40
0.0
  9
$DIMAZIN
 70
     0
  9
$DIMDSEP
 70
    46
  9
$DIMATFIT
 70
     3
  9
$DIMFRAC
 70
     0
  9
$DIMLDRBLK
  1

  9
$DIMLUNIT
 70
     2
  9
$DIMLWD
 70
    -2
  9
$DIMLWE
 70
    -2
  9
$DIMTMOVE
 70
     0
  9
$DIMFXL
 40
1.0
  9
$DIMFXLON
 70
     0
  9
$DIMJOGANG
 40
0.7853981633974483
  9
$DIMTFILL
 70
     0
  9
$DIMTFILLCLR
 70
     0
  9
$DIMARCSYM
 70
     0
  9
$DIMLTYPE
  6

  9
$DIMLTEX1
  6

  9
$DIMLTEX2
  6

  9
$DIMTXTDIRECTION
 70
     0
  9
$LUNITS
 70
     2
  9
$LUPREC
 70
     4
  9
$SKETCHINC
 40
0.1
  9
$FILLETRAD
 40
0.5
  9
$AUNITS
 70
     0
  9
$AUPREC
 70
     0
  9
$MENU
  1
.
  9
$ELEVATION
 40
0.0
  9
$PELEVATION
 40
0.0
  9
$THICKNESS
 40
0.0
  9
$LIMCHECK
 70
     0
  9
$CHAMFERA
 40
0.5
  9
$CHAMFERB
 40
0.5
  9
$CHAMFERC
 40
1.0
  9
$CHAMFERD
 40
0.0
  9
$SKPOLY
 70
     0
  9
$TDCREATE
 40
2451380.930432396
  9
$TDUCREATE
 40
2451380.805432396
  9
$TDUPDATE
 40
2451380.966180555
  9
$TDUUPDATE
 40
2451380.841180556
  9
$TDINDWG
 40
0.0075615741
  9
$TDUSRTIMER
 40
0.0075525347
  9
$USRTIMER
 70
     1
  9
$ANGBASE
 50
0.0
  9
$ANGDIR
 70
     0
  9
$PDMODE
 70
     0
  9
$PDSIZE
 40
0.0
  9
$PLINEWID
 40
0.0
  9
$SPLFRAME
 70
     0
  9
$SPLINETYPE
 70
     6
  9
$SPLINESEGS
 70
     8
  9
$HANDSEED
  5
1BC
  9
$SURFTAB1
 70
     6
  9
$SURFTAB2
 70
     6
  9
$SURFTYPE
 70
     6
  9
$SURFU
 70
     6
  9
$SURFV
 70
     6
  9
$UCSBASE
  2

  9
$UCSNAME
  2

  9
$UCSORG
 10
0.0
 20
0.0
 30
0.0
  9
$UCSXDIR
 10
1.0
 20
0.0
 30
0.0
  9
$UCSYDIR
 10
0.0
 20
1.0
 30
0.0
  9
$UCSORTHOREF
  2

  9
$UCSORTHOVIEW
 70
     0
  9
$UCSORGTOP
 10
0.0
 20
0.0
 30
0.0
  9
$UCSORGBOTTOM
 10
0.0
 20
0.0
 30
0.0
  9
$UCSORGLEFT
 10
0.0
 20
0.0
 30
0.0
  9
$UCSORGRIGHT
 10
0.0
 20
0.0
 30
0.0
  9
$UCSORGFRONT
 10
0.0
 20
0.0
 30
0.0
  9
$UCSORGBACK
 10
0.0
 20
0.0
 30
0.0
  9
$PUCSBASE
  2

  9
$PUCSNAME
  2

  9
$PUCSORG
 10
0.0
 20
0.0
 30
0.0
  9
$PUCSXDIR
 10
1.0
 20
0.0
 30
0.0
  9
$PUCSYDIR
 10
0.0
 20
1.0
 30
0.0
  9
$PUCSORTHOREF
  2

  9
$PUCSORTHOVIEW
 70
     0
  9
$PUCSORGTOP
 10
0.0
 20
0.0
 30
0.0
  9
$PUCSORGBOTTOM
 10
0.0
 20
0.0
 30
0.0
  9
$PUCSORGLEFT
 10
0.0
 20
0.0
 30
0.0
  9
$PUCSORGRIGHT
 10
0.0
 20
0.0
 30
0.0
  9
$PUCSORGFRONT
 10
0.0
 20
0.0
 30
0.0
  9
$PUCSORGBACK
 10
0.0
 20
0.0
 30
0.0
  9
$USERI1
 70
     0
  9
$USERI2
 70
     0
  9
$USERI3
 70
     0
  9
$USERI4
 70
     0
  9
$USERI5
 70
     0
  9
$USERR1
 40
0.0
  9
$USERR2
 40
0.0
  9
$USERR3
 40
0.0
  9
$USERR4
 40
0.0
  9
$USERR5
 40
0.0
  9
$WORLDVIEW
 70
     1
  9
$SHADEDGE
 70
     3
  9
$SHADEDIF
 70
    70
  9
$TILEMODE
 70
     1
  9
$MAXACTVP
 70
    64
  9
$PINSBASE
 10
0.0
 20
0.0
 30
0.0
  9
$PLIMCHECK
 70
     0
  9
$PEXTMIN
 10
1.000000000000000E+20
 20
1.000000000000000E+20
 30
1.000000000000000E+20
  9
$PEXTMAX
 10
-1.000000000000000E+20
 20
-1.000000000000000E+20
 30
-1.000000000000000E+20
  9
$PLIMMIN
 10
0.0
 20
0.0
  9
$PLIMMAX
 10
12.0
 20
9.0
  9
$UNITMODE
 70
     0
  9
$VISRETAIN
 70
     1
  9
$PLINEGEN
 70
     0
  9
$PSLTSCALE
 70
     1
  9
$TREEDEPTH
 70
  3020
  9
$CMLSTYLE
  2
Standard
  9
$CMLJUST
 70
     0
  9
$CMLSCALE
 40
1.0
  9
$PROXYGRAPHICS
 70
     1
  9
$MEASUREMENT
 70
     1
  9
$CELWEIGHT
370
    -1
  9
$ENDCAPS
280
     0
  9
$JOINSTYLE
280
     0
  9
$LWDISPLAY
290
     0
  9
$INSUNITS
 70
     4
  9
$HYPERLINKBASE
  1

  9
$STYLESHEET
  1

  9
$XEDIT
290
     1
  9
$CEPSNTYPE
380
     0
  9
$PSTYLEMODE
290
     1
  9
$FINGERPRINTGUID
  2
{12F50282-3ED8-11D3-A8B7-0060B0F84BC6}
  9
$VERSIONGUID
  2
{12F50293-3ED8-11D3-A8B7-0060B0F84BC6}
  9
$EXTNAMES
290
     1
  9
$PSVPSCALE
 40
0.0
  9
$OLESTARTUP
290
     0
  9
$SORTENTS
280
   127
  9
$INDEXCTL
280
     0
  9
$HIDETEXT
280
     0
  9
$XCLIPFRAME
280
     2
  9
$HALOGAP
280
     0
  9
$OBSCOLOR
 70
   257
  9
$OBSLTYPE
280
     0
  9
$INTERSECTIONDISPLAY
280
     0
  9
$INTERSECTIONCOLOR
 70
   257
  9
$DIMASSOC
280
     1
  9
$PROJECTNAME
  1

  9
$CAMERADISPLAY
290
     0
  9
$LENSLENGTH
 40
50.0
  9
$CAMERAHEIGHT
 40
0.0
  9
$STEPSPERSEC
 40
2.0
  9
$STEPSIZE
 40
6.0
  9
$3DDWFPREC
 40
2.0
  9
$PSOLWIDTH
 40
0.25
  9
$PSOLHEIGHT
 40
4.0
  9
$LOFTANG1
 40
1.570796326794896
  9
$LOFTANG2
 40
1.570796326794896
  9
$LOFTMAG1
 40
0.0
  9
$LOFTMAG2
 40
0.0
  9
$LOFTPARAM
 70
     7
  9
$LOFTNORMALS
280
     1
  9
$LATITUDE
 40
37.795
  9
$LONGITUDE
 40
-122.394
  9
$NORTHDIRECTION
 40
0.0
  9
$TIMEZONE
 70
 -8000
  9
$LIGHTGLYPHDISPLAY
280
     1
  9
$TILEMODELIGHTSYNCH
280
     1
  9
$CMATERIAL
347
AB
  9
$SOLIDHIST
280
     0
  9
$SHOWHIST
280
     1
  9
$DWFFRAME
280
     2
  9
$DGNFRAME
280
     0
  9
$REALWORLDSCALE
290
     1
  9
$INTERFERECOLOR
 62
     1
  9
$INTERFEREOBJVS
345
CD
  9
$INTERFEREVPVS
346
CA
  9
$CSHADOW
280
     0
  9
$SHADOWPLANELOCATION
 40
0.0
  0
ENDSEC
  0
SECTION
  2
CLASSES
  0
CLASS
  1
ACDBDICTIONARYWDFLT
  2
AcDbDictionaryWithDefault
  3
ObjectDBX Classes
 90
        0
 91
        1
280
     0
281
     0
  0
CLASS
  1
ACDBPLACEHOLDER
  2
AcDbPlaceHolder
  3
ObjectDBX Classes
 90
        0
 91
        2
280
     0
281
     0
  0
CLASS
  1
LAYOUT
  2
AcDbLayout
  3
ObjectDBX Classes
 90
        0
 91
        3
280
     0
281
     0
  0
CLASS
  1
MATERIAL
  2
AcDbMaterial
  3
ObjectDBX Classes
 90
     1153
 91
        3
280
     0
281
     0
  0
CLASS
  1
VISUALSTYLE
  2
AcDbVisualStyle
  3
ObjectDBX Classes
 90
     4095
 91
       24
280
     0
281
     0
  0
CLASS
  1
TABLESTYLE
  2
AcDbTableStyle
  3
ObjectDBX Classes
 90
     4095
 91
        1
280
     0
281
     0
  0
CLASS
  1
SCALE
  2
AcDbScale
  3
ObjectDBX Classes
 90
     1153
 91
       17
280
     0
281
     0
  0
CLASS
  1
MLEADERSTYLE
  2
AcDbMLeaderStyle
  3
ACDB_MLEADERSTYLE_CLASS
 90
     4095
 91
        1
280
     0
281
     0
  0
CLASS
  1
ACDBSECTIONVIEWSTYLE
  2
AcDbSectionViewStyle
  3
ObjectDBX Classes
 90
     1025
 91
        1
280
     0
281
     0
  0
CLASS
  1
ACDBDETAILVIEWSTYLE
  2
AcDbDetailViewStyle
  3
ObjectDBX Classes
 90
     1025
 91
        1
280
     0
281
     0
  0
CLASS
  1
MESH
  2
AcDbSubDMesh
  3
ObjectDBX Classes
 90
        0
 91
        1
280
     0
281
     1
  0
CLASS
  1
DICTIONARYVAR
  2
AcDbDictionaryVar
  3
ObjectDBX Classes
 90
        0
 91
        9
280
     0
281
     0
  0
CLASS
  1
CELLSTYLEMAP
  2
AcDbCellStyleMap
  3
ObjectDBX Classes
 90
     1152
 91
        1
280
     0
281
     0
  0
ENDSEC
  0
SECTION
  2
TABLES
  0
TABLE
  2
VPORT
  5
8
330
0
100
AcDbSymbolTable
 70
     1
  0
VPORT
  5
A8
330
8
100
AcDbSymbolTableRecord
100
AcDbViewportTableRecord
  2
*Active
 70
     0
 10
0.0
 20
0.0
 11
1.0
 21
1.0
 12
-0.0007202053675428
 22
-63.6826171875
 13
0.0
 23
0.0
 14
0.5
 24
0.5
 15
0.5
 25
0.5
 16
-1.0
 26
-1.0
 36
1.0
 17
0.0
 27
0.0
 37
0.0
 40
1259.412281007773
 41
1.51750629656016
 42
50.0
 43
0.0
 44
0.0
 50
0.0
 51
0.0
 71
     0
 72
   100
 73
     1
 74
     3
 75
     0
 76
     0
 77
     0
 78
     0
281
     0
 65
     1
110
0.0
120
0.0
130
0.0
111
1.0
121
0.0
131
0.0
112
0.0
122
1.0
132
0.0
 79
     0
146
0.0
348
C9
 60
     3
 61
     5
292
     1
282
     1
141
0.0
142
0.0
 63
   250
421
  3355443
  0
ENDTAB
  0
TABLE
  2
LTYPE
  5
5
330
0
100
AcDbSymbolTable
 70
     1
  0
LTYPE
  5
14
330
5
100
AcDbSymbolTableRecord
100
AcDbLinetypeTableRecord
  2
ByBlock
 70
     0
  3

 72
    65
 73
     0
 40
0.0
  0
LTYPE
  5
15
330
5
100
AcDbSymbolTableRecord
100
AcDbLinetypeTableRecord
  2
ByLayer
 70
     0
  3

 72
    65
 73
     0
 40
0.0
  0
LTYPE
  5
16
330
5
100
AcDbSymbolTableRecord
100
AcDbLinetypeTableRecord
  2
Continuous
 70
     0
  3
Solid line
 72
    65
 73
     0
 40
0.0
  0
ENDTAB
  0
TABLE
  2
LAYER
  5
2
330
0
100
AcDbSymbolTable
 70
     3
  0
LAYER
  5
10
330
2
100
AcDbSymbolTableRecord
100
AcDbLayerTableRecord
  2
0
 70
     0
 62
     7
  6
Continuous
370
    -3
390
F
347
BB
  0
LAYER
  5
2B
330
2
100
AcDbSymbolTableRecord
100
AcDbLayerTableRecord
  2
ASHADE
 70
     4
 62
     7
  6
Continuous
370
    -3
390
2D
347
BB
  0
LAYER
  5
F8
330
2
100
AcDbSymbolTableRecord
100
AcDbLayerTableRecord
  2
OracDecor_cornice_mouldings
 70
     0
 62
    74
420
  5812507
  6
Continuous
370
    -3
390
F
347
BB
  0
ENDTAB
  0
TABLE
  2
STYLE
  5
3
330
0
100
AcDbSymbolTable
 70
     2
  0
STYLE
  5
11
330
3
100
AcDbSymbolTableRecord
100
AcDbTextStyleTableRecord
  2
Standard
 70
     0
 40
0.0
 41
1.0
 50
0.0
 71
     0
 42
0.2
  3
txt
  4

  0
STYLE
  5
2C
330
3
100
AcDbSymbolTableRecord
100
AcDbTextStyleTableRecord
  2
ASHADE
 70
     0
 40
0.2
 41
1.0
 50
0.0
 71
     0
 42
0.2
  3
simplex
  4

  0
ENDTAB
  0
TABLE
  2
VIEW
  5
6
330
0
100
AcDbSymbolTable
 70
     0
  0
ENDTAB
  0
TABLE
  2
UCS
  5
7
330
0
100
AcDbSymbolTable
 70
     0
  0
ENDTAB
  0
TABLE
  2
APPID
  5
9
330
0
100
AcDbSymbolTable
 70
     6
  0
APPID
  5
12
330
9
100
AcDbSymbolTableRecord
100
AcDbRegAppTableRecord
  2
ACAD
 70
     0
  0
APPID
  5
8F
330
9
100
AcDbSymbolTableRecord
100
AcDbRegAppTableRecord
  2
AVE_RENDER
 70
     0
  0
APPID
  5
90
330
9
100
AcDbSymbolTableRecord
100
AcDbRegAppTableRecord
  2
AVE_ENTITY_MATERIAL
 70
     0
  0
APPID
  5
9C
330
9
100
AcDbSymbolTableRecord
100
AcDbRegAppTableRecord
  2
AVE_FINISH
 70
     0
  0
APPID
  5
9D
330
9
100
AcDbSymbolTableRecord
100
AcDbRegAppTableRecord
  2
AVE_MATERIAL
 70
     0
  0
APPID
  5
9E
330
9
100
AcDbSymbolTableRecord
100
AcDbRegAppTableRecord
  2
AVE_GLOBAL
 70
     0
  0
ENDTAB
  0
TABLE
  2
DIMSTYLE
  5
A
330
0
100
AcDbSymbolTable
 70
     1
100
AcDbDimStyleTable
 71
     0
  0
DIMSTYLE
105
27
330
A
100
AcDbSymbolTableRecord
100
AcDbDimStyleTableRecord
  2
Standard
 70
     0
340
11
  0
ENDTAB
  0
TABLE
  2
BLOCK_RECORD
  5
1
330
0
100
AcDbSymbolTable
 70
     6
  0
BLOCK_RECORD
  5
1F
330
1
100
AcDbSymbolTableRecord
100
AcDbBlockTableRecord
  2
*Model_Space
340
22
 70
     0
280
     1
281
     0
  0
BLOCK_RECORD
  5
1B
330
1
100
AcDbSymbolTableRecord
100
AcDbBlockTableRecord
  2
*Paper_Space
340
1E
 70
     0
280
     1
281
     0
  0
BLOCK_RECORD
  5
23
330
1
100
AcDbSymbolTableRecord
100
AcDbBlockTableRecord
  2
*Paper_Space0
340
26
 70
     0
280
     1
281
     0
  0
BLOCK_RECORD
  5
2E
330
1
100
AcDbSymbolTableRecord
100
AcDbBlockTableRecord
  2
direct
340
0
 70
     0
280
     1
281
     0
  0
BLOCK_RECORD
  5
42
330
1
100
AcDbSymbolTableRecord
100
AcDbBlockTableRecord
  2
overhead
340
0
 70
     0
280
     1
281
     0
  0
BLOCK_RECORD
  5
5F
330
1
100
AcDbSymbolTableRecord
100
AcDbBlockTableRecord
  2
sh_spot
340
0
 70
     0
280
     1
281
     0
  0
BLOCK_RECORD
  5
91
330
1
100
AcDbSymbolTableRecord
100
AcDbBlockTableRecord
  2
AVE_RENDER
340
0
102
{BLKREFS
331
94
331
95
331
96
331
97
331
98
331
99
331
9A
331
9B
102
}
 70
     0
280
     1
281
     0
  0
BLOCK_RECORD
  5
9F
330
1
100
AcDbSymbolTableRecord
100
AcDbBlockTableRecord
  2
AVE_GLOBAL
340
0
102
{BLKREFS
331
A2
102
}
 70
     0
280
     1
281
     0
  0
ENDTAB
  0
ENDSEC
  0
SECTION
  2
BLOCKS
  0
BLOCK
  5
20
330
1F
100
AcDbEntity
  8
0
100
AcDbBlockBegin
  2
*Model_Space
 70
     0
 10
0.0
 20
0.0
 30
0.0
  3
*Model_Space
  1

  0
ENDBLK
  5
21
330
1F
100
AcDbEntity
  8
0
100
AcDbBlockEnd
  0
BLOCK
  5
1C
330
1B
100
AcDbEntity
 67
     1
  8
0
100
AcDbBlockBegin
  2
*Paper_Space
 70
     0
 10
0.0
 20
0.0
 30
0.0
  3
*Paper_Space
  1

  0
ENDBLK
  5
1D
330
1B
100
AcDbEntity
 67
     1
  8
0
100
AcDbBlockEnd
  0
BLOCK
  5
24
330
23
100
AcDbEntity
 67
     1
  8
0
100
AcDbBlockBegin
  2
*Paper_Space0
 70
     0
 10
0.0
 20
0.0
 30
0.0
  3
*Paper_Space0
  1

  0
ENDBLK
  5
25
330
23
100
AcDbEntity
 67
     1
  8
0
100
AcDbBlockEnd
  0
BLOCK
  5
40
330
2E
100
AcDbEntity
  8
0
100
AcDbBlockBegin
  2
direct
 70
     2
 10
0.0
 20
0.0
 30
0.0
  3
direct
  1

  0
ATTDEF
  5
2F
330
2E
100
AcDbEntity
  8
ASHADE
  6
Continuous
 62
     1
100
AcDbText
 10
0.0
 20
-0.1
 30
0.0
 40
0.2
  1

  7
ASHADE
 72
     1
 11
0.0
 21
-0.1
 31
0.0
100
AcDbAttributeDefinition
280
     0
  3
Light Name
  2
SNAME
 70
     0
280
     0
  0
ARC
  5
30
330
2E
100
AcDbEntity
  8
ASHADE
  6
Continuous
 62
     7
100
AcDbCircle
 10
0.0
 20
0.0
 30
0.0
 40
0.3
100
AcDbArc
 50
205.6792886194569
 51
334.3207113805431
  0
ARC
  5
31
330
2E
100
AcDbEntity
  8
ASHADE
  6
Continuous
 62
     7
100
AcDbCircle
 10
0.0
 20
0.0
 30
0.0
 40
0.3
100
AcDbArc
 50
25.67928861945685
 51
154.3207113805431
  0
LINE
  5
32
330
2E
100
AcDbEntity
  8
ASHADE
  6
Continuous
 62
     7
100
AcDbLine
 10
-0.21
 20
0.2142428528562855
 30
0.0
 11
-0.21
 21
0.5
 31
0.0
  0
LINE
  5
33
330
2E
100
AcDbEntity
  8
ASHADE
  6
Continuous
 62
     7
100
AcDbLine
 10
-0.11
 20
0.2791057147390572
 30
0.0
 11
-0.11
 21
0.5
 31
0.0
  0
LINE
  5
34
330
2E
100
AcDbEntity
  8
ASHADE
  6
Continuous
 62
     7
100
AcDbLine
 10
0.21
 20
0.2142428528562855
 30
0.0
 11
0.21
 21
0.5
 31
0.0
  0
ATTDEF
  5
35
330
2E
100
AcDbEntity
  8
ASHADE
  6
Continuous
 62
     7
100
AcDbText
 10
0.0
 20
0.25
 30
0.0
 40
0.01
  1

100
AcDbAttributeDefinition
280
     0
  3
Look-at Y
  2
LAY
 70
     1
280
     0
  0
ATTDEF
  5
36
330
2E
100
AcDbEntity
  8
ASHADE
  6
Continuous
 62
     7
100
AcDbText
 10
0.0
 20
0.22
 30
0.0
 40
0.01
  1
1
100
AcDbAttributeDefinition
280
     0
  3
Light Intensity
  2
INTENSITY
 70
     1
280
     0
  0
ATTDEF
  5
37
330
2E
100
AcDbEntity
  8
ASHADE
  6
Continuous
 62
     7
100
AcDbText
 10
0.0
 20
0.16
 30
0.0
 40
0.01
  1
-1
100
AcDbAttributeDefinition
280
     0
  3
*not used*
  2
BEAMD
 70
     1
280
     0
  0
ATTDEF
  5
38
330
2E
100
AcDbEntity
  8
ASHADE
  6
Continuous
 62
     7
100
AcDbText
 10
0.0
 20
0.175
 30
0.0
 40
0.01
  1
-1
100
AcDbAttributeDefinition
280
     0
  3
*not used*
  2
CONED
 70
     1
280
     0
  0
ATTDEF
  5
39
330
2E
100
AcDbEntity
  8
ASHADE
  6
Continuous
 62
     7
100
AcDbText
 10
0.0
 20
0.19
 30
0.0
 40
0.01
  1
0
100
AcDbAttributeDefinition
280
     0
  3
Depth Map Size
  2
CONEA
 70
     1
280
     0
  0
ATTDEF
  5
3A
330
2E
100
AcDbEntity
  8
ASHADE
  6
Continuous
 62
     7
100
AcDbText
 10
0.0
 20
0.2050000000000001
 30
0.0
 40
0.01
  1
1,1,1
100
AcDbAttributeDefinition
280
     0
  3
Light Color (RGB)
  2
COLOR
 70
     1
280
     0
  0
ATTDEF
  5
3B
330
2E
100
AcDbEntity
  8
ASHADE
  6
Continuous
 62
     7
100
AcDbText
 10
0.0
 20
0.235
 30
0.0
 40
0.01
  1

100
AcDbAttributeDefinition
280
     0
  3
Look-at Z
  2
LAZ
 70
     1
280
     0
  0
LINE
  5
3C
330
2E
100
AcDbEntity
  8
ASHADE
  6
Continuous
 62
     7
100
AcDbLine
 10
0.0
 20
0.3
 30
0.0
 11
0.0
 21
0.5
 31
0.0
  0
LINE
  5
3D
330
2E
100
AcDbEntity
  8
ASHADE
  6
Continuous
 62
     7
100
AcDbLine
 10
0.11
 20
0.2791057147390572
 30
0.0
 11
0.11
 21
0.5
 31
0.0
  0
ATTDEF
  5
3E
330
2E
100
AcDbEntity
  8
ASHADE
  6
Continuous
 62
     7
100
AcDbText
 10
0.0
 20
0.265
 30
0.0
 40
0.01
  1

100
AcDbAttributeDefinition
280
     0
  3
Look-at X
  2
LAX
 70
     1
280
     0
  0
ATTDEF
  5
3F
330
2E
100
AcDbEntity
  8
ASHADE
  6
Continuous
 62
     7
100
AcDbText
 10
0.0
 20
0.28
 30
0.0
 40
0.01
  1

100
AcDbAttributeDefinition
280
     0
  3

  2
GNAME
 70
     1
280
     0
  0
ENDBLK
  5
41
330
2E
100
AcDbEntity
  8
0
100
AcDbBlockEnd
  0
BLOCK
  5
5D
330
42
100
AcDbEntity
  8
0
100
AcDbBlockBegin
  2
overhead
 70
     2
 10
0.0
 20
0.0
 30
0.0
  3
overhead
  1

  0
ATTDEF
  5
43
330
42
100
AcDbEntity
  8
ASHADE
  6
Continuous
 62
     1
100
AcDbText
 10
0.0
 20
-0.1
 30
0.0
 40
0.2
  1

  7
ASHADE
 72
     1
 11
0.0
 21
-0.1
 31
0.0
100
AcDbAttributeDefinition
280
     0
  3
Light Name
  2
SNAME
 70
     0
280
     0
  0
ARC
  5
44
330
42
100
AcDbEntity
  8
ASHADE
  6
Continuous
 62
     7
100
AcDbCircle
 10
0.0
 20
0.0
 30
0.0
 40
0.3
100
AcDbArc
 50
205.6792886194569
 51
334.3207113805431
  0
LINE
  5
45
330
42
100
AcDbEntity
  8
ASHADE
  6
Continuous
 62
     7
100
AcDbLine
 10
-0.2041413561583015
 20
-0.2198324514393848
 30
0.0
 11
-0.2721884748777353
 21
-0.2931099352525131
 31
0.0
  0
LINE
  5
46
330
42
100
AcDbEntity
  8
ASHADE
  6
Continuous
 62
     7
100
AcDbLine
 10
-0.1096591641591904
 20
-0.2792398032442862
 30
0.0
 11
-0.1279356915190555
 21
-0.3257797704516673
 31
0.0
  0
LINE
  5
47
330
42
100
AcDbEntity
  8
ASHADE
  6
Continuous
 62
     7
100
AcDbLine
 10
0.0
 20
-0.2999999999999999
 30
0.0
 11
0.0
 21
-0.4
 31
0.0
  0
LINE
  5
48
330
42
100
AcDbEntity
  8
ASHADE
  6
Continuous
 62
     7
100
AcDbLine
 10
0.1096591641591904
 20
-0.2792398032442862
 30
0.0
 11
0.1279356915190555
 21
-0.3257797704516673
 31
0.0
  0
LINE
  5
49
330
42
100
AcDbEntity
  8
ASHADE
  6
Continuous
 62
     7
100
AcDbLine
 10
0.2041413561583015
 20
-0.2198324514393848
 30
0.0
 11
0.2721884748777353
 21
-0.2931099352525131
 31
0.0
  0
ARC
  5
4A
330
42
100
AcDbEntity
  8
ASHADE
  6
Continuous
 62
     7
100
AcDbCircle
 10
0.0
 20
0.0
 30
0.0
 40
0.3
100
AcDbArc
 50
25.67928861945685
 51
154.3207113805431
  0
LINE
  5
4B
330
42
100
AcDbEntity
  8
ASHADE
  6
Continuous
 62
     7
100
AcDbLine
 10
-0.2703701166919155
 20
0.13
 30
0.0
 11
-0.3154318028072347
 21
0.1516666666666666
 31
0.0
  0
LINE
  5
4C
330
42
100
AcDbEntity
  8
ASHADE
  6
Continuous
 62
     7
100
AcDbLine
 10
-0.2703701166919155
 20
-0.13
 30
0.0
 11
-0.3154318028072347
 21
-0.1516666666666666
 31
0.0
  0
LINE
  5
4D
330
42
100
AcDbEntity
  8
ASHADE
  6
Continuous
 62
     7
100
AcDbLine
 10
-0.2041413561583015
 20
0.2198324514393849
 30
0.0
 11
-0.2721884748777353
 21
0.2931099352525131
 31
0.0
  0
LINE
  5
4E
330
42
100
AcDbEntity
  8
ASHADE
  6
Continuous
 62
     7
100
AcDbLine
 10
-0.1096591641591904
 20
0.2792398032442862
 30
0.0
 11
-0.1279356915190555
 21
0.3257797704516674
 31
0.0
  0
LINE
  5
4F
330
42
100
AcDbEntity
  8
ASHADE
  6
Continuous
 62
     7
100
AcDbLine
 10
0.2703701166919155
 20
-0.13
 30
0.0
 11
0.3154318028072347
 21
-0.1516666666666666
 31
0.0
  0
LINE
  5
50
330
42
100
AcDbEntity
  8
ASHADE
  6
Continuous
 62
     7
100
AcDbLine
 10
0.2703701166919155
 20
0.13
 30
0.0
 11
0.3154318028072347
 21
0.1516666666666666
 31
0.0
  0
LINE
  5
51
330
42
100
AcDbEntity
  8
ASHADE
  6
Continuous
 62
     7
100
AcDbLine
 10
0.0
 20
0.3
 30
0.0
 11
0.0
 21
0.4
 31
0.0
  0
ATTDEF
  5
52
330
42
100
AcDbEntity
  8
ASHADE
  6
Continuous
 62
     7
100
AcDbText
 10
0.0
 20
0.22
 30
0.0
 40
0.01
  1
1
100
AcDbAttributeDefinition
280
     0
  3
Light Intensity
  2
INTENSITY
 70
     1
280
     0
  0
ATTDEF
  5
53
330
42
100
AcDbEntity
  8
ASHADE
  6
Continuous
 62
     7
100
AcDbText
 10
0.0
 20
0.16
 30
0.0
 40
0.01
  1
-1
100
AcDbAttributeDefinition
280
     0
  3
*not used*
  2
BEAMD
 70
     1
280
     0
  0
ATTDEF
  5
54
330
42
100
AcDbEntity
  8
ASHADE
  6
Continuous
 62
     7
100
AcDbText
 10
0.0
 20
0.175
 30
0.0
 40
0.01
  1
-1
100
AcDbAttributeDefinition
280
     0
  3
*not used*
  2
CONED
 70
     1
280
     0
  0
ATTDEF
  5
55
330
42
100
AcDbEntity
  8
ASHADE
  6
Continuous
 62
     7
100
AcDbText
 10
0.0
 20
0.19
 30
0.0
 40
0.01
  1
0
100
AcDbAttributeDefinition
280
     0
  3
Depth Map Size
  2
CONEA
 70
     1
280
     0
  0
ATTDEF
  5
56
330
42
100
AcDbEntity
  8
ASHADE
  6
Continuous
 62
     7
100
AcDbText
 10
0.0
 20
0.2050000000000001
 30
0.0
 40
0.01
  1
1,1,1
100
AcDbAttributeDefinition
280
     0
  3
Light Color (RGB)
  2
COLOR
 70
     1
280
     0
  0
ATTDEF
  5
57
330
42
100
AcDbEntity
  8
ASHADE
  6
Continuous
 62
     7
100
AcDbText
 10
0.0
 20
0.235
 30
0.0
 40
0.01
  1

100
AcDbAttributeDefinition
280
     0
  3
Look-at Z
  2
LAZ
 70
     1
280
     0
  0
ATTDEF
  5
58
330
42
100
AcDbEntity
  8
ASHADE
  6
Continuous
 62
     7
100
AcDbText
 10
0.0
 20
0.25
 30
0.0
 40
0.01
  1

100
AcDbAttributeDefinition
280
     0
  3
Look-at Y
  2
LAY
 70
     1
280
     0
  0
ATTDEF
  5
59
330
42
100
AcDbEntity
  8
ASHADE
  6
Continuous
 62
     7
100
AcDbText
 10
0.0
 20
0.265
 30
0.0
 40
0.01
  1

100
AcDbAttributeDefinition
280
     0
  3
Look-at X
  2
LAX
 70
     1
280
     0
  0
ATTDEF
  5
5A
330
42
100
AcDbEntity
  8
ASHADE
  6
Continuous
 62
     7
100
AcDbText
 10
0.0
 20
0.28
 30
0.0
 40
0.01
  1

100
AcDbAttributeDefinition
280
     0
  3

  2
GNAME
 70
     1
280
     0
  0
LINE
  5
5B
330
42
100
AcDbEntity
  8
ASHADE
  6
Continuous
 62
     7
100
AcDbLine
 10
0.1096591641591904
 20
0.2792398032442862
 30
0.0
 11
0.1279356915190555
 21
0.3257797704516674
 31
0.0
  0
LINE
  5
5C
330
42
100
AcDbEntity
  8
ASHADE
  6
Continuous
 62
     7
100
AcDbLine
 10
0.2041413561583015
 20
0.2198324514393849
 30
0.0
 11
0.2721884748777353
 21
0.2931099352525131
 31
0.0
  0
ENDBLK
  5
5E
330
42
100
AcDbEntity
  8
0
100
AcDbBlockEnd
  0
BLOCK
  5
85
330
5F
100
AcDbEntity
  8
0
100
AcDbBlockBegin
  2
sh_spot
 70
     2
 10
0.0
 20
0.0
 30
0.0
  3
sh_spot
  1

  0
LINE
  5
60
330
5F
100
AcDbEntity
  8
ASHADE
  6
Continuous
 62
     7
100
AcDbLine
 10
0.25
 20
0.26
 30
0.0
 11
-0.25
 21
0.26
 31
0.0
  0
LINE
  5
61
330
5F
100
AcDbEntity
  8
ASHADE
  6
Continuous
 62
     7
100
AcDbLine
 10
-0.25
 20
-0.3399999999999999
 30
0.0
 11
0.25
 21
-0.3399999999999999
 31
0.0
  0
ATTDEF
  5
62
330
5F
100
AcDbEntity
  8
ASHADE
  6
Continuous
 62
     1
100
AcDbText
 10
0.0
 20
-0.1
 30
0.0
 40
0.2
  1

  7
ASHADE
 72
     1
 11
0.0
 21
-0.1
 31
0.0
100
AcDbAttributeDefinition
280
     0
  3
Light Name
  2
SNAME
 70
     0
280
     0
  0
LINE
  5
63
330
5F
100
AcDbEntity
  8
ASHADE
  6
Continuous
 62
     7
100
AcDbLine
 10
-0.25
 20
-0.13
 30
0.0
 11
-0.25
 21
-0.3399999999999999
 31
0.0
  0
LINE
  5
64
330
5F
100
AcDbEntity
  8
ASHADE
  6
Continuous
 62
     7
100
AcDbLine
 10
-0.25
 20
-0.18
 30
0.0
 11
-0.29
 21
-0.18
 31
0.0
  0
LINE
  5
65
330
5F
100
AcDbEntity
  8
ASHADE
  6
Continuous
 62
     7
100
AcDbLine
 10
-0.29
 20
-0.22
 30
0.0
 11
-0.25
 21
-0.22
 31
0.0
  0
LINE
  5
66
330
5F
100
AcDbEntity
  8
ASHADE
  6
Continuous
 62
     7
100
AcDbLine
 10
-0.29
 20
-0.18
 30
0.0
 11
-0.29
 21
-0.22
 31
0.0
  0
LINE
  5
67
330
5F
100
AcDbEntity
  8
ASHADE
  6
Continuous
 62
     7
100
AcDbLine
 10
-0.1045454545454545
 20
0.26
 30
0.0
 11
-0.15
 21
0.46
 31
0.0
  0
LINE
  5
68
330
5F
100
AcDbEntity
  8
ASHADE
  6
Continuous
 62
     7
100
AcDbLine
 10
-0.21
 20
0.26
 30
0.0
 11
-0.301304347826087
 21
0.46
 31
0.0
  0
LINE
  5
69
330
5F
100
AcDbEntity
  8
ASHADE
  6
Continuous
 62
     7
100
AcDbLine
 10
-0.25
 20
0.26
 30
0.0
 11
-0.25
 21
0.13
 31
0.0
  0
LINE
  5
6A
330
5F
100
AcDbEntity
  8
ASHADE
  6
Continuous
 62
     7
100
AcDbLine
 10
-0.25
 20
0.22
 30
0.0
 11
-0.29
 21
0.22
 31
0.0
  0
LINE
  5
6B
330
5F
100
AcDbEntity
  8
ASHADE
  6
Continuous
 62
     7
100
AcDbLine
 10
-0.29
 20
0.1799999999999999
 30
0.0
 11
-0.25
 21
0.1799999999999999
 31
0.0
  0
LINE
  5
6C
330
5F
100
AcDbEntity
  8
ASHADE
  6
Continuous
 62
     7
100
AcDbLine
 10
-0.29
 20
0.22
 30
0.0
 11
-0.29
 21
0.1799999999999999
 31
0.0
  0
ATTDEF
  5
6D
330
5F
100
AcDbEntity
  8
ASHADE
  6
Continuous
 62
     7
100
AcDbText
 10
0.0
 20
-0.24
 30
0.0
 40
0.01
  1
0
100
AcDbAttributeDefinition
280
     0
  3
Depth Map Size
  2
ZSIZE
 70
     1
280
     0
  0
ATTDEF
  5
6E
330
5F
100
AcDbEntity
  8
ASHADE
  6
Continuous
 62
     7
100
AcDbText
 10
0.0
 20
-0.3300000000000001
 30
0.0
 40
0.01
  1
0,0,0
100
AcDbAttributeDefinition
280
     0
  3
Look-from XYZ
  2
LFXYZ
 70
     1
280
     0
  0
ATTDEF
  5
6F
330
5F
100
AcDbEntity
  8
ASHADE
  6
Continuous
 62
     7
100
AcDbText
 10
0.0
 20
-0.315
 30
0.0
 40
0.01
  1
0.0
100
AcDbAttributeDefinition
280
     0
  3
Beam Distribution
  2
BEAMDI
 70
     1
280
     0
  0
ATTDEF
  5
70
330
5F
100
AcDbEntity
  8
ASHADE
  6
Continuous
 62
     7
100
AcDbText
 10
0.0
 20
-0.3
 30
0.0
 40
0.01
  1
0.0
100
AcDbAttributeDefinition
280
     0
  3
Cone Delta
  2
CONEDE
 70
     1
280
     0
  0
ATTDEF
  5
71
330
5F
100
AcDbEntity
  8
ASHADE
  6
Continuous
 62
     7
100
AcDbText
 10
0.0
 20
-0.2850000000000001
 30
0.0
 40
0.01
  1
10.0
100
AcDbAttributeDefinition
280
     0
  3
Cone Angle
  2
CONEAN
 70
     1
280
     0
  0
ATTDEF
  5
72
330
5F
100
AcDbEntity
  8
ASHADE
  6
Continuous
 62
     7
100
AcDbText
 10
0.0
 20
-0.27
 30
0.0
 40
0.01
  1
-1
100
AcDbAttributeDefinition
280
     0
  3
*not used*
  2
BIASMAX
 70
     1
280
     0
  0
ATTDEF
  5
73
330
5F
100
AcDbEntity
  8
ASHADE
  6
Continuous
 62
     7
100
AcDbText
 10
0.0
 20
-0.255
 30
0.0
 40
0.01
  1
-1
100
AcDbAttributeDefinition
280
     0
  3
*not used*
  2
BIASMIN
 70
     1
280
     0
  0
ATTDEF
  5
74
330
5F
100
AcDbEntity
  8
ASHADE
  6
Continuous
 62
     7
100
AcDbText
 10
0.0
 20
-0.225
 30
0.0
 40
0.01
  1
1,1,1
100
AcDbAttributeDefinition
280
     0
  3
Light Color (RGB)
  2
COLOR
 70
     1
280
     0
  0
ATTDEF
  5
75
330
5F
100
AcDbEntity
  8
ASHADE
  6
Continuous
 62
     7
100
AcDbText
 10
0.0
 20
-0.21
 30
0.0
 40
0.01
  1
1
100
AcDbAttributeDefinition
280
     0
  3
Light Intensity
  2
INTENSITY
 70
     1
280
     0
  0
ATTDEF
  5
76
330
5F
100
AcDbEntity
  8
ASHADE
  6
Continuous
 62
     7
100
AcDbText
 10
0.0
 20
-0.15
 30
0.0
 40
0.01
  1

100
AcDbAttributeDefinition
280
     0
  3

  2
GNAME
 70
     1
280
     0
  0
ATTDEF
  5
77
330
5F
100
AcDbEntity
  8
ASHADE
  6
Continuous
 62
     7
100
AcDbText
 10
0.0
 20
-0.195
 30
0.0
 40
0.01
  1

100
AcDbAttributeDefinition
280
     0
  3
Look-at Z
  2
LAZ
 70
     1
280
     0
  0
ATTDEF
  5
78
330
5F
100
AcDbEntity
  8
ASHADE
  6
Continuous
 62
     7
100
AcDbText
 10
0.0
 20
-0.18
 30
0.0
 40
0.01
  1

100
AcDbAttributeDefinition
280
     0
  3
Look-at Y
  2
LAY
 70
     1
280
     0
  0
ATTDEF
  5
79
330
5F
100
AcDbEntity
  8
ASHADE
  6
Continuous
 62
     7
100
AcDbText
 10
0.0
 20
-0.165
 30
0.0
 40
0.01
  1

100
AcDbAttributeDefinition
280
     0
  3
Look-at X
  2
LAX
 70
     1
280
     0
  0
LINE
  5
7A
330
5F
100
AcDbEntity
  8
ASHADE
  6
Continuous
 62
     7
100
AcDbLine
 10
0.25
 20
-0.3399999999999999
 30
0.0
 11
0.25
 21
-0.13
 31
0.0
  0
LINE
  5
7B
330
5F
100
AcDbEntity
  8
ASHADE
  6
Continuous
 62
     7
100
AcDbLine
 10
0.25
 20
-0.18
 30
0.0
 11
0.29
 21
-0.18
 31
0.0
  0
LINE
  5
7C
330
5F
100
AcDbEntity
  8
ASHADE
  6
Continuous
 62
     7
100
AcDbLine
 10
0.29
 20
-0.22
 30
0.0
 11
0.25
 21
-0.22
 31
0.0
  0
LINE
  5
7D
330
5F
100
AcDbEntity
  8
ASHADE
  6
Continuous
 62
     7
100
AcDbLine
 10
0.29
 20
-0.18
 30
0.0
 11
0.29
 21
-0.22
 31
0.0
  0
LINE
  5
7E
330
5F
100
AcDbEntity
  8
ASHADE
  6
Continuous
 62
     7
100
AcDbLine
 10
0.21
 20
0.26
 30
0.0
 11
0.301304347826087
 21
0.46
 31
0.0
  0
LINE
  5
7F
330
5F
100
AcDbEntity
  8
ASHADE
  6
Continuous
 62
     7
100
AcDbLine
 10
0.1045454545454545
 20
0.26
 30
0.0
 11
0.15
 21
0.46
 31
0.0
  0
LINE
  5
80
330
5F
100
AcDbEntity
  8
ASHADE
  6
Continuous
 62
     7
100
AcDbLine
 10
0.0
 20
0.26
 30
0.0
 11
0.0
 21
0.46
 31
0.0
  0
LINE
  5
81
330
5F
100
AcDbEntity
  8
ASHADE
  6
Continuous
 62
     7
100
AcDbLine
 10
0.25
 20
0.13
 30
0.0
 11
0.25
 21
0.26
 31
0.0
  0
LINE
  5
82
330
5F
100
AcDbEntity
  8
ASHADE
  6
Continuous
 62
     7
100
AcDbLine
 10
0.25
 20
0.22
 30
0.0
 11
0.29
 21
0.22
 31
0.0
  0
LINE
  5
83
330
5F
100
AcDbEntity
  8
ASHADE
  6
Continuous
 62
     7
100
AcDbLine
 10
0.29
 20
0.1799999999999999
 30
0.0
 11
0.25
 21
0.1799999999999999
 31
0.0
  0
LINE
  5
84
330
5F
100
AcDbEntity
  8
ASHADE
  6
Continuous
 62
     7
100
AcDbLine
 10
0.29
 20
0.22
 30
0.0
 11
0.29
 21
0.1799999999999999
 31
0.0
  0
ENDBLK
  5
86
330
5F
100
AcDbEntity
  8
0
100
AcDbBlockEnd
  0
BLOCK
  5
92
330
91
100
AcDbEntity
  8
ASHADE
100
AcDbBlockBegin
  2
AVE_RENDER
 70
     0
 10
0.0
 20
0.0
 30
0.0
  3
AVE_RENDER
  1
AVE_RENDER
  0
ENDBLK
  5
93
330
91
100
AcDbEntity
  8
0
100
AcDbBlockEnd
  0
BLOCK
  5
A0
330
9F
100
AcDbEntity
  8
ASHADE
100
AcDbBlockBegin
  2
AVE_GLOBAL
 70
     0
 10
0.0
 20
0.0
 30
0.0
  3
AVE_GLOBAL
  1
AVE_GLOBAL
  0
ENDBLK
  5
A1
330
9F
100
AcDbEntity
  8
0
100
AcDbBlockEnd
  0
ENDSEC
  0
SECTION
  2
ENTITIES
  0
INSERT
  5
94
330
1F
100
AcDbEntity
  8
ASHADE
 62
     1
100
AcDbBlockReference
  2
AVE_RENDER
 10
0.0
 20
0.0
 30
0.0
1001
AVE_RENDER
1002
{
1070
     7
1000
Pref
1070
    30
1070
    20
1070
     1
1070
     0
1000

1070
    10
1070
     1
1070
    10
1040
1.0
1070
     1
1040
0.3
1040
0.7
1040
0.0
1040
10.0
1010
-1.0
1020
-1.0
1030
-1.0
1040
0.3
1070
    49
1070
     0
1070
     0
1010
1.0
1020
1.0
1030
1.0
1040
45.0
1070
     1
1070
     0
1000
WCS
1040
0.0
1070
     0
1040
10.0
1002
}
  0
INSERT
  5
95
330
1F
100
AcDbEntity
  8
ASHADE
 62
     3
100
AcDbBlockReference
  2
AVE_RENDER
 10
0.0
 20
0.0
 30
0.0
1001
AVE_RENDER
1002
{
1070
     0
1000
Full Opt
1070
     0
1070
     1
1070
     1
1070
     1
1070
     0
1070
     0
1070
     0
1070
     1
1070
     1
1040
0.0001
1040
0.0001
1002
}
  0
INSERT
  5
96
330
1F
100
AcDbEntity
  8
ASHADE
 62
     4
100
AcDbBlockReference
  2
AVE_RENDER
 10
0.0
 20
0.0
 30
0.0
1001
AVE_RENDER
1002
{
1070
     0
1000
Quick Opt
1070
     0
1070
     1
1070
     1
1070
     1
1070
     0
1070
     0
1070
     1
1002
}
  0
INSERT
  5
97
330
1F
100
AcDbEntity
  8
ASHADE
 62
     5
100
AcDbBlockReference
  2
AVE_RENDER
 10
0.0
 20
0.0
 30
0.0
1001
AVE_RENDER
1002
{
1070
     1
1000
Scanl Opt
1070
     2
1070
     0
1070
     2
1040
2.0
1040
4.0
1070
     0
1070
     1
1070
     0
1040
0.03
1002
}
  0
INSERT
  5
98
330
1F
100
AcDbEntity
  8
ASHADE
 62
     6
100
AcDbBlockReference
  2
AVE_RENDER
 10
0.0
 20
0.0
 30
0.0
1001
AVE_RENDER
1002
{
1070
     2
1000
Raytr Opt
1070
     2
1070
     0
1070
     2
1040
2.0
1040
4.0
1070
     0
1070
     1
1070
     1
1040
0.03
1070
     3
1040
0.03
1002
}
  0
INSERT
  5
99
330
1F
100
AcDbEntity
  8
ASHADE
 62
     7
100
AcDbBlockReference
  2
AVE_RENDER
 10
0.0
 20
0.0
 30
0.0
1001
AVE_RENDER
1002
{
1070
     0
1000
RFile Opt
1070
     1
1070
   640
1070
   480
1070
 10000
1070
     1
1070
     8
1070
     8
1070
     0
1070
     0
1070
     0
1070
     0
1070
     0
1070
     0
1070
     0
1002
}
  0
INSERT
  5
9A
330
1F
100
AcDbEntity
  8
ASHADE
 62
     8
100
AcDbBlockReference
  2
AVE_RENDER
 10
0.0
 20
0.0
 30
0.0
1001
AVE_RENDER
1002
{
1070
     0
1000
Fog Opt
1070
     0
1070
     0
1040
0.0
1040
1.0
1040
0.0
1040
1.0
1010
0.5
1020
0.5
1030
0.5
1002
}
  0
INSERT
  5
9B
330
1F
100
AcDbEntity
  8
ASHADE
 62
     9
100
AcDbBlockReference
  2
AVE_RENDER
 10
0.0
 20
0.0
 30
0.0
1001
AVE_RENDER
1002
{
1070
     0
1000
BG Opt
1070
     0
1070
     1
1010
0.0
1020
0.0
1030
0.0
1010
1.0
1020
0.0
1030
0.0
1010
0.0
1020
1.0
1030
0.0
1010
0.0
1020
0.0
1030
1.0
1040
0.5
1040
0.33
1040
0.0
1000

1070
     1
1000

1070
     1
1070
     1
1040
1.0
1040
1.0
1040
0.0
1040
0.0
1070
     0
1002
}
  0
INSERT
  5
A2
330
1F
100
AcDbEntity
  8
ASHADE
 62
     1
100
AcDbBlockReference
  2
AVE_GLOBAL
 10
0.0
 20
0.0
 30
0.0
1001
AVE_MATERIAL
1002
{
1000
*GLOBAL*
1000
2
1000
Global finish.
1002
{
1002
}
1002
{
1070
    63
1002
{
1002
{
1010
-1.0
1020
-1.0
1030
-1.0
1002
}
1040
0.1000000014901161
1000

1040
0.0
1002
{
1002
}
1040
0.0
1002
{
1002
}
1040
0.0
1002
}
1002
{
1002
{
1010
-1.0
1020
-1.0
1030
-1.0
1002
}
1040
0.6999999880790711
1000

1040
0.0
1002
{
1002
}
1040
0.0
1002
{
1002
}
1040
0.0
1002
}
1002
{
1002
{
1010
-1.0
1020
-1.0
1030
-1.0
1002
}
1040
0.2000000029802322
1000

1040
0.0
1002
{
1002
}
1040
0.0
1002
{
1002
}
1040
0.0
1002
}
1002
{
1070
     0
1002
{
1070
     1
1002
{
1040
1.0
1040
1.0
1000

1040
0.0
1002
{
1002
}
1040
0.0
1002
{
1002
}
1040
0.0
1002
}
1002
}
1040
1.0
1040
0.0
1040
0.0
1002
}
1002
{
1040
1.0
1040
1.0
1000

1040
0.0
1002
{
1002
}
1040
0.0
1002
{
1002
}
1040
0.0
1002
}
1002
{
1040
0.5
1040
1.0
1000

1040
0.0
1002
{
1002
}
1040
0.0
1002
{
1002
}
1040
0.0
1002
}
1002
{
1070
     0
1040
0.0
1002
{
1002
}
1040
1.0
1002
{
1002
}
1040
0.0
1002
}
1002
{
1040
0.0
1002
{
1002
{
1010
0.0
1020
0.0
1030
0.0
1002
}
1040
1.0
1000

1040
0.0
1002
{
1002
}
1040
0.0
1002
{
1002
}
1040
0.0
1002
}
1002
}
1002
{
1002
{
1070
     1
1002
{
1040
0.0
1040
1.0
1000

1040
0.0
1002
{
1002
}
1040
0.0
1002
{
1002
}
1040
0.0
1002
}
1002
}
1040
0.0
1002
{
1002
}
1010
1.0
1020
0.0
1030
0.0
1010
0.0
1020
1.0
1030
0.0
1010
0.0
1020
0.0
1030
1.0
1070
     0
1002
}
1002
{
1002
{
1040
1.0
1040
1.0
1002
{
1070
     1
1002
{
1040
1.0
1040
1.0
1000

1040
0.0
1002
{
1002
}
1040
0.0
1002
{
1002
}
1040
0.0
1002
}
1002
}
1002
}
1070
     0
1040
0.0
1002
{
1002
}
1002
}
1002
{
1002
}
1002
}
1002
{
1071
        3
1070
     3
1070
     0
1002
{
1070
     2
1070
     0
1070
     0
1040
0.0
1002
}
1070
     0
1070
     2
1002
{
1002
}
1002
}
1002
{
1040
8030.0
1040
190.3000030517578
1040
0.3050000071525574
1040
228.0
1040
545.0
1040
14.0
1040
17.39999961853027
1040
0.4560000002384186
1002
}
1002
}
  0
MESH
  5
F9
330
1F
100
AcDbEntity
  8
OracDecor_cornice_mouldings
 62
    73
420
  9429335
160
             38384
310
F09500002A0400000C00000013000000020000003C00000006000000020000000000004000408FC00000004050DA59C0000000000080323F0000004000408FC00000004083CD57C00000000000005C3F0C000000130000000A0000003C00000006000000020000000000004000408FC00000004050DA59C000000000008032
310
3F0000000000408F400000008051DA59C0000000000040423F0C00000013000000120000003C00000006000000020000000000000000408F400000008051DA59C0000000000040423F0000000000408F40000000C084CD57C0000000000030603F0C000000130000001A0000003C0000000600000002000000000000400040
310
8FC00000004083CD57C00000000000005C3F0000000000408F40000000C084CD57C0000000000030603F0C00000013000000220000003C00000006000000020000000000004000408FC00000004050DA59C0000000000080323F0000004000408FC0000000C033DA59C000000000500024C00C000000130000002A0000003C
310
00000006000000020000000000000000408F400000004035DA59C0000000002D0024C00000004000408FC0000000C033DA59C000000000500024C00C00000013000000320000003C00000006000000020000000000000000408F400000008051DA59C0000000000040423F0000000000408F400000004035DA59C000000000
310
2D0024C00C000000130000003A0000003C00000006000000020000000000004000408FC0000000C033DA59C000000000500024C00000004000408FC0000000C022E658C0000000000BB823C00C00000013000000420000003C00000006000000020000000000000000408F400000004024E658C000000000E8B723C0000000
310
4000408FC0000000C022E658C0000000000BB823C00C000000130000004A0000003C00000006000000020000000000000000408F400000004035DA59C0000000002D0024C00000000000408F400000004024E658C000000000E8B723C00C00000013000000520000003C00000006000000020000000000004000408FC00000
310
00C022E658C0000000000BB823C00000004000408FC0000000C073CB58C000000000461D2EC00C000000130000005A0000003C00000006000000020000000000000000408F400000004075CB58C000000000241D2EC00000004000408FC0000000C073CB58C000000000461D2EC00C00000013000000620000003C00000006
310
000000020000000000000000408F400000004024E658C000000000E8B723C00000000000408F400000004075CB58C000000000241D2EC00C000000130000006A0000003C00000006000000020000000000004000408FC0000000C073CB58C000000000461D2EC00000004000408FC000000000315E58C000000000C14E2EC0
310
0C00000013000000720000003C00000006000000020000000000004000408FC000000000315E58C000000000C14E2EC00000000000408F4000000040325E58C0000000009F4E2EC00C000000130000007A0000003C00000006000000020000000000000000408F400000004075CB58C000000000241D2EC00000000000408F
310
4000000040325E58C0000000009F4E2EC00C00000013000000820000003C00000006000000020000000000004000408FC0000000C0790B58C0000000007BB22EC00000004000408FC000000000315E58C000000000C14E2EC00C000000130000008A0000003C00000006000000020000000000004000408FC0000000C0790B
310
58C0000000007BB22EC00000000000408F40000000407B0B58C00000000057B22EC00C00000013000000920000003C00000006000000020000000000000000408F4000000040325E58C0000000009F4E2EC00000000000408F40000000407B0B58C00000000057B22EC00C000000130000009A0000003C0000000600000002
310
0000000000004000408FC000000000ED8257C000000080A10330C00000004000408FC0000000C0790B58C0000000007BB22EC00C00000013000000A20000003C00000006000000020000000000004000408FC000000000ED8257C000000080A10330C00000000000408F4000000080EE8257C000000080910330C00C000000
310
13000000AA0000003C00000006000000020000000000000000408F40000000407B0B58C00000000057B22EC00000000000408F4000000080EE8257C000000080910330C00C00000013000000B20000003C00000006000000020000000000004000408FC000000040471F57C0000000000FF430C00000004000408FC0000000
310
00ED8257C000000080A10330C00C00000013000000BA0000003C00000006000000020000000000004000408FC000000040471F57C0000000000FF430C00000000000408F40000000C0481F57C000000080FDF330C00C00000013000000C20000003C00000006000000020000000000000000408F4000000080EE8257C00000
310
0080910330C00000000000408F40000000C0481F57C000000080FDF330C00C00000013000000CA0000003C00000006000000020000000000004000408FC00000000038F356C0000000009C9431C00000004000408FC000000040471F57C0000000000FF430C00C00000013000000D20000003C000000060000000200000000
310
00004000408FC00000000038F356C0000000009C9431C00000000000408F400000004039F356C0000000008C9431C00C00000013000000DA0000003C00000006000000020000000000000000408F40000000C0481F57C000000080FDF330C00000000000408F400000004039F356C0000000008C9431C00C00000013000000
310
E20000003C00000006000000020000000000004000408FC000000080C3CB56C000000080915232C00000004000408FC00000000038F356C0000000009C9431C00C00000013000000EA0000003C00000006000000020000000000004000408FC000000080C3CB56C000000080915232C00000000000408F4000000000C5CB56
310
C000000000825232C00C00000013000000F20000003C00000006000000020000000000000000408F400000004039F356C0000000008C9431C00000000000408F4000000000C5CB56C000000000825232C00C00000013000000FA0000003C00000006000000020000000000004000408FC00000000076A756C000000000863B
310
33C00000004000408FC000000080C3CB56C000000080915232C00C00000013000000020100003C00000006000000020000000000004000408FC00000000076A756C000000000863B33C00000000000408F400000008077A756C000000080753B33C00C000000130000000A0100003C00000006000000020000000000000000
310
408F4000000000C5CB56C000000000825232C00000000000408F400000008077A756C000000080753B33C00C00000013000000120100003C00000006000000020000000000004000408FC0000000C0858656C000000080CB5B34C00000004000408FC00000000076A756C000000000863B33C00C000000130000001A010000
310
3C00000006000000020000000000004000408FC0000000C0858656C000000080CB5B34C00000000000408F4000000040878656C000000080BB5B34C00C00000013000000220100003C00000006000000020000000000000000408F400000008077A756C000000080753B33C00000000000408F4000000040878656C0000000
310
80BB5B34C00C000000130000002A0100003C00000006000000020000000000004000408FC0000000403F6B56C00000008029A435C00000004000408FC0000000C0858656C000000080CB5B34C00C00000013000000320100003C00000006000000020000000000004000408FC0000000403F6B56C00000008029A435C00000
310
000000408F40000000C0406B56C00000008019A435C00C000000130000003A0100003C00000006000000020000000000000000408F4000000040878656C000000080BB5B34C00000000000408F40000000C0406B56C00000008019A435C00C00000013000000420100003C00000006000000020000000000004000408FC000
310
000080D13E56C000000080959238C00000004000408FC0000000403F6B56C00000008029A435C00C000000130000004A0100003C00000006000000020000000000004000408FC000000080D13E56C000000080959238C00000000000408F4000000000D33E56C000000080849238C00C00000013000000520100003C000000
310
06000000020000000000000000408F40000000C0406B56C00000008019A435C00000000000408F4000000000D33E56C000000080849238C00C000000130000005A0100003C00000006000000020000000000004000408FC0000000C00C1156C000000080AF603BC00000004000408FC000000080D13E56C000000080959238
310
C00C00000013000000620100003C00000006000000020000000000004000408FC0000000C00C1156C000000080AF603BC00000000000408F40000000400E1156C0000000809F603BC00C000000130000006A0100003C00000006000000020000000000000000408F4000000000D33E56C000000080849238C0000000000040
310
8F40000000400E1156C0000000809F603BC00C00000013000000720100003C00000006000000020000000000004000408FC000000000BCF555C000000000B07B3CC00000004000408FC0000000C00C1156C000000080AF603BC00C000000130000007A0100003C00000006000000020000000000004000408FC000000000BC
310
F555C000000000B07B3CC00000000000408F4000000080BDF555C0000000809E7B3CC00C00000013000000820100003C00000006000000020000000000000000408F40000000400E1156C0000000809F603BC00000000000408F4000000080BDF555C0000000809E7B3CC00C000000130000008A0100003C00000006000000
310
020000000000004000408FC0000000C0B8D655C00000008039653DC00000004000408FC000000000BCF555C000000000B07B3CC00C00000013000000920100003C00000006000000020000000000004000408FC0000000C0B8D655C00000008039653DC00000000000408F4000000000BAD655C0000000002A653DC00C0000
310
00130000009A0100003C00000006000000020000000000000000408F4000000080BDF555C0000000809E7B3CC00000000000408F4000000000BAD655C0000000002A653DC00C00000013000000A20100003C00000006000000020000000000004000408FC000000000E7B455C000000080F91E3EC00000004000408FC00000
310
00C0B8D655C00000008039653DC00C00000013000000AA0100003C00000006000000020000000000004000408FC000000000E7B455C000000080F91E3EC00000000000408F4000000040E8B455C000000000EA1E3EC00C00000013000000B20100003C00000006000000020000000000000000408F4000000000BAD655C000
310
0000002A653DC00000000000408F4000000040E8B455C000000000EA1E3EC00C00000013000000BA0100003C00000006000000020000000000004000408FC0000000C0DC6155C000000080F23B3FC00000004000408FC000000000E7B455C000000080F91E3EC00C00000013000000C20100003C0000000600000002000000
310
0000004000408FC0000000C0DC6155C000000080F23B3FC00000000000408F4000000040DE6155C000000080E23B3FC00C00000013000000CA0100003C00000006000000020000000000000000408F4000000040E8B455C000000000EA1E3EC00000000000408F4000000040DE6155C000000080E23B3FC00C000000130000
310
00D20100003C00000006000000020000000000004000408FC00000004065F054C00000008043F33FC00000004000408FC0000000C0DC6155C000000080F23B3FC00C00000013000000DA0100003C00000006000000020000000000004000408FC00000004065F054C00000008043F33FC00000000000408F40000000C066F0
310
54C00000008033F33FC00C00000013000000E20100003C00000006000000020000000000000000408F4000000040DE6155C000000080E23B3FC00000000000408F40000000C066F054C00000008033F33FC00C00000013000000EA0100003C00000006000000020000000000004000408FC0000000806FAB54C00000008034
310
1140C00000004000408FC00000004065F054C00000008043F33FC00C00000013000000F20100003C00000006000000020000000000004000408FC0000000806FAB54C000000080341140C00000000000408F400000000071AB54C0000000002C1140C00C00000013000000FA0100003C000000060000000200000000000000
310
00408F40000000C066F054C00000008033F33FC00000000000408F400000000071AB54C0000000002C1140C00C00000013000000020200003C00000006000000020000000000004000408FC0000000405C5254C000000000911840C00000004000408FC0000000806FAB54C000000080341140C00C000000130000000A0200
310
003C00000006000000020000000000004000408FC0000000405C5254C000000000911840C00000000000408F40000000C05D5254C000000080881840C00C00000013000000120200003C00000006000000020000000000000000408F400000000071AB54C0000000002C1140C00000000000408F40000000C05D5254C00000
310
0080881840C00C000000130000001A0200003C00000006000000020000000000004000408FC0000000405C5254C000000000911840C00000004000408FC000000080A15F54C0000000800DFE41C00C00000013000000220200003C00000006000000020000000000000000408F40000000409F5F54C00000004005FE41C000
310
00004000408FC000000080A15F54C0000000800DFE41C00C000000130000002A0200003C00000006000000020000000000000000408F40000000C05D5254C000000080881840C00000000000408F40000000409F5F54C00000004005FE41C00C00000013000000320200003C00000006000000020000000000004000408FC0
310
00000080A15F54C0000000800DFE41C00000004000408FC000000040017453C0000000C02A5342C00C000000130000003A0200003C00000006000000020000000000004000408FC000000040017453C0000000C02A5342C00000000000408F4000000000FF7353C000000040225342C00C00000013000000420200003C0000
310
0006000000020000000000000000408F40000000409F5F54C00000004005FE41C00000000000408F4000000000FF7353C000000040225342C00C000000130000004A0200003C00000006000000020000000000004000408FC0000000001AB151C000000040981D43C00000004000408FC000000040017453C0000000C02A53
310
42C00C00000013000000520200003C00000006000000020000000000004000408FC0000000001AB151C000000040981D43C00000000000408F40000000801BB151C0000000C08F1D43C00C000000130000005A0200003C00000006000000020000000000000000408F4000000000FF7353C000000040225342C00000000000
310
408F40000000801BB151C0000000C08F1D43C00C00000013000000620200003C00000006000000020000000000004000408FC0000000A0B80350C0000000C06A1A44C00000004000408FC0000000001AB151C000000040981D43C00C000000130000006A0200003C00000006000000020000000000004000408FC0000000A0
310
B80350C0000000C06A1A44C00000000000408F4000000000BA0350C000000080621A44C00C00000013000000720200003C00000006000000020000000000000000408F40000000801BB151C0000000C08F1D43C00000000000408F4000000000BA0350C000000080621A44C00C000000130000007A0200003C000000060000
310
00020000000000004000408FC0000000A08F164DC0000000809F3345C00000004000408FC0000000A0B80350C0000000C06A1A44C00C00000013000000820200003C00000006000000020000000000004000408FC0000000A08F164DC0000000809F3345C00000000000408F400000000096164DC000000040973345C00C00
310
0000130000008A0200003C00000006000000020000000000000000408F4000000000BA0350C000000080621A44C00000000000408F400000000096164DC000000040973345C00C00000013000000920200003C00000006000000020000000000004000408FC000000000D8504AC0000000C0627C46C00000004000408FC000
310
0000A08F164DC0000000809F3345C00C000000130000009A0200003C00000006000000020000000000004000408FC000000000D8504AC0000000C0627C46C00000000000408F4000000060DE504AC0000000805A7C46C00C00000013000000A20200003C00000006000000020000000000000000408F400000000096164DC0
310
00000040973345C00000000000408F4000000060DE504AC0000000805A7C46C00C00000013000000AA0200003C00000006000000020000000000004000408FC00000004085A647C000000040460048C00000004000408FC000000000D8504AC0000000C0627C46C00C00000013000000B20200003C00000006000000020000
310
000000004000408FC00000004085A647C000000040460048C00000000000408F40000000E08BA647C0000000C03D0048C00C00000013000000BA0200003C00000006000000020000000000000000408F4000000060DE504AC0000000805A7C46C00000000000408F40000000E08BA647C0000000C03D0048C00C0000001300
310
0000C20200003C00000006000000020000000000004000408FC0000000600D4845C0000000C0E6A449C00000004000408FC00000004085A647C000000040460048C00C00000013000000CA0200003C00000006000000020000000000004000408FC0000000600D4845C0000000C0E6A449C00000000000408F400000008013
310
4845C000000040DEA449C00C00000013000000D20200003C00000006000000020000000000000000408F40000000E08BA647C0000000C03D0048C00000000000408F4000000080134845C000000040DEA449C00C00000013000000DA0200003C00000006000000020000000000004000408FC000000060CD2743C000000080
310
536E4BC00000004000408FC0000000600D4845C0000000C0E6A449C00C00000013000000E20200003C00000006000000020000000000004000408FC000000060CD2743C000000080536E4BC00000000000408F40000000C0D32743C0000000404B6E4BC00C00000013000000EA0200003C0000000600000002000000000000
310
0000408F4000000080134845C000000040DEA449C00000000000408F40000000C0D32743C0000000404B6E4BC00C00000013000000F20200003C00000006000000020000000000004000408FC0000000E0424141C0000000C0235C4DC00000004000408FC000000060CD2743C000000080536E4BC00C00000013000000FA02
310
00003C00000006000000020000000000004000408FC0000000E0424141C0000000C0235C4DC00000000000408F4000000040494141C0000000801B5C4DC00C00000013000000020300003C00000006000000020000000000000000408F40000000C0D32743C0000000404B6E4BC00000000000408F4000000040494141C000
310
0000801B5C4DC00C000000130000000A0300003C00000006000000020000000000004000408FC0000000C00A183FC000000000D9754FC00000004000408FC0000000E0424141C0000000C0235C4DC00C00000013000000120300003C00000006000000020000000000004000408FC0000000C00A183FC000000000D9754FC0
310
0000000000408F400000004010183FC000000080D0754FC00C000000130000001A0300003C00000006000000020000000000000000408F4000000040494141C0000000801B5C4DC00000000000408F400000004010183FC000000080D0754FC00C00000013000000220300003C00000006000000020000000000004000408F
310
C000000040A10B3CC00000008030E050C00000004000408FC0000000C00A183FC000000000D9754FC00C000000130000002A0300003C00000006000000020000000000004000408FC000000040A10B3CC00000008030E050C00000000000408F4000000040A60B3CC0000000402CE050C00C00000013000000320300003C00
310
000006000000020000000000000000408F400000004010183FC000000080D0754FC00000000000408F4000000040A60B3CC0000000402CE050C00C000000130000003A0300003C00000006000000020000000000004000408FC0000000801E5B39C000000020FC2152C00000004000408FC000000040A10B3CC00000008030
310
E050C00C00000013000000420300003C00000006000000020000000000004000408FC0000000801E5B39C000000020FC2152C00000000000408F4000000000245B39C0000000E0F72152C00C000000130000004A0300003C00000006000000020000000000000000408F4000000040A60B3CC0000000402CE050C000000000
310
00408F4000000000245B39C0000000E0F72152C00C00000013000000520300003C00000006000000020000000000004000408FC000000000C40837C0000000E0BC8453C00000004000408FC0000000801E5B39C000000020FC2152C00C000000130000005A0300003C00000006000000020000000000004000408FC0000000
310
00C40837C0000000E0BC8453C00000000000408F4000000080C90837C0000000A0B88453C00C00000013000000620300003C00000006000000020000000000000000408F4000000000245B39C0000000E0F72152C00000000000408F4000000080C90837C0000000A0B88453C00C000000130000006A0300003C0000000600
310
0000020000000000004000408FC000000080FA3835C0000000008AF154C00000004000408FC000000000C40837C0000000E0BC8453C00C00000013000000720300003C00000006000000020000000000004000408FC000000080FA3835C0000000008AF154C00000000000408F4000000040003935C0000000C085F154C00C
310
000000130000007A0300003C00000006000000020000000000000000408F4000000080C90837C0000000A0B88453C00000000000408F4000000040003935C0000000C085F154C00C00000013000000820300003C00000006000000020000000000004000408FC0000000802DDB33C000000060107056C00000004000408FC0
310
00000080FA3835C0000000008AF154C00C000000130000008A0300003C00000006000000020000000000004000408FC0000000802DDB33C000000060107056C00000000000408F400000004033DB33C0000000400C7056C00C00000013000000920300003C00000006000000020000000000000000408F4000000040003935
310
C0000000C085F154C00000000000408F400000004033DB33C0000000400C7056C00C000000130000009A0300003C00000006000000020000000000004000408FC000000000DDDE32C0000000C0D51858C00000004000408FC0000000802DDB33C000000060107056C00C00000013000000A20300003C000000060000000200
310
00000000004000408FC000000000DDDE32C0000000C0D51858C00000000000408F40000000C0E2DE32C000000040D11858C00C00000013000000AA0300003C00000006000000020000000000000000408F400000004033DB33C0000000400C7056C00000000000408F40000000C0E2DE32C000000040D11858C00C00000013
310
000000B20300003C00000006000000020000000000004000408FC0000000E08E5732C0000000C00FE659C00000004000408FC000000000DDDE32C0000000C0D51858C00C00000013000000BA0300003C00000006000000020000000000004000408FC0000000E08E5732C0000000C00FE659C00000000000408F4000000060
310
945732C0000000800BE659C00C00000013000000C20300003C00000006000000020000000000000000408F40000000C0E2DE32C000000040D11858C00000000000408F4000000060945732C0000000800BE659C00C00000013000000CA0300003C00000006000000020000000000004000408FC0000000E08E5732C0000000
310
C00FE659C00000004000408FC0000000001B9C32C0000000C0BDC95BC00C00000013000000D20300003C00000006000000020000000000004000408FC0000000001B9C32C0000000C0BDC95BC00000000000408F4000000080209C32C000000080B9C95BC00C00000013000000DA0300003C00000006000000020000000000
310
000000408F4000000060945732C0000000800BE659C00000000000408F4000000080209C32C000000080B9C95BC00C00000013000000E20300003C00000006000000020000000000004000408FC0000000801CA133C0000000404EC15CC00000004000408FC0000000001B9C32C0000000C0BDC95BC00C00000013000000EA
310
0300003C00000006000000020000000000004000408FC0000000801CA133C0000000404EC15CC00000000000408F400000008022A133C0000000004AC15CC00C00000013000000F20300003C00000006000000020000000000000000408F4000000080209C32C000000080B9C95BC00000000000408F400000008022A133C0
310
000000004AC15CC00C00000013000000FA0300003C00000006000000020000000000004000408FC000000000C2D234C00000008004405DC00000004000408FC0000000801CA133C0000000404EC15CC00C00000013000000020400003C00000006000000020000000000004000408FC000000000C2D234C00000008004405D
310
C00000000000408F4000000000C8D234C00000004000405DC00C000000130000000A0400003C00000006000000020000000000000000408F400000008022A133C0000000004AC15CC00000000000408F4000000000C8D234C00000004000405DC00C00000013000000120400003C0000000600000002000000000000400040
310
8FC000000080D2EE35C000000080CD855DC00000004000408FC000000000C2D234C00000008004405DC00C000000130000001A0400003C00000006000000020000000000004000408FC000000080D2EE35C000000080CD855DC00000000000408F4000000000D8EE35C000000040C9855DC00C00000013000000220400003C
310
00000006000000020000000000000000408F4000000000D8EE35C000000040C9855DC00000000000408F4000000000C8D234C00000004000405DC00C000000130000002A0400003C00000006000000020000000000004000408FC000000000DEDA35C00000008087EF5DC00000004000408FC000000080D2EE35C000000080
310
CD855DC00C00000013000000320400003C00000006000000020000000000004000408FC000000000DEDA35C00000008087EF5DC00000000000408F4000000000E4DA35C00000004083EF5DC00C000000130000003A0400003C00000006000000020000000000000000408F4000000000E4DA35C00000004083EF5DC0000000
310
0000408F4000000000D8EE35C000000040C9855DC00C00000013000000420400003C00000006000000020000000000004000408FC000000040137937C0000000402F4B5EC00000004000408FC000000000DEDA35C00000008087EF5DC00C000000130000004A0400003C00000006000000020000000000004000408FC00000
310
0040137937C0000000402F4B5EC00000000000408F40000000C0187937C0000000002B4B5EC00C00000013000000520400003C00000006000000020000000000000000408F4000000000E4DA35C00000004083EF5DC00000000000408F40000000C0187937C0000000002B4B5EC00C000000130000005A0400003C00000006
310
000000020000000000004000408FC000000000A58138C0000000C0C5A85EC00000004000408FC000000040137937C0000000402F4B5EC00C00000013000000620400003C00000006000000020000000000004000408FC000000000A58138C0000000C0C5A85EC00000000000408F4000000000AB8138C0000000C0C1A85EC0
310
0C000000130000006A0400003C00000006000000020000000000000000408F40000000C0187937C0000000002B4B5EC00000000000408F4000000000AB8138C0000000C0C1A85EC00C00000013000000720400003C00000006000000020000000000004000408FC000000000F71839C000000080760B5FC00000004000408F
310
C000000000A58138C0000000C0C5A85EC00C000000130000007A0400003C00000006000000020000000000004000408FC000000000F71839C000000080760B5FC00000000000408F40000000C0FC1839C000000080720B5FC00C00000013000000820400003C00000006000000020000000000000000408F4000000000AB81
310
38C0000000C0C1A85EC00000000000408F40000000C0FC1839C000000080720B5FC00C000000130000008A0400003C00000006000000020000000000004000408FC0000000C0304A39C0000000C0B1785FC00000004000408FC000000000F71839C000000080760B5FC00C00000013000000920400003C0000000600000002
310
0000000000004000408FC0000000C0304A39C0000000C0B1785FC00000000000408F4000000080364A39C000000080AD785FC00C000000130000009A0400003C00000006000000020000000000000000408F40000000C0FC1839C000000080720B5FC00000000000408F4000000080364A39C000000080AD785FC00C000000
310
13000000A20400003C00000006000000020000000000004000408FC000000080AA3939C000000080E7B25FC00000004000408FC0000000C0304A39C0000000C0B1785FC00C00000013000000AA0400003C00000006000000020000000000004000408FC000000080AA3939C000000080E7B25FC00000000000408F40000000
310
00B03939C000000040E3B25FC00C00000013000000B20400003C00000006000000020000000000000000408F4000000080364A39C000000080AD785FC00000000000408F4000000000B03939C000000040E3B25FC00C00000013000000BA0400003C00000006000000020000000000004000408FC000000000F90A39C00000
310
004015EF5FC00000004000408FC000000080AA3939C000000080E7B25FC00C00000013000000C20400003C00000006000000020000000000004000408FC000000000F90A39C00000004015EF5FC00000000000408F40000000C0FE0A39C00000000011EF5FC00C00000013000000CA0400003C000000060000000200000000
310
00000000408F4000000000B03939C000000040E3B25FC00000000000408F40000000C0FE0A39C00000000011EF5FC00C00000013000000D20400003C00000006000000020000000000004000408FC0000000C0CFC138C000000080051460C00000004000408FC000000000F90A39C00000004015EF5FC00C00000013000000
310
DA0400003C00000006000000020000000000004000408FC0000000C0CFC138C000000080051460C00000000000408F4000000080D5C138C000000080031460C00C00000013000000E20400003C00000006000000020000000000000000408F40000000C0FE0A39C00000000011EF5FC00000000000408F4000000080D5C138
310
C000000080031460C00C00000013000000EA0400003C00000006000000020000000000004000408FC0000000C0846338C0000000C0C62D60C00000004000408FC0000000C0CFC138C000000080051460C00C00000013000000F20400003C00000006000000020000000000004000408FC0000000C0846338C0000000C0C62D
310
60C00000000000408F40000000808A6338C0000000C0C42D60C00C00000013000000FA0400003C00000006000000020000000000000000408F4000000080D5C138C000000080031460C00000000000408F40000000808A6338C0000000C0C42D60C00C00000013000000020500003C00000006000000020000000000004000
310
408FC000000040A2F537C000000000D34360C00000004000408FC0000000C0846338C0000000C0C62D60C00C000000130000000A0500003C00000006000000020000000000004000408FC000000040A2F537C000000000D34360C00000000000408F4000000000A8F537C0000000C0D04360C00C0000001300000012050000
310
3C00000006000000020000000000000000408F40000000808A6338C0000000C0C42D60C00000000000408F4000000000A8F537C0000000C0D04360C00C000000130000001A0500003C00000006000000020000000000004000408FC000000000BD7737C000000000D75660C00000004000408FC000000040A2F537C0000000
310
00D34360C00C00000013000000220500003C00000006000000020000000000004000408FC000000000BD7737C000000000D75660C00000000000408F40000000C0C27737C0000000C0D45660C00C000000130000002A0500003C00000006000000020000000000000000408F4000000000A8F537C0000000C0D04360C00000
310
000000408F40000000C0C27737C0000000C0D45660C00C00000013000000320500003C00000006000000020000000000004000408FC000000000A9EA36C000000040EB6660C00000004000408FC000000000BD7737C000000000D75660C00C000000130000003A0500003C00000006000000020000000000004000408FC000
310
000000A9EA36C000000040EB6660C00000000000408F40000000C0AEEA36C000000040E96660C00C00000013000000420500003C00000006000000020000000000000000408F40000000C0C27737C0000000C0D45660C00000000000408F40000000C0AEEA36C000000040E96660C00C000000130000004A0500003C000000
310
06000000020000000000004000408FC0000000C0E14636C000000040C57460C00000004000408FC000000000A9EA36C000000040EB6660C00C00000013000000520500003C00000006000000020000000000004000408FC0000000C0E14636C000000040C57460C00000000000408F4000000080E74636C000000040C37460
310
C00C000000130000005A0500003C00000006000000020000000000000000408F40000000C0AEEA36C000000040E96660C00000000000408F4000000080E74636C000000040C37460C00C00000013000000620500003C00000006000000020000000000004000408FC0000000C0948B35C000000080118060C0000000400040
310
8FC0000000C0E14636C000000040C57460C00C000000130000006A0500003C00000006000000020000000000004000408FC0000000C0948B35C000000080118060C00000000000408F40000000809A8B35C0000000800F8060C00C00000013000000720500003C00000006000000020000000000000000408F4000000080E7
310
4636C000000040C37460C00000000000408F40000000809A8B35C0000000800F8060C00C000000130000007A0500003C00000006000000020000000000004000408FC0000000002AAE34C0000000C0C08860C00000004000408FC0000000C0948B35C000000080118060C00C00000013000000820500003C00000006000000
310
020000000000004000408FC0000000002AAE34C0000000C0C08860C00000000000408F40000000802FAE34C0000000C0BE8860C00C000000130000008A0500003C00000006000000020000000000000000408F40000000809A8B35C0000000800F8060C00000000000408F40000000802FAE34C0000000C0BE8860C00C0000
310
0013000000920500003C00000006000000020000000000004000408FC000000080F0B433C000000040078E60C00000004000408FC0000000002AAE34C0000000C0C08860C00C000000130000009A0500003C00000006000000020000000000004000408FC000000080F0B433C000000040078E60C00000000000408F400000
310
0040F6B433C000000040058E60C00C00000013000000A20500003C00000006000000020000000000000000408F40000000802FAE34C0000000C0BE8860C00000000000408F4000000040F6B433C000000040058E60C00C00000013000000AA0500003C00000006000000020000000000004000408FC000000080389032C000
310
000000768F60C00000004000408FC000000080F0B433C000000040078E60C00C00000013000000B20500003C00000006000000020000000000004000408FC000000080389032C000000000768F60C00000000000408F40000000803E9032C000000000748F60C00C00000013000000BA0500003C0000000600000002000000
310
0000000000408F4000000040F6B433C000000040058E60C00000000000408F40000000803E9032C000000000748F60C00C00000013000000C20500003C00000006000000020000000000004000408FC000000080389032C000000000768F60C00000004000408FC000000080A84E32C000000080273D61C00C000000130000
310
00CA0500003C00000006000000020000000000000000408F4000000040AE4E32C000000080253D61C00000004000408FC000000080A84E32C000000080273D61C00C00000013000000D20500003C00000006000000020000000000000000408F40000000803E9032C000000000748F60C00000000000408F4000000040AE4E
310
32C000000080253D61C00C00000013000000DA0500003C00000006000000020000000000004000408FC000000080A84E32C000000080273D61C00000004000408FC000000000361A2EC0000000402B3A61C00C00000013000000E20500003C00000006000000020000000000000000408F4000000080411A2EC00000004029
310
3A61C00000004000408FC000000000361A2EC0000000402B3A61C00C00000013000000EA0500003C00000006000000020000000000000000408F4000000040AE4E32C000000080253D61C00000000000408F4000000080411A2EC000000040293A61C00C00000013000000F20500003C000000060000000200000000000040
310
00408FC000000000361A2EC0000000402B3A61C00000004000408FC0000000005A482EC000000040907B61C00C00000013000000FA0500003C00000006000000020000000000004000408FC0000000005A482EC000000040907B61C00000000000408F400000000065482EC0000000408E7B61C00C00000013000000020600
310
003C00000006000000020000000000000000408F4000000080411A2EC000000040293A61C00000000000408F400000000065482EC0000000408E7B61C00C000000130000000A0600003C00000006000000020000000000004000408FC0000000001D4D2DC0000000009BBF61C00000004000408FC0000000005A482EC00000
310
0040907B61C00C00000013000000120600003C00000006000000020000000000004000408FC0000000001D4D2DC0000000009BBF61C00000000000408F4000000080284D2DC00000000099BF61C00C000000130000001A0600003C00000006000000020000000000000000408F400000000065482EC0000000408E7B61C000
310
00000000408F4000000080284D2DC00000000099BF61C00C00000013000000220600003C00000006000000020000000000004000408FC000000000A0392CC0000000807FE661C00000004000408FC0000000001D4D2DC0000000009BBF61C00C000000130000002A0600003C00000006000000020000000000004000408FC0
310
00000000A0392CC0000000807FE661C00000000000408F4000000000AB392CC0000000807DE661C00C00000013000000320600003C00000006000000020000000000000000408F4000000080284D2DC00000000099BF61C00000000000408F4000000000AB392CC0000000807DE661C00C000000130000003A0600003C0000
310
0006000000020000000000004000408FC0000000C00EB92AC000000080B41062C00000004000408FC000000000A0392CC0000000807FE661C00C00000013000000420600003C00000006000000020000000000004000408FC0000000C00EB92AC000000080B41062C00000000000408F40000000C01AB92AC000000080B210
310
62C00C000000130000004A0600003C00000006000000020000000000000000408F4000000000AB392CC0000000807DE661C00000000000408F40000000C01AB92AC000000080B21062C00C00000013000000520600003C00000006000000020000000000004000408FC0000000C0ABDF28C0000000C0003D62C00000004000
310
408FC0000000C00EB92AC000000080B41062C00C000000130000005A0600003C00000006000000020000000000004000408FC0000000C0ABDF28C0000000C0003D62C00000000000408F40000000C0B8DF28C0000000C0FE3C62C00C00000013000000620600003C00000006000000020000000000000000408F40000000C0
310
1AB92AC000000080B21062C00000000000408F40000000C0B8DF28C0000000C0FE3C62C00C000000130000006A0600003C00000006000000020000000000004000408FC0000000C0C6D026C0000000C0CC6862C00000004000408FC0000000C0ABDF28C0000000C0003D62C00C00000013000000720600003C000000060000
310
00020000000000004000408FC0000000C0C6D026C0000000C0CC6862C00000000000408F40000000C0D2D026C0000000C0CA6862C00C000000130000007A0600003C00000006000000020000000000000000408F40000000C0B8DF28C0000000C0FE3C62C00000000000408F40000000C0D2D026C0000000C0CA6862C00C00
310
000013000000820600003C00000006000000020000000000004000408FC0000000C0C9CF24C0000000C0FB9062C00000004000408FC0000000C0C6D026C0000000C0CC6862C00C000000130000008A0600003C00000006000000020000000000004000408FC0000000C0C9CF24C0000000C0FB9062C00000000000408F4000
310
0000C0D5CF24C000000080F99062C00C00000013000000920600003C00000006000000020000000000000000408F40000000C0D2D026C0000000C0CA6862C00000000000408F40000000C0D5CF24C000000080F99062C00C000000130000009A0600003C00000006000000020000000000004000408FC0000000C0891F23C0
310
00000040FFB462C00000004000408FC0000000C0C9CF24C0000000C0FB9062C00C00000013000000A20600003C00000006000000020000000000004000408FC0000000C0891F23C000000040FFB462C00000000000408F40000000C0941F23C000000040FDB462C00C00000013000000AA0600003C00000006000000020000
310
000000000000408F40000000C0D5CF24C000000080F99062C00000000000408F40000000C0941F23C000000040FDB462C00C00000013000000B20600003C00000006000000020000000000004000408FC0000000C0B4D921C0000000C058D562C00000004000408FC0000000C0891F23C000000040FFB462C00C0000001300
310
0000BA0600003C00000006000000020000000000004000408FC0000000C0B4D921C0000000C058D562C00000000000408F40000000C0C2D921C00000008056D562C00C00000013000000C20600003C00000006000000020000000000000000408F40000000C0941F23C000000040FDB462C00000000000408F40000000C0C2
310
D921C00000008056D562C00C00000013000000CA0600003C00000006000000020000000000004000408FC0000000C063EF20C00000000030F462C00000004000408FC0000000C0B4D921C0000000C058D562C00C00000013000000D20600003C00000006000000020000000000004000408FC0000000C063EF20C000000000
310
30F462C00000000000408F40000000406FEF20C0000000002EF462C00C00000013000000DA0600003C00000006000000020000000000000000408F40000000C0C2D921C00000008056D562C00000000000408F40000000406FEF20C0000000002EF462C00C00000013000000E20600003C0000000600000002000000000000
310
4000408FC000000000040020C0000000805E3363C00000004000408FC0000000C063EF20C00000000030F462C00C00000013000000EA0600003C00000006000000020000000000004000408FC000000000040020C0000000805E3363C00000000000408F4000000080010020C0000000405C3363C00C00000013000000F206
310
00003C00000006000000020000000000000000408F40000000406FEF20C0000000002EF462C00000000000408F4000000080010020C0000000405C3363C00C00000013000000FA0600003C00000006000000020000000000004000408FC000000000893A20C000000080057563C00000004000408FC000000000040020C000
310
0000805E3363C00C00000013000000020700003C00000006000000020000000000004000408FC000000000893A20C000000080057563C00000000000408F4000000080863A20C000000080037563C00C000000130000000A0700003C00000006000000020000000000000000408F4000000080010020C0000000405C3363C0
310
0000000000408F4000000080863A20C000000080037563C00C00000013000000120700003C00000006000000020000000000004000408FC000000000893A20C000000080057563C00000004000408FC00000000000E0593F00000000B77F63C00C000000130000001A0700003C00000006000000020000000000000000408F
310
400000000000505A3F000000C0B47F63C00000004000408FC00000000000E0593F00000000B77F63C00C00000013000000220700003C00000006000000020000000000000000408F4000000080863A20C000000080037563C00000000000408F400000000000505A3F000000C0B47F63C00C000000130000002A0700003C00
310
000006000000020000000000004000408FC00000000000E0593F00000000B77F63C00000004000408FC000000000000004BF000000C03E5562C00C00000013000000320700003C00000006000000020000000000004000408FC000000000000004BF000000C03E5562C00000000000408F40000000000000F4BE000000803C
310
5562C00C000000130000003A0700003C00000006000000020000000000000000408F400000000000505A3F000000C0B47F63C00000000000408F40000000000000F4BE000000803C5562C00C00000013000000420700003C00000006000000020000000000004000408FC000000000809DECBF00000000115462C000000040
310
00408FC000000000000004BF000000C03E5562C00C000000130000004A0700003C00000006000000020000000000004000408FC000000000809DECBF00000000115462C00000000000408F4000000000589DECBF000000000F5462C00C00000013000000520700003C00000006000000020000000000000000408F40000000
310
00589DECBF000000000F5462C00000000000408F40000000000000F4BE000000803C5562C00C000000130000005A0700003C00000006000000020000000000004000408FC000000000183BF9BF000000C0B84E62C00000004000408FC000000000809DECBF00000000115462C00C00000013000000620700003C0000000600
310
0000020000000000004000408FC000000000183BF9BF000000C0B84E62C00000000000408F4000000000043BF9BF000000C0B64E62C00C000000130000006A0700003C00000006000000020000000000000000408F4000000000589DECBF000000000F5462C00000000000408F4000000000043BF9BF000000C0B64E62C00C
310
00000013000000720700003C00000006000000020000000000004000408FC0000000000C2801C0000000C0504162C00000004000408FC000000000183BF9BF000000C0B84E62C00C000000130000007A0700003C00000006000000020000000000004000408FC0000000000C2801C0000000C0504162C00000000000408F40
310
00000000022801C0000000C04E4162C00C00000013000000820700003C00000006000000020000000000000000408F4000000000043BF9BF000000C0B64E62C00000000000408F4000000000022801C0000000C04E4162C00C000000130000008A0700003C00000006000000020000000000004000408FC000000000F41504
310
C000000040E32D62C00000004000408FC0000000000C2801C0000000C0504162C00C00000013000000920700003C00000006000000020000000000004000408FC000000000F41504C000000040E32D62C00000000000408F4000000000EA1504C000000040E12D62C00C000000130000009A0700003C000000060000000200
310
00000000000000408F4000000000022801C0000000C04E4162C00000000000408F4000000000EA1504C000000040E12D62C00C00000013000000A20700003C00000006000000020000000000004000408FC0000000000CF504C0000000C0651762C00000004000408FC000000000F41504C000000040E32D62C00C00000013
310
000000AA0700003C00000006000000020000000000004000408FC0000000000CF504C0000000C0651762C00000000000408F400000000002F504C000000080631762C00C00000013000000B20700003C00000006000000020000000000000000408F4000000000EA1504C000000040E12D62C00000000000408F4000000000
310
02F504C000000080631762C00C00000013000000BA0700003C00000006000000020000000000004000408FC00000000060A303C000000080440162C00000004000408FC0000000000CF504C0000000C0651762C00C00000013000000C20700003C00000006000000020000000000004000408FC00000000060A303C0000000
310
80440162C00000000000408F40000000005AA303C000000040420162C00C00000013000000CA0700003C00000006000000020000000000000000408F400000000002F504C000000080631762C00000000000408F40000000005AA303C000000040420162C00C00000013000000D20700003C00000006000000020000000000
310
004000408FC000000000605400C000000040DEEE61C00000004000408FC00000000060A303C000000080440162C00C00000013000000DA0700003C00000006000000020000000000004000408FC000000000605400C000000040DEEE61C00000000000408F4000000000525400C000000000DCEE61C00C00000013000000E2
310
0700003C00000006000000020000000000000000408F40000000005AA303C000000040420162C00000000000408F4000000000525400C000000000DCEE61C00C00000013000000EA0700003C00000006000000020000000000004000408FC000000000605400C000000040DEEE61C00000004000408FC00000000000404EBF
310
000000C0E5B161C00C00000013000000F20700003C00000006000000020000000000004000408FC00000000000404EBF000000C0E5B161C00000000000408F400000000000A04DBF000000C0E3B161C00C00000013000000FA0700003C00000006000000020000000000000000408F4000000000525400C000000000DCEE61
310
C00000000000408F400000000000A04DBF000000C0E3B161C00C00000013000000020800003C00000006000000020000000000004000408FC00000000000B0B2BF00000000BE6260C00000004000408FC00000000000404EBF000000C0E5B161C00C000000130000000A0800003C0000000600000002000000000000400040
310
8FC00000000000B0B2BF00000000BE6260C00000000000408F400000000040AEB2BF00000000BC6260C00C00000013000000120800003C00000006000000020000000000000000408F400000000040AEB2BF00000000BC6260C00000000000408F400000000000A04DBF000000C0E3B161C00C000000130000001A0800003C
310
00000006000000020000000000004000408FC000000000DEC717C0000000C0E41960C00000004000408FC00000000000B0B2BF00000000BE6260C00C00000013000000220800003C00000006000000020000000000004000408FC000000000DEC717C0000000C0E41960C00000000000408F4000000000D9C717C0000000C0
310
E21960C00C000000130000002A0800003C00000006000000020000000000000000408F4000000000D9C717C0000000C0E21960C00000000000408F400000000040AEB2BF00000000BC6260C00C00000013000000320800003C00000006000000020000000000004000408FC000000000DEC717C0000000C0E41960C0000000
310
4000408FC0000000004A691DC0000000A0A5FE5FC00C000000130000003A0800003C00000006000000020000000000000000408F400000000045691DC0000000A0A1FE5FC00000004000408FC0000000004A691DC0000000A0A5FE5FC00C00000013000000420800003C00000006000000020000000000000000408F400000
310
0000D9C717C0000000C0E21960C00000000000408F400000000045691DC0000000A0A1FE5FC00C000000130000004A0800003C00000006000000020000000000004000408FC00000000044D820C000000040FBAE5FC00000004000408FC0000000004A691DC0000000A0A5FE5FC00C00000013000000520800003C00000006
310
000000020000000000000000408F40000000804FD820C000000040F7AE5FC00000004000408FC00000000044D820C000000040FBAE5FC00C000000130000005A0800003C00000006000000020000000000000000408F400000000045691DC0000000A0A1FE5FC00000000000408F40000000804FD820C000000040F7AE5FC0
310
0C00000013000000620800003C00000006000000020000000000004000408FC000000000921422C000000080414D5FC00000004000408FC00000000044D820C000000040FBAE5FC00C000000130000006A0800003C00000006000000020000000000000000408F40000000009E1422C0000000403D4D5FC00000004000408F
310
C000000000921422C000000080414D5FC00C00000013000000720800003C00000006000000020000000000000000408F40000000804FD820C000000040F7AE5FC00000000000408F40000000009E1422C0000000403D4D5FC00C000000130000007A0800003C00000006000000020000000000004000408FC000000000FE47
310
22C000000040DAE35EC00000004000408FC000000000921422C000000080414D5FC00C00000013000000820800003C00000006000000020000000000004000408FC000000000FE4722C000000040DAE35EC00000000000408F40000000000A4822C000000040D6E35EC00C000000130000008A0800003C0000000600000002
310
0000000000000000408F40000000000A4822C000000040D6E35EC00000000000408F40000000009E1422C0000000403D4D5FC00C00000013000000920800003C00000006000000020000000000004000408FC000000080AE0721C00000004008D95CC00000004000408FC000000000FE4722C000000040DAE35EC00C000000
310
130000009A0800003C00000006000000020000000000004000408FC000000080AE0721C00000004008D95CC00000000000408F4000000000BB0721C00000000004D95CC00C00000013000000A20800003C00000006000000020000000000000000408F40000000000A4822C000000040D6E35EC00000000000408F40000000
310
00BB0721C00000000004D95CC00C00000013000000AA0800003C00000006000000020000000000004000408FC0000000805AA920C0000000A0D8085BC00000004000408FC000000080AE0721C00000004008D95CC00C00000013000000B20800003C00000006000000020000000000004000408FC0000000805AA920C00000
310
00A0D8085BC00000000000408F400000000058A920C000000060D4085BC00C00000013000000BA0800003C00000006000000020000000000000000408F4000000000BB0721C00000000004D95CC00000000000408F400000000058A920C000000060D4085BC00C00000013000000C20800003C000000060000000200000000
310
00004000408FC000000000E0FC21C0000000A0BCDA57C00000004000408FC0000000805AA920C0000000A0D8085BC00C00000013000000CA0800003C00000006000000020000000000004000408FC000000000E0FC21C0000000A0BCDA57C00000000000408F4000000000ECFC21C000000040B8DA57C00C00000013000000
310
D20800003C00000006000000020000000000000000408F400000000058A920C000000060D4085BC00000000000408F4000000000ECFC21C000000040B8DA57C00C00000013000000DA0800003C00000006000000020000000000004000408FC000000000779325C000000060C92255C00000004000408FC000000000E0FC21
310
C0000000A0BCDA57C00C00000013000000E20800003C00000006000000020000000000004000408FC000000000779325C000000060C92255C00000000000408F4000000000849325C000000040C52255C00C00000013000000EA0800003C00000006000000020000000000000000408F4000000000ECFC21C000000040B8DA
310
57C00000000000408F4000000000849325C000000040C52255C00C00000013000000F20800003C00000006000000020000000000004000408FC0000000C08B152BC000000060E5C052C00000004000408FC000000000779325C000000060C92255C00C00000013000000FA0800003C00000006000000020000000000004000
310
408FC0000000C08B152BC000000060E5C052C00000000000408F40000000C097152BC000000000E1C052C00C00000013000000020900003C00000006000000020000000000000000408F4000000000849325C000000040C52255C00000000000408F40000000C097152BC000000000E1C052C00C000000130000000A090000
310
3C00000006000000020000000000004000408FC0000000C08B152BC000000060E5C052C00000004000408FC0000000C0F9502BC000000040D28D52C00C00000013000000120900003C00000006000000020000000000000000408F40000000C007512BC000000020CE8D52C00000004000408FC0000000C0F9502BC0000000
310
40D28D52C00C000000130000001A0900003C00000006000000020000000000000000408F40000000C097152BC000000000E1C052C00000000000408F40000000C007512BC000000020CE8D52C00C00000013000000220900003C00000006000000020000000000004000408FC0000000C04FCC2AC0000000C0175452C00000
310
004000408FC0000000C0F9502BC000000040D28D52C00C000000130000002A0900003C00000006000000020000000000000000408F40000000C05BCC2AC0000000A0135452C00000004000408FC0000000C04FCC2AC0000000C0175452C00C00000013000000320900003C00000006000000020000000000000000408F4000
310
0000C05BCC2AC0000000A0135452C00000000000408F40000000C007512BC000000020CE8D52C00C000000130000003A0900003C00000006000000020000000000004000408FC0000000C04FCC2AC0000000C0175452C00000004000408FC0000000C0E14B2AC0000000000D2152C00C00000013000000420900003C000000
310
06000000020000000000004000408FC0000000C0E14B2AC0000000000D2152C00000000000408F40000000C0ED4B2AC0000000E0082152C00C000000130000004A0900003C00000006000000020000000000000000408F40000000C05BCC2AC0000000A0135452C00000000000408F40000000C0ED4B2AC0000000E0082152
310
C00C00000013000000520900003C00000006000000020000000000004000408FC0000000C043642AC00000000022F451C00000004000408FC0000000C0E14B2AC0000000000D2152C00C000000130000005A0900003C00000006000000020000000000004000408FC0000000C043642AC00000000022F451C0000000000040
310
8F40000000C04F642AC0000000E01DF451C00C00000013000000620900003C00000006000000020000000000000000408F40000000C0ED4B2AC0000000E0082152C00000000000408F40000000C04F642AC0000000E01DF451C00C000000130000006A0900003C00000006000000020000000000004000408FC0000000C087
310
F42AC000000040F8CA51C00000004000408FC0000000C043642AC00000000022F451C00C00000013000000720900003C00000006000000020000000000004000408FC0000000C087F42AC000000040F8CA51C00000000000408F40000000C093F42AC000000020F4CA51C00C000000130000007A0900003C00000006000000
310
020000000000000000408F40000000C093F42AC000000020F4CA51C00000000000408F40000000C04F642AC0000000E01DF451C00C00000013000000820900003C00000006000000020000000000004000408FC0000000C087F42AC000000040F8CA51C00000004000408FC0000000C057EF3CC0000000E0FCF247C00C0000
310
00130000008A0900003C00000006000000020000000000000000408F40000000405DEF3CC0000000A0F4F247C00000004000408FC0000000C057EF3CC0000000E0FCF247C00C00000013000000920900003C00000006000000020000000000000000408F40000000C093F42AC000000020F4CA51C00000000000408F400000
310
00405DEF3CC0000000A0F4F247C00C000000130000009A0900003C00000006000000020000000000004000408FC0000000C057EF3CC0000000E0FCF247C00000004000408FC000000040BA6A3DC00000006020B247C00C00000013000000A20900003C00000006000000020000000000004000408FC000000040BA6A3DC000
310
00006020B247C00000000000408F40000000C0BF6A3DC0000000E017B247C00C00000013000000AA0900003C00000006000000020000000000000000408F40000000405DEF3CC0000000A0F4F247C00000000000408F40000000C0BF6A3DC0000000E017B247C00C00000013000000B20900003C0000000600000002000000
310
0000004000408FC0000000C06D0A3EC0000000608E8A47C00000004000408FC000000040BA6A3DC00000006020B247C00C00000013000000BA0900003C00000006000000020000000000004000408FC0000000C06D0A3EC0000000608E8A47C00000000000408F4000000040730A3EC000000020868A47C00C000000130000
310
00C20900003C00000006000000020000000000000000408F40000000C0BF6A3DC0000000E017B247C00000000000408F4000000040730A3EC000000020868A47C00C00000013000000CA0900003C00000006000000020000000000004000408FC000000040F9DE3EC0000000E0468247C00000004000408FC0000000C06D0A
310
3EC0000000608E8A47C00C00000013000000D20900003C00000006000000020000000000000000408F40000000C0FEDE3EC0000000603E8247C00000004000408FC000000040F9DE3EC0000000E0468247C00C00000013000000DA0900003C00000006000000020000000000000000408F40000000C0FEDE3EC0000000603E
310
8247C00000000000408F4000000040730A3EC000000020868A47C00C00000013000000E20900003C00000006000000020000000000004000408FC000000040F9DE3EC0000000E0468247C00000004000408FC000000040FEC93FC0000000E06E7647C00C00000013000000EA0900003C000000060000000200000000000040
310
00408FC000000040FEC93FC0000000E06E7647C00000000000408F400000004003CA3FC000000060667647C00C00000013000000F20900003C00000006000000020000000000000000408F40000000C0FEDE3EC0000000603E8247C00000000000408F400000004003CA3FC000000060667647C00C00000013000000FA0900
310
003C00000006000000020000000000004000408FC000000020003C40C0000000E0804347C00000004000408FC000000040FEC93FC0000000E06E7647C00C00000013000000020A00003C00000006000000020000000000004000408FC000000020003C40C0000000E0804347C00000000000408F4000000040063C40C00000
310
0060784347C00C000000130000000A0A00003C00000006000000020000000000000000408F4000000040063C40C000000060784347C00000000000408F400000004003CA3FC000000060667647C00C00000013000000120A00003C00000006000000020000000000004000408FC000000020AA7A42C0000000A09A6C45C000
310
00004000408FC000000020003C40C0000000E0804347C00C000000130000001A0A00003C00000006000000020000000000004000408FC000000020AA7A42C0000000A09A6C45C00000000000408F4000000040B07A42C000000020926C45C00C00000013000000220A00003C00000006000000020000000000000000408F40
310
00000040063C40C000000060784347C00000000000408F4000000040B07A42C000000020926C45C00C000000130000002A0A00003C00000006000000020000000000004000408FC0000000803BFA44C0000000E02FB343C00000004000408FC000000020AA7A42C0000000A09A6C45C00C00000013000000320A00003C0000
310
0006000000020000000000004000408FC0000000803BFA44C0000000E02FB343C00000000000408F40000000E041FA44C00000006027B343C00C000000130000003A0A00003C00000006000000020000000000000000408F4000000040B07A42C000000020926C45C00000000000408F40000000E041FA44C00000006027B3
310
43C00C00000013000000420A00003C00000006000000020000000000004000408FC00000006059C347C0000000C06A1842C00000004000408FC0000000803BFA44C0000000E02FB343C00C000000130000004A0A00003C00000006000000020000000000004000408FC00000006059C347C0000000C06A1842C00000000000
310
408F400000000060C347C000000040621842C00C00000013000000520A00003C00000006000000020000000000000000408F40000000E041FA44C00000006027B343C00000000000408F400000000060C347C000000040621842C00C000000130000005A0A00003C00000006000000020000000000004000408FC000000060
310
42DC4AC000000040A1A140C00000004000408FC00000006059C347C0000000C06A1842C00C00000013000000620A00003C00000006000000020000000000004000408FC00000006042DC4AC000000040A1A140C00000000000408F40000000C048DC4AC0000000C098A140C00C000000130000006A0A00003C000000060000
310
00020000000000000000408F400000000060C347C000000040621842C00000000000408F40000000C048DC4AC0000000C098A140C00C00000013000000720A00003C00000006000000020000000000004000408FC0000000E079484EC000000080C7A93EC00000004000408FC00000006042DC4AC000000040A1A140C00C00
310
0000130000007A0A00003C00000006000000020000000000004000408FC0000000E079484EC000000080C7A93EC00000000000408F400000008080484EC000000080B7A93EC00C00000013000000820A00003C00000006000000020000000000000000408F40000000C048DC4AC0000000C098A140C00000000000408F4000
310
00008080484EC000000080B7A93EC00C000000130000008A0A00003C00000006000000020000000000004000408FC000000020980E51C000000080E1653CC00000004000408FC0000000E079484EC000000080C7A93EC00C00000013000000920A00003C00000006000000020000000000004000408FC000000020980E51C0
310
00000080E1653CC00000000000408F40000000C0990E51C000000080D0653CC00C000000130000009A0A00003C00000006000000020000000000000000408F400000008080484EC000000080B7A93EC00000000000408F40000000C0990E51C000000080D0653CC00C00000013000000A20A00003C00000006000000020000
310
000000004000408FC000000020980E51C000000080E1653CC00000004000408FC0000000A03D7451C00000008036AC3BC00C00000013000000AA0A00003C00000006000000020000000000000000408F40000000403F7451C00000008025AC3BC00000004000408FC0000000A03D7451C00000008036AC3BC00C0000001300
310
0000B20A00003C00000006000000020000000000000000408F40000000C0990E51C000000080D0653CC00000000000408F40000000403F7451C00000008025AC3BC00C00000013000000BA0A00003C00000006000000020000000000004000408FC00000000001C451C00000008076703AC00000004000408FC0000000A03D
310
7451C00000008036AC3BC00C00000013000000C20A00003C00000006000000020000000000000000408F400000008002C451C00000008064703AC00000004000408FC00000000001C451C00000008076703AC00C00000013000000CA0A00003C00000006000000020000000000000000408F40000000403F7451C000000080
310
25AC3BC00000000000408F400000008002C451C00000008064703AC00C00000013000000D20A00003C00000006000000020000000000004000408FC0000000802EF451C00000008008D938C00000004000408FC00000000001C451C00000008076703AC00C00000013000000DA0A00003C0000000600000002000000000000
310
4000408FC0000000802EF451C00000008008D938C00000000000408F400000000030F451C000000080F8D838C00C00000013000000E20A00003C00000006000000020000000000000000408F400000000030F451C000000080F8D838C00000000000408F400000008002C451C00000008064703AC00C00000013000000EA0A
310
00003C00000006000000020000000000004000408FC0000000809DA953C00000000000E8713F0000004000408FC0000000802EF451C00000008008D938C00C00000013000000F20A00003C00000006000000020000000000004000408FC0000000809DA953C00000000000E8713F0000000000408F40000000009FA953C000
310
00000000E8723F0C00000013000000FA0A00003C00000006000000020000000000000000408F400000000030F451C000000080F8D838C00000000000408F40000000009FA953C00000000000E8723F0C00000013000000020B00003C00000006000000020000000000004000408FC0000000809DA953C00000000000E8713F
310
0000004000408FC000000040224C56C0000000000090663F0C000000130000000A0B00003C00000006000000020000000000004000408FC000000040224C56C0000000000090663F0000000000408F40000000C0234C56C00000000000D0683F0C00000013000000120B00003C00000006000000020000000000000000408F
310
40000000009FA953C00000000000E8723F0000000000408F40000000C0234C56C00000000000D0683F0C000000130000001A0B00003C00000006000000020000000000004000408FC000000040224C56C0000000000090663F0000004000408FC000000000B12057C000000000F00BFFBF0C00000013000000220B00003C00
310
000006000000020000000000004000408FC000000000B12057C000000000F00BFFBF0000000000408F40000000C0B22057C000000000D00AFFBF0C000000130000002A0B00003C00000006000000020000000000000000408F40000000C0B22057C000000000D00AFFBF0000000000408F40000000C0234C56C00000000000
310
D0683F0C00000013000000320B00003C00000006000000020000000000004000408FC000000000B12057C000000000F00BFFBF0000004000408FC0000000403E4E57C000000000086601C00C000000130000003A0B00003C00000006000000020000000000004000408FC0000000403E4E57C000000000086601C000000000
310
00408F40000000C03F4E57C000000000806501C00C00000013000000420B00003C00000006000000020000000000000000408F40000000C03F4E57C000000000806501C00000000000408F40000000C0B22057C000000000D00AFFBF0C000000130000004A0B00003C00000006000000020000000000004000408FC0000000
310
403E4E57C000000000086601C00000004000408FC0000000C0E27D57C00000000008C400C00C00000013000000520B00003C00000006000000020000000000004000408FC0000000C0E27D57C00000000008C400C00000000000408F4000000080E47D57C00000000078C300C00C000000130000005A0B00003C0000000600
310
0000020000000000000000408F4000000080E47D57C00000000078C300C00000000000408F40000000C03F4E57C000000000806501C00C00000013000000620B00003C00000006000000020000000000004000408FC0000000C0E27D57C00000000008C400C00000004000408FC00000000061A757C0000000009077FBBF0C
310
000000130000006A0B00003C00000006000000020000000000004000408FC00000000061A757C0000000009077FBBF0000000000408F400000008062A757C0000000007876FBBF0C00000013000000720B00003C00000006000000020000000000000000408F400000008062A757C0000000007876FBBF0000000000408F40
310
00000080E47D57C00000000078C300C00C000000130000007A0B00003C00000006000000020000000000004000408FC00000000061A757C0000000009077FBBF0000004000408FC0000000C08AC357C00000000050A7F1BF0C00000013000000820B00003C00000006000000020000000000004000408FC0000000C08AC357
310
C00000000050A7F1BF0000000000408F40000000808CC357C00000000030A6F1BF0C000000130000008A0B00003C00000006000000020000000000000000408F40000000808CC357C00000000030A6F1BF0000000000408F400000008062A757C0000000007876FBBF0C00000013000000920B00003C000000060000000200
310
00000000004000408FC0000000C08AC357C00000000050A7F1BF0000004000408FC00000004082CD57C000000000C027D7BF0C000000130000009A0B00003C00000006000000020000000000004000408FC00000004082CD57C000000000C027D7BF0000000000408F40000000C083CD57C0000000004023D7BF0C00000013
310
000000A20B00003C00000006000000020000000000000000408F40000000C083CD57C0000000004023D7BF0000000000408F40000000808CC357C00000000030A6F1BF0C00000013000000AA0B00003C00000006000000020000000000004000408FC00000004082CD57C000000000C027D7BF0000004000408FC000000040
310
83CD57C00000000000005C3F0C00000013000000B20B00003C00000006000000020000000000000000408F40000000C084CD57C0000000000030603F0000000000408F40000000C083CD57C0000000004023D7BF0C00000013000000BA0B00003C00000006000000020000000000004000408FC0000000C033DA59C0000000
310
00500024C00000004000408FC00000004082CD57C000000000C027D7BF0C00000013000000C20B00003C00000006000000020000000000004000408FC000000000040020C0000000805E3363C00000004000408FC000000000000004BF000000C03E5562C00C00000013000000CA0B00003C00000006000000020000000000
310
004000408FC0000000C063EF20C00000000030F462C00000004000408FC000000000809DECBF00000000115462C00C00000013000000D20B00003C00000006000000020000000000004000408FC0000000C0B4D921C0000000C058D562C00000004000408FC000000000183BF9BF000000C0B84E62C00C00000013000000DA
310
0B00003C00000006000000020000000000004000408FC0000000C0891F23C000000040FFB462C00000004000408FC0000000000C2801C0000000C0504162C00C00000013000000E20B00003C00000006000000020000000000004000408FC0000000C0C9CF24C0000000C0FB9062C00000004000408FC000000000F41504C0
310
00000040E32D62C00C00000013000000EA0B00003C00000006000000020000000000004000408FC0000000C0C6D026C0000000C0CC6862C00000004000408FC0000000000CF504C0000000C0651762C00C00000013000000F20B00003C00000006000000020000000000004000408FC0000000C0ABDF28C0000000C0003D62
310
C00000004000408FC00000000060A303C000000080440162C00C00000013000000FA0B00003C00000006000000020000000000004000408FC0000000C00EB92AC000000080B41062C00000004000408FC000000000605400C000000040DEEE61C00C00000013000000020C00003C0000000600000002000000000000400040
310
8FC000000000A0392CC0000000807FE661C00000004000408FC00000000000404EBF000000C0E5B161C00C000000130000000A0C00003C00000006000000020000000000004000408FC0000000001D4D2DC0000000009BBF61C00000004000408FC00000000000B0B2BF00000000BE6260C00C00000013000000120C00003C
310
00000006000000020000000000004000408FC0000000005A482EC000000040907B61C00000004000408FC000000000DEC717C0000000C0E41960C00C000000130000001A0C00003C00000006000000020000000000004000408FC000000000361A2EC0000000402B3A61C00000004000408FC0000000004A691DC0000000A0
310
A5FE5FC00C00000013000000220C00003C00000006000000020000000000004000408FC000000080A84E32C000000080273D61C00000004000408FC00000000044D820C000000040FBAE5FC00C000000130000002A0C00003C00000006000000020000000000004000408FC000000080389032C000000000768F60C0000000
310
4000408FC000000000921422C000000080414D5FC00C00000013000000320C00003C00000006000000020000000000004000408FC000000080F0B433C000000040078E60C00000004000408FC000000000FE4722C000000040DAE35EC00C000000130000003A0C00003C00000006000000020000000000004000408FC00000
310
00002AAE34C0000000C0C08860C00000004000408FC000000000FE4722C000000040DAE35EC00C00000013000000420C00003C00000006000000020000000000004000408FC0000000C0948B35C000000080118060C00000004000408FC000000000FE4722C000000040DAE35EC00C000000130000004A0C00003C00000006
310
000000020000000000004000408FC0000000C0E14636C000000040C57460C00000004000408FC000000000FE4722C000000040DAE35EC00C00000013000000520C00003C00000006000000020000000000004000408FC000000000A9EA36C000000040EB6660C00000004000408FC000000000FE4722C000000040DAE35EC0
310
0C000000130000005A0C00003C00000006000000020000000000004000408FC000000000BD7737C000000000D75660C00000004000408FC000000000FE4722C000000040DAE35EC00C00000013000000620C00003C00000006000000020000000000004000408FC000000040A2F537C000000000D34360C00000004000408F
310
C000000000FE4722C000000040DAE35EC00C000000130000006A0C00003C00000006000000020000000000004000408FC0000000C0846338C0000000C0C62D60C00000004000408FC000000000FE4722C000000040DAE35EC00C00000013000000720C00003C00000006000000020000000000004000408FC0000000C0CFC1
310
38C000000080051460C00000004000408FC000000000FE4722C000000040DAE35EC00C000000130000007A0C00003C00000006000000020000000000004000408FC000000000F90A39C00000004015EF5FC00000004000408FC000000000FE4722C000000040DAE35EC00C00000013000000820C00003C0000000600000002
310
0000000000004000408FC000000080AA3939C000000080E7B25FC00000004000408FC000000000FE4722C000000040DAE35EC00C000000130000008A0C00003C00000006000000020000000000004000408FC0000000C0304A39C0000000C0B1785FC00000004000408FC000000000FE4722C000000040DAE35EC00C000000
310
13000000920C00003C00000006000000020000000000004000408FC000000000F71839C000000080760B5FC00000004000408FC000000000FE4722C000000040DAE35EC00C000000130000009A0C00003C00000006000000020000000000004000408FC000000000A58138C0000000C0C5A85EC00000004000408FC0000000
310
00FE4722C000000040DAE35EC00C00000013000000A20C00003C00000006000000020000000000004000408FC000000040137937C0000000402F4B5EC00000004000408FC000000000FE4722C000000040DAE35EC00C00000013000000AA0C00003C00000006000000020000000000004000408FC000000000DEDA35C00000
310
008087EF5DC00000004000408FC000000000FE4722C000000040DAE35EC00C00000013000000B20C00003C00000006000000020000000000004000408FC000000080D2EE35C000000080CD855DC00000004000408FC000000000FE4722C000000040DAE35EC00C00000013000000BA0C00003C000000060000000200000000
310
00004000408FC000000000C2D234C00000008004405DC00000004000408FC000000000FE4722C000000040DAE35EC00C00000013000000C20C00003C00000006000000020000000000004000408FC0000000801CA133C0000000404EC15CC00000004000408FC000000080AE0721C00000004008D95CC00C00000013000000
310
CA0C00003C00000006000000020000000000004000408FC0000000E08E5732C0000000C00FE659C00000004000408FC0000000805AA920C0000000A0D8085BC00C00000013000000D20C00003C00000006000000020000000000004000408FC000000000DDDE32C0000000C0D51858C00000004000408FC000000000E0FC21
310
C0000000A0BCDA57C00C00000013000000DA0C00003C00000006000000020000000000004000408FC0000000001B9C32C0000000C0BDC95BC00000004000408FC000000080AE0721C00000004008D95CC00C00000013000000E20C00003C00000006000000020000000000004000408FC0000000802DDB33C0000000601070
310
56C00000004000408FC000000000779325C000000060C92255C00C00000013000000EA0C00003C00000006000000020000000000004000408FC000000080FA3835C0000000008AF154C00000004000408FC000000000779325C000000060C92255C00C00000013000000F20C00003C00000006000000020000000000004000
310
408FC000000000C40837C0000000E0BC8453C00000004000408FC0000000C08B152BC000000060E5C052C00C00000013000000FA0C00003C00000006000000020000000000004000408FC000000000C40837C0000000E0BC8453C00000004000408FC0000000C0F9502BC000000040D28D52C00C00000013000000020D0000
310
3C00000006000000020000000000004000408FC0000000801E5B39C000000020FC2152C00000004000408FC0000000C04FCC2AC0000000C0175452C00C000000130000000A0D00003C00000006000000020000000000004000408FC000000060CD2743C000000080536E4BC00000004000408FC000000040FEC93FC0000000
310
E06E7647C00C00000013000000120D00003C00000006000000020000000000004000408FC000000060CD2743C000000080536E4BC00000004000408FC000000020003C40C0000000E0804347C00C000000130000001A0D00003C00000006000000020000000000004000408FC0000000801E5B39C000000020FC2152C00000
310
004000408FC0000000C0E14B2AC0000000000D2152C00C00000013000000220D00003C00000006000000020000000000004000408FC000000040A10B3CC00000008030E050C00000004000408FC0000000C043642AC00000000022F451C00C000000130000002A0D00003C00000006000000020000000000004000408FC000
310
000040A10B3CC00000008030E050C00000004000408FC0000000C087F42AC000000040F8CA51C00C00000013000000320D00003C00000006000000020000000000004000408FC0000000C00A183FC000000000D9754FC00000004000408FC0000000C057EF3CC0000000E0FCF247C00C000000130000003A0D00003C000000
310
06000000020000000000004000408FC0000000C00A183FC000000000D9754FC00000004000408FC000000040BA6A3DC00000006020B247C00C00000013000000420D00003C00000006000000020000000000004000408FC0000000E0424141C0000000C0235C4DC00000004000408FC0000000C06D0A3EC0000000608E8A47
310
C00C000000130000004A0D00003C00000006000000020000000000004000408FC0000000E0424141C0000000C0235C4DC00000004000408FC000000040F9DE3EC0000000E0468247C00C00000013000000520D00003C00000006000000020000000000004000408FC0000000600D4845C0000000C0E6A449C0000000400040
310
8FC000000020AA7A42C0000000A09A6C45C00C000000130000005A0D00003C00000006000000020000000000004000408FC00000004085A647C000000040460048C00000004000408FC0000000803BFA44C0000000E02FB343C00C00000013000000620D00003C00000006000000020000000000004000408FC000000000D8
310
504AC0000000C0627C46C00000004000408FC00000006059C347C0000000C06A1842C00C000000130000006A0D00003C00000006000000020000000000004000408FC0000000A08F164DC0000000809F3345C00000004000408FC00000006042DC4AC000000040A1A140C00C00000013000000720D00003C00000006000000
310
020000000000004000408FC0000000A0B80350C0000000C06A1A44C00000004000408FC0000000E079484EC000000080C7A93EC00C000000130000007A0D00003C00000006000000020000000000004000408FC0000000001AB151C000000040981D43C00000004000408FC000000020980E51C000000080E1653CC00C0000
310
0013000000820D00003C00000006000000020000000000004000408FC000000040017453C0000000C02A5342C00000004000408FC0000000A03D7451C00000008036AC3BC00C000000130000008A0D00003C00000006000000020000000000004000408FC000000080A15F54C0000000800DFE41C00000004000408FC00000
310
000001C451C00000008076703AC00C00000013000000920D00003C00000006000000020000000000004000408FC0000000405C5254C000000000911840C00000004000408FC0000000802EF451C00000008008D938C00C000000130000009A0D00003C00000006000000020000000000004000408FC0000000806FAB54C000
310
000080341140C00000004000408FC0000000809DA953C00000000000E8713F0C00000013000000A20D00003C00000006000000020000000000004000408FC00000004065F054C00000008043F33FC00000004000408FC0000000809DA953C00000000000E8713F0C00000013000000AA0D00003C0000000600000002000000
310
0000004000408FC0000000C0DC6155C000000080F23B3FC00000004000408FC0000000809DA953C00000000000E8713F0C00000013000000B20D00003C00000006000000020000000000004000408FC000000000E7B455C000000080F91E3EC00000004000408FC0000000809DA953C00000000000E8713F0C000000130000
310
00BA0D00003C00000006000000020000000000004000408FC0000000C0B8D655C00000008039653DC00000004000408FC0000000809DA953C00000000000E8713F0C00000013000000C20D00003C00000006000000020000000000004000408FC000000000BCF555C000000000B07B3CC00000004000408FC0000000809DA9
310
53C00000000000E8713F0C00000013000000CA0D00003C00000006000000020000000000004000408FC0000000C00C1156C000000080AF603BC00000004000408FC0000000809DA953C00000000000E8713F0C00000013000000D20D00003C00000006000000020000000000004000408FC000000080D13E56C00000008095
310
9238C00000004000408FC0000000809DA953C00000000000E8713F0C00000013000000DA0D00003C00000006000000020000000000004000408FC0000000403F6B56C00000008029A435C00000004000408FC0000000809DA953C00000000000E8713F0C00000013000000E20D00003C000000060000000200000000000040
310
00408FC0000000C0858656C000000080CB5B34C00000004000408FC0000000809DA953C00000000000E8713F0C00000013000000EA0D00003C00000006000000020000000000004000408FC00000000076A756C000000000863B33C00000004000408FC0000000809DA953C00000000000E8713F0C00000013000000F20D00
310
003C00000006000000020000000000004000408FC000000080C3CB56C000000080915232C00000004000408FC0000000809DA953C00000000000E8713F0C00000013000000FA0D00003C00000006000000020000000000004000408FC00000000038F356C0000000009C9431C00000004000408FC0000000809DA953C00000
310
000000E8713F0C00000013000000020E00003C00000006000000020000000000004000408FC000000040471F57C0000000000FF430C00000004000408FC000000040224C56C0000000000090663F0C000000130000000A0E00003C00000006000000020000000000004000408FC000000000ED8257C000000080A10330C000
310
00004000408FC000000000B12057C000000000F00BFFBF0C00000013000000120E00003C00000006000000020000000000004000408FC0000000C0790B58C0000000007BB22EC00000004000408FC0000000403E4E57C000000000086601C00C000000130000001A0E00003C00000006000000020000000000004000408FC0
310
00000000315E58C000000000C14E2EC00000004000408FC0000000C0E27D57C00000000008C400C00C00000013000000220E00003C00000006000000020000000000004000408FC0000000C073CB58C000000000461D2EC00000004000408FC00000000061A757C0000000009077FBBF0C000000130000002A0E00003C0000
310
0006000000020000000000004000408FC0000000C022E658C0000000000BB823C00000004000408FC0000000C08AC357C00000000050A7F1BF0C00000013000000320E00003C00000006000000020000000000000000408F400000004035DA59C0000000002D0024C00000000000408F40000000C083CD57C0000000004023
310
D7BF0C000000130000003A0E00003C00000006000000020000000000000000408F4000000080010020C0000000405C3363C00000000000408F40000000000000F4BE000000803C5562C00C00000013000000420E00003C00000006000000020000000000000000408F40000000406FEF20C0000000002EF462C00000000000
310
408F4000000000589DECBF000000000F5462C00C000000130000004A0E00003C00000006000000020000000000000000408F40000000C0C2D921C00000008056D562C00000000000408F4000000000043BF9BF000000C0B64E62C00C00000013000000520E00003C00000006000000020000000000000000408F40000000C0
310
941F23C000000040FDB462C00000000000408F4000000000022801C0000000C04E4162C00C000000130000005A0E00003C00000006000000020000000000000000408F40000000C0D5CF24C000000080F99062C00000000000408F4000000000EA1504C000000040E12D62C00C00000013000000620E00003C000000060000
310
00020000000000000000408F40000000C0D2D026C0000000C0CA6862C00000000000408F400000000002F504C000000080631762C00C000000130000006A0E00003C00000006000000020000000000000000408F40000000C0B8DF28C0000000C0FE3C62C00000000000408F40000000005AA303C000000040420162C00C00
310
000013000000720E00003C00000006000000020000000000000000408F40000000C01AB92AC000000080B21062C00000000000408F4000000000525400C000000000DCEE61C00C000000130000007A0E00003C00000006000000020000000000000000408F4000000000AB392CC0000000807DE661C00000000000408F4000
310
00000000A04DBF000000C0E3B161C00C00000013000000820E00003C00000006000000020000000000000000408F4000000080284D2DC00000000099BF61C00000000000408F400000000040AEB2BF00000000BC6260C00C000000130000008A0E00003C00000006000000020000000000000000408F400000000065482EC0
310
000000408E7B61C00000000000408F4000000000D9C717C0000000C0E21960C00C00000013000000920E00003C00000006000000020000000000000000408F4000000080411A2EC000000040293A61C00000000000408F400000000045691DC0000000A0A1FE5FC00C000000130000009A0E00003C00000006000000020000
310
000000000000408F4000000040AE4E32C000000080253D61C00000000000408F40000000804FD820C000000040F7AE5FC00C00000013000000A20E00003C00000006000000020000000000000000408F40000000803E9032C000000000748F60C00000000000408F40000000009E1422C0000000403D4D5FC00C0000001300
310
0000AA0E00003C00000006000000020000000000000000408F4000000040F6B433C000000040058E60C00000000000408F40000000000A4822C000000040D6E35EC00C00000013000000B20E00003C00000006000000020000000000000000408F40000000802FAE34C0000000C0BE8860C00000000000408F40000000000A
310
4822C000000040D6E35EC00C00000013000000BA0E00003C00000006000000020000000000000000408F40000000809A8B35C0000000800F8060C00000000000408F40000000000A4822C000000040D6E35EC00C00000013000000C20E00003C00000006000000020000000000000000408F4000000080E74636C000000040
310
C37460C00000000000408F40000000000A4822C000000040D6E35EC00C00000013000000CA0E00003C00000006000000020000000000000000408F40000000C0AEEA36C000000040E96660C00000000000408F40000000000A4822C000000040D6E35EC00C00000013000000D20E00003C0000000600000002000000000000
310
0000408F40000000C0C27737C0000000C0D45660C00000000000408F40000000000A4822C000000040D6E35EC00C00000013000000DA0E00003C00000006000000020000000000000000408F4000000000A8F537C0000000C0D04360C00000000000408F40000000000A4822C000000040D6E35EC00C00000013000000E20E
310
00003C00000006000000020000000000000000408F40000000808A6338C0000000C0C42D60C00000000000408F40000000000A4822C000000040D6E35EC00C00000013000000EA0E00003C00000006000000020000000000000000408F4000000080D5C138C000000080031460C00000000000408F40000000000A4822C000
310
000040D6E35EC00C00000013000000F20E00003C00000006000000020000000000000000408F40000000C0FE0A39C00000000011EF5FC00000000000408F40000000000A4822C000000040D6E35EC00C00000013000000FA0E00003C00000006000000020000000000000000408F4000000000B03939C000000040E3B25FC0
310
0000000000408F40000000000A4822C000000040D6E35EC00C00000013000000020F00003C00000006000000020000000000000000408F4000000080364A39C000000080AD785FC00000000000408F40000000000A4822C000000040D6E35EC00C000000130000000A0F00003C00000006000000020000000000000000408F
310
40000000C0FC1839C000000080720B5FC00000000000408F40000000000A4822C000000040D6E35EC00C00000013000000120F00003C00000006000000020000000000000000408F4000000000AB8138C0000000C0C1A85EC00000000000408F40000000000A4822C000000040D6E35EC00C000000130000001A0F00003C00
310
000006000000020000000000000000408F40000000C0187937C0000000002B4B5EC00000000000408F40000000000A4822C000000040D6E35EC00C00000013000000220F00003C00000006000000020000000000000000408F4000000000E4DA35C00000004083EF5DC00000000000408F40000000000A4822C000000040D6
310
E35EC00C000000130000002A0F00003C00000006000000020000000000000000408F4000000000D8EE35C000000040C9855DC00000000000408F40000000000A4822C000000040D6E35EC00C00000013000000320F00003C00000006000000020000000000000000408F4000000000C8D234C00000004000405DC000000000
310
00408F40000000000A4822C000000040D6E35EC00C000000130000003A0F00003C00000006000000020000000000000000408F400000008022A133C0000000004AC15CC00000000000408F4000000000BB0721C00000000004D95CC00C00000013000000420F00003C00000006000000020000000000000000408F40000000
310
C0E2DE32C000000040D11858C00000000000408F4000000000ECFC21C000000040B8DA57C00C000000130000004A0F00003C00000006000000020000000000000000408F4000000060945732C0000000800BE659C00000000000408F400000000058A920C000000060D4085BC00C00000013000000520F00003C0000000600
310
0000020000000000000000408F4000000080209C32C000000080B9C95BC00000000000408F4000000000BB0721C00000000004D95CC00C000000130000005A0F00003C00000006000000020000000000000000408F400000004033DB33C0000000400C7056C00000000000408F4000000000849325C000000040C52255C00C
310
00000013000000620F00003C00000006000000020000000000000000408F4000000040003935C0000000C085F154C00000000000408F4000000000849325C000000040C52255C00C000000130000006A0F00003C00000006000000020000000000000000408F4000000080C90837C0000000A0B88453C00000000000408F40
310
000000C097152BC000000000E1C052C00C00000013000000720F00003C00000006000000020000000000000000408F4000000080C90837C0000000A0B88453C00000000000408F40000000C007512BC000000020CE8D52C00C000000130000007A0F00003C00000006000000020000000000000000408F4000000000245B39
310
C0000000E0F72152C00000000000408F40000000C05BCC2AC0000000A0135452C00C00000013000000820F00003C00000006000000020000000000000000408F40000000C0D32743C0000000404B6E4BC00000000000408F4000000040063C40C000000060784347C00C000000130000008A0F00003C000000060000000200
310
00000000000000408F40000000C0D32743C0000000404B6E4BC00000000000408F400000004003CA3FC000000060667647C00C00000013000000920F00003C00000006000000020000000000000000408F4000000000245B39C0000000E0F72152C00000000000408F40000000C0ED4B2AC0000000E0082152C00C00000013
310
0000009A0F00003C00000006000000020000000000000000408F4000000040A60B3CC0000000402CE050C00000000000408F40000000C04F642AC0000000E01DF451C00C00000013000000A20F00003C00000006000000020000000000000000408F400000004010183FC000000080D0754FC00000000000408F4000000040
310
5DEF3CC0000000A0F4F247C00C00000013000000AA0F00003C00000006000000020000000000000000408F4000000040A60B3CC0000000402CE050C00000000000408F40000000C093F42AC000000020F4CA51C00C00000013000000B20F00003C00000006000000020000000000000000408F400000004010183FC0000000
310
80D0754FC00000000000408F40000000C0BF6A3DC0000000E017B247C00C00000013000000BA0F00003C00000006000000020000000000000000408F4000000040494141C0000000801B5C4DC00000000000408F4000000040730A3EC000000020868A47C00C00000013000000C20F00003C00000006000000020000000000
310
000000408F4000000040494141C0000000801B5C4DC00000000000408F40000000C0FEDE3EC0000000603E8247C00C00000013000000CA0F00003C00000006000000020000000000000000408F4000000080134845C000000040DEA449C00000000000408F4000000040B07A42C000000020926C45C00C00000013000000D2
310
0F00003C00000006000000020000000000000000408F40000000E08BA647C0000000C03D0048C00000000000408F40000000E041FA44C00000006027B343C00C00000013000000DA0F00003C00000006000000020000000000000000408F4000000060DE504AC0000000805A7C46C00000000000408F400000000060C347C0
310
00000040621842C00C00000013000000E20F00003C00000006000000020000000000000000408F400000000096164DC000000040973345C00000000000408F40000000C048DC4AC0000000C098A140C00C00000013000000EA0F00003C00000006000000020000000000000000408F4000000000BA0350C000000080621A44
310
C00000000000408F400000008080484EC000000080B7A93EC00C00000013000000F20F00003C00000006000000020000000000000000408F40000000801BB151C0000000C08F1D43C00000000000408F40000000C0990E51C000000080D0653CC00C00000013000000FA0F00003C0000000600000002000000000000000040
310
8F4000000000FF7353C000000040225342C00000000000408F40000000403F7451C00000008025AC3BC00C00000013000000021000003C00000006000000020000000000000000408F40000000409F5F54C00000004005FE41C00000000000408F400000008002C451C00000008064703AC00C000000130000000A1000003C
310
00000006000000020000000000000000408F40000000C05D5254C000000080881840C00000000000408F400000000030F451C000000080F8D838C00C00000013000000121000003C00000006000000020000000000000000408F40000000C066F054C00000008033F33FC00000000000408F40000000009FA953C000000000
310
00E8723F0C000000130000001A1000003C00000006000000020000000000000000408F400000000071AB54C0000000002C1140C00000000000408F40000000009FA953C00000000000E8723F0C00000013000000221000003C00000006000000020000000000000000408F4000000040DE6155C000000080E23B3FC0000000
310
0000408F40000000009FA953C00000000000E8723F0C000000130000002A1000003C00000006000000020000000000000000408F4000000040E8B455C000000000EA1E3EC00000000000408F40000000009FA953C00000000000E8723F0C00000013000000321000003C00000006000000020000000000000000408F400000
310
0080BDF555C0000000809E7B3CC00000000000408F40000000009FA953C00000000000E8723F0C000000130000003A1000003C00000006000000020000000000000000408F4000000000BAD655C0000000002A653DC00000000000408F40000000009FA953C00000000000E8723F0C00000013000000421000003C00000006
310
000000020000000000000000408F40000000400E1156C0000000809F603BC00000000000408F40000000009FA953C00000000000E8723F0C000000130000004A1000003C00000006000000020000000000000000408F4000000000D33E56C000000080849238C00000000000408F40000000009FA953C00000000000E8723F
310
0C00000013000000521000003C00000006000000020000000000000000408F40000000C0406B56C00000008019A435C00000000000408F40000000009FA953C00000000000E8723F0C000000130000005A1000003C00000006000000020000000000000000408F4000000040878656C000000080BB5B34C00000000000408F
310
40000000009FA953C00000000000E8723F0C00000013000000621000003C00000006000000020000000000000000408F400000008077A756C000000080753B33C00000000000408F40000000009FA953C00000000000E8723F0C000000130000006A1000003C00000006000000020000000000000000408F4000000000C5CB
310
56C000000000825232C00000000000408F40000000009FA953C00000000000E8723F0C00000013000000721000003C00000006000000020000000000000000408F400000004039F356C0000000008C9431C00000000000408F40000000009FA953C00000000000E8723F0C000000130000007A1000003C0000000600000002
310
0000000000000000408F40000000C0481F57C000000080FDF330C00000000000408F40000000C0234C56C00000000000D0683F0C00000013000000821000003C00000006000000020000000000000000408F4000000080EE8257C000000080910330C00000000000408F40000000C0B22057C000000000D00AFFBF0C000000
310
130000008A1000003C00000006000000020000000000000000408F40000000407B0B58C00000000057B22EC00000000000408F40000000C03F4E57C000000000806501C00C00000013000000921000003C00000006000000020000000000000000408F4000000040325E58C0000000009F4E2EC00000000000408F40000000
310
80E47D57C00000000078C300C00C000000130000009A1000003C00000006000000020000000000000000408F400000004075CB58C000000000241D2EC00000000000408F400000008062A757C0000000007876FBBF0C00000013000000A21000003C00000006000000020000000000000000408F400000004024E658C00000
310
0000E8B723C00000000000408F40000000808CC357C00000000030A6F1BF
100
AcDbSubDMesh
 71
     2
 72
     0
 91
        0
 92
      250
 10
-1000.000122070312
 20
-103.411148071289
 30
0.0002822875976563
 10
1000.0
 20
-103.4112243652343
 30
0.0005569458007813
 10
1000.0
 20
-103.4095001220703
 30
-10.0003433227539
 10
-1000.000122070312
 20
-103.4094085693359
 30
-10.0006103515625
 10
1000.0
 20
-99.59596252441407
 30
-9.85919189453125
 10
-1000.000122070312
 20
-99.59587097167968
 30
-9.859458923339843
 10
1000.0
 20
-99.17903137207032
 30
-15.05691528320312
 10
-1000.000122070312
 20
-99.17893981933595
 30
-15.05717468261719
 10
-1000.000122070312
 20
-81.28688049316407
 30
-32.19192504882812
 10
-1000.000122070312
 20
-82.67868041992187
 30
-32.13441467285156
 10
-1000.000122070312
 20
-83.75617980957031
 30
-31.95024871826172
 10
-1000.000122070312
 20
-85.52909851074218
 30
-31.23416900634766
 10
-1000.000122070312
 20
-86.82659912109375
 30
-30.12099456787109
 10
-1000.000122070312
 20
-87.35502624511719
 30
-29.39540863037109
 10
-1000.000122070312
 20
-87.83959960937499
 30
-28.483154296875
 10
-1000.000122070312
 20
-88.26640319824219
 30
-27.37767791748047
 10
-1000.000122070312
 20
-88.98153686523437
 30
-24.57259368896484
 10
-1000.000122070312
 20
-89.67573547363281
 30
-21.64125823974609
 10
-1000.000122070312
 20
-90.10191345214844
 30
-20.35857391357422
 10
-1000.000122070312
 20
-90.6165771484375
 30
-19.23251342773437
 10
-1000.000122070312
 20
-91.18380737304688
 30
-18.32253265380859
 10
-1000.000122070312
 20
-91.80029296875
 30
-17.58050537109375
 10
-1000.000122070312
 20
-92.4887237548828
 30
-16.95335388183593
 10
-1000.000122070312
 20
-94.04571533203125
 30
-16.01418304443359
 10
-1000.000122070312
 20
-96.17930603027344
 30
-15.34859466552734
 10
-1000.000122070312
 20
-97.47174072265625
 30
-15.15381622314453
 10
1000.0
 20
-97.47181701660156
 30
-15.15355682373047
 10
1000.0
 20
-96.17939758300781
 30
-15.34832000732422
 10
1000.0
 20
-94.04580688476562
 30
-16.01393890380859
 10
1000.0
 20
-92.48881530761719
 30
-16.95308685302734
 10
1000.0
 20
-91.80036926269531
 30
-17.58026123046875
 10
1000.0
 20
-91.18389892578125
 30
-18.32229614257812
 10
1000.0
 20
-90.61666870117187
 30
-19.23226165771484
 10
1000.0
 20
-90.10200500488281
 30
-20.35832977294922
 10
1000.0
 20
-89.67582702636718
 30
-21.6410140991211
 10
1000.0
 20
-88.98162841796875
 30
-24.57233428955078
 10
1000.0
 20
-88.26649475097656
 30
-27.37743377685547
 10
1000.0
 20
-87.83969116210938
 30
-28.48288726806641
 10
1000.0
 20
-87.3551025390625
 30
-29.39517211914063
 10
1000.0
 20
-86.82667541503906
 30
-30.12075805664063
 10
1000.0
 20
-85.52919006347655
 30
-31.23392486572266
 10
1000.0
 20
-83.75627136230468
 30
-31.95000457763672
 10
1000.0
 20
-82.67877197265624
 30
-32.1341552734375
 10
1000.0
 20
-81.28697204589844
 30
-32.19166564941406
 10
1000.0
 20
-81.49409484863282
 30
-35.98453521728516
 10
-1000.000122070312
 20
-81.49423217773437
 30
-35.98478698730469
 10
-1000.000122070312
 20
-18.3420238494873
 30
-103.5947113037109
 10
-1000.000122070312
 20
-18.87055969238281
 30
-96.38804626464844
 10
-1000.000122070312
 20
-19.85616302490234
 30
-89.75099945068359
 10
-1000.000122070312
 20
-21.22257232666016
 30
-83.77404785156249
 10
-1000.000122070312
 20
-23.03424072265625
 30
-78.07402801513672
 10
-1000.000122070312
 20
-25.35593414306641
 30
-72.53101348876953
 10
-1000.000122070312
 20
-28.04542922973633
 30
-67.50296020507812
 10
-1000.000122070312
 20
-31.09391403198242
 30
-62.92068481445312
 10
-1000.000122070312
 20
-34.50985336303711
 30
-58.71984100341797
 10
-1000.000122070312
 20
-38.31095504760742
 30
-54.86192321777344
 10
-1000.000122070312
 20
-42.56290817260742
 30
-51.28829193115234
 10
-1000.000122070312
 20
-47.30094146728515
 30
-48.00214385986328
 10
-1000.000122070312
 20
-52.631591796875
 30
-44.97176361083984
 10
-1000.000122070312
 20
-58.17625808715821
 30
-42.40330505371093
 10
-1000.000122070312
 20
-64.05814361572265
 30
-40.20638275146484
 10
-1000.000122070312
 20
-70.7672119140625
 30
-38.23120880126953
 10
-1000.000122070312
 20
-77.81257629394531
 30
-36.64974212646484
 10
1000.0
 20
-77.81243896484375
 30
-36.64948272705078
 10
1000.0
 20
-70.76730346679688
 30
-38.23094940185547
 10
1000.0
 20
-64.0582275390625
 30
-40.20613098144531
 10
1000.0
 20
-58.17645263671875
 30
-42.4030532836914
 10
1000.0
 20
-52.63178634643555
 30
-44.97151184082031
 10
1000.0
 20
-47.30114364624023
 30
-48.00188446044922
 10
1000.0
 20
-42.56309509277343
 30
-51.28803253173828
 10
1000.0
 20
-38.31114959716797
 30
-54.8616714477539
 10
1000.0
 20
-34.51004791259766
 30
-58.71958923339843
 10
1000.0
 20
-31.09399795532227
 30
-62.92042541503906
 10
1000.0
 20
-28.04550552368164
 30
-67.50270080566406
 10
1000.0
 20
-25.35601806640625
 30
-72.53075408935547
 10
1000.0
 20
-23.03432464599609
 30
-78.07376861572265
 10
1000.0
 20
-21.22266006469727
 30
-83.77378845214844
 10
1000.0
 20
-19.85625076293945
 30
-89.75074768066406
 10
1000.0
 20
-18.87064743041992
 30
-96.38777160644531
 10
1000.0
 20
-18.34210777282715
 30
-103.5944519042969
 10
-1000.000122070312
 20
-18.56336212158203
 30
-132.483154296875
 10
-1000.000122070312
 20
-19.70679473876953
 30
-132.4383850097656
 10
-1000.000122070312
 20
-20.68032836914063
 30
-132.2735290527343
 10
-1000.000122070312
 20
-21.54523849487305
 30
-132.0021362304687
 10
-1000.000122070312
 20
-22.27688217163086
 30
-131.6490783691406
 10
-1000.000122070312
 20
-22.91664123535156
 30
-131.2162170410156
 10
-1000.000122070312
 20
-23.46772766113281
 30
-130.7137451171875
 10
-1000.000122070312
 20
-23.95950698852539
 30
-130.1195068359375
 10
-1000.000122070312
 20
-24.38874435424805
 30
-129.4305114746093
 10
-1000.000122070312
 20
-24.75707626342773
 30
-128.6256713867187
 10
-1000.000122070312
 20
-25.04286193847657
 30
-127.7356719970703
 10
-1000.000122070312
 20
-25.22525787353516
 30
-126.7953796386718
 10
-1000.000122070312
 20
-25.2898063659668
 30
-125.8858489990234
 10
-1000.000122070312
 20
-25.09751892089844
 30
-124.1791076660156
 10
-1000.000122070312
 20
-24.50642395019531
 30
-122.6370697021484
 10
-1000.000122070312
 20
-23.47294998168945
 30
-121.1747589111328
 10
-1000.000122070312
 20
-21.85494995117188
 30
-119.7426452636719
 10
1000.0
 20
-21.85504150390625
 30
-119.7423858642578
 10
1000.0
 20
-23.4730339050293
 30
-121.1744995117187
 10
1000.0
 20
-24.50651550292969
 30
-122.6368255615234
 10
1000.0
 20
-25.09760665893555
 30
-124.1788635253906
 10
1000.0
 20
-25.28989410400391
 30
-125.8855895996094
 10
1000.0
 20
-25.225341796875
 30
-126.7951202392578
 10
1000.0
 20
-25.04294967651367
 30
-127.7354125976562
 10
1000.0
 20
-24.75716400146485
 30
-128.6254272460937
 10
1000.0
 20
-24.38883209228516
 30
-129.4302673339843
 10
1000.0
 20
-23.9595947265625
 30
-130.1192321777344
 10
1000.0
 20
-23.46781539916992
 30
-130.7134704589844
 10
1000.0
 20
-22.91672897338867
 30
-131.2159729003906
 10
1000.0
 20
-22.27696990966797
 30
-131.6488342285156
 10
1000.0
 20
-21.54532623291016
 30
-132.0018920898437
 10
1000.0
 20
-20.68041229248047
 30
-132.2732849121093
 10
1000.0
 20
-19.70688247680664
 30
-132.4381408691406
 10
1000.0
 20
-18.5634536743164
 30
-132.48291015625
 10
1000.0
 20
-18.30734634399414
 30
-137.9108276367187
 10
-1000.000122070312
 20
-18.30725860595703
 30
-137.9110717773437
 10
1000.0
 20
-15.0512809753418
 30
-137.8175354003906
 10
-1000.000122070312
 20
-15.05119323730468
 30
-137.8177795410156
 10
-1000.000122070312
 20
-8.114326477050781
 30
-155.6569213867187
 10
-1000.000122070312
 20
-8.000030517578125
 30
-153.6052856445312
 10
-1000.000122070312
 20
-8.467557907104492
 30
-151.630859375
 10
-1000.000122070312
 20
-8.925207138061523
 30
-150.6670837402344
 10
-1000.000122070312
 20
-9.561597824096679
 30
-149.6561584472656
 10
-1000.000122070312
 20
-10.40583610534668
 30
-148.5307312011719
 10
-1000.000122070312
 20
-11.40776634216308
 30
-147.2749938964843
 10
-1000.000122070312
 20
-12.43685722351074
 30
-145.9063415527344
 10
-1000.000122070312
 20
-13.36144065856933
 30
-144.5220336914062
 10
-1000.000122070312
 20
-14.112548828125
 30
-143.2030639648437
 10
-1000.000122070312
 20
-14.6506118774414
 30
-141.9876708984375
 10
-1000.000122070312
 20
-15.14131164550781
 30
-139.8613586425781
 10
1000.0
 20
-15.14139556884765
 30
-139.8611145019531
 10
1000.0
 20
-14.65069961547851
 30
-141.9874267578125
 10
1000.0
 20
-14.11263275146484
 30
-143.2028198242187
 10
1000.0
 20
-13.36153221130371
 30
-144.5217895507812
 10
1000.0
 20
-12.43695640563965
 30
-145.9060974121094
 10
1000.0
 20
-11.40785789489746
 30
-147.2747497558593
 10
1000.0
 20
-10.40592765808105
 30
-148.5304565429687
 10
1000.0
 20
-9.561681747436523
 30
-149.6559143066406
 10
1000.0
 20
-8.92531394958496
 30
-150.6668090820312
 10
1000.0
 20
-8.467645645141601
 30
-151.630615234375
 10
1000.0
 20
-8.000011444091796
 30
-153.6050109863281
 10
1000.0
 20
-8.114307403564453
 30
-155.6566772460937
 10
1000.0
 20
0.0016059875488281
 30
-155.9908142089843
 10
-1000.000122070312
 20
0.0015792846679688
 30
-155.9910888671875
 10
-1000.000122070312
 20
-21.93289947509766
 30
-118.0906677246094
 10
1000.0
 20
-21.9329833984375
 30
-118.0904083251953
 10
-1000.000122070312
 20
-20.82327270507812
 30
-117.0002746582031
 10
-1000.000122070312
 20
-19.62934112548828
 30
-115.0204010009765
 10
-1000.000122070312
 20
-18.60978698730469
 30
-111.1522064208984
 10
1000.0
 20
-18.60987091064453
 30
-111.1519470214844
 10
1000.0
 20
-19.62943267822265
 30
-115.0201416015625
 10
1000.0
 20
-20.8233642578125
 30
-117.000015258789
 10
-1000.000122070312
 20
-68.22803497314453
 30
-28.3979721069336
 10
-1000.000122070312
 20
-60.56621932983398
 30
-30.66320037841797
 10
-1000.000122070312
 20
-53.72077560424805
 30
-33.26273345947266
 10
-1000.000122070312
 20
-47.52616500854492
 30
-36.19075775146484
 10
-1000.000122070312
 20
-41.95494079589844
 30
-39.39989852905274
 10
-1000.000122070312
 20
-36.95831680297852
 30
-42.84846878051758
 10
-1000.000122070312
 20
-32.46875381469727
 30
-46.52737045288086
 10
1000.0
 20
-32.46894073486328
 30
-46.52711105346679
 10
1000.0
 20
-36.95850372314453
 30
-42.84820938110351
 10
1000.0
 20
-41.95513534545898
 30
-39.39963912963867
 10
1000.0
 20
-47.52636718749999
 30
-36.19049835205078
 10
1000.0
 20
-53.72097015380859
 30
-33.26247406005859
 10
1000.0
 20
-60.56642150878906
 30
-30.66295623779297
 10
1000.0
 20
-68.22813415527344
 30
-28.39771270751953
 10
-1000.000122070312
 20
-13.54208183288574
 30
-75.01399993896484
 10
-1000.000122070312
 20
-10.78801727294922
 30
-84.54354095458985
 10
-1000.000122070312
 20
-8.993896484375
 30
-95.41776275634765
 10
-1000.000122070312
 20
-8.330768585205078
 30
-108.1382217407226
 10
-1000.000122070312
 20
-8.515003204345703
 30
-115.391128540039
 10
-1000.000122070312
 20
-9.140609741210937
 30
-123.5601959228515
 10
1000.0
 20
-9.140701293945312
 30
-123.5599517822265
 10
1000.0
 20
-8.515098571777343
 30
-115.390869140625
 10
1000.0
 20
-8.33074951171875
 30
-108.1379623413086
 10
1000.0
 20
-8.993988037109375
 30
-95.41749572753905
 10
1000.0
 20
-10.78811645507812
 30
-84.54328918457031
 10
1000.0
 20
-13.54217338562011
 30
-75.01373291015625
 10
-1000.000122070312
 20
-5.945182800292968
 30
-128.8091735839844
 10
-1000.000122070312
 20
-0.072998046875
 30
-131.085693359375
 10
1000.0
 20
-5.94516372680664
 30
-128.8089294433593
 10
-1000.000122070312
 20
-78.65023803710937
 30
0.0043716430664063
 10
-1000.000122070312
 20
-71.81533813476562
 30
-24.84778594970703
 10
1000.0
 20
-71.8154296875
 30
-24.84754180908203
 10
1000.0
 20
-78.65032958984375
 30
0.0046157836914063
 10
1000.0
 20
-69.81636047363281
 30
-27.67244720458985
 10
1000.0
 20
-71.06265258789062
 30
-26.43903350830078
 10
-1000.000122070312
 20
-71.06256103515625
 30
-26.43930816650391
 10
-1000.000122070312
 20
-69.81626129150391
 30
-27.67270660400391
 10
1000.0
 20
-7.352802276611328
 30
-127.9786148071289
 10
1000.0
 20
-8.422481536865234
 30
-126.7338409423828
 10
1000.0
 20
-9.040267944335937
 30
-125.2068634033203
 10
-1000.000122070312
 20
-9.040176391601562
 30
-125.2071228027344
 10
-1000.000122070312
 20
-8.422393798828125
 30
-126.7340850830078
 10
-1000.000122070312
 20
-7.352821350097656
 30
-127.9788589477539
 10
-1000.000122070312
 20
-13.47759819030762
 30
-71.17140197753906
 10
1000.0
 20
-13.47768974304199
 30
-71.17115020751953
 10
1000.0
 20
-28.93501663208008
 30
-47.89809036254882
 10
-1000.000122070312
 20
-28.93493270874023
 30
-47.89834213256836
 10
1000.0
 20
-30.87107467651367
 30
-47.01752853393554
 10
-1000.000122070312
 20
-30.87099075317383
 30
-47.01778793334961
 10
1000.0
 20
-13.39913749694824
 30
-73.3136978149414
 10
-1000.000122070312
 20
-13.39904594421386
 30
-73.31394958496094
 10
-1000.000122070312
 20
-31.78903579711914
 30
-46.9252586364746
 10
1000.0
 20
-31.78911209106445
 30
-46.92499923706054
 10
1000.0
 20
-13.65826225280762
 30
-74.21570587158203
 10
-1000.000122070312
 20
-13.65815544128418
 30
-74.21595764160156
 10
-1000.000122070312
 20
-30.04073715209961
 30
-47.08246994018554
 10
-1000.000122070312
 20
-29.41690444946289
 30
-47.39161300659179
 10
1000.0
 20
-29.41698837280274
 30
-47.39135360717773
 10
1000.0
 20
-30.04082107543946
 30
-47.08221817016601
 10
-1000.000122070312
 20
-13.19582939147949
 30
-71.8145751953125
 10
-1000.000122070312
 20
-13.14820671081543
 30
-72.51641845703125
 10
1000.0
 20
-13.1482982635498
 30
-72.51616668701172
 10
1000.0
 20
-13.19592094421387
 30
-71.81432342529297
 10
1000.0
 20
-0.0729713439941406
 30
-131.08544921875
 10
-1000.000122070312
 20
-2.04119873046875
 30
-143.4646301269531
 10
-1000.000122070312
 20
-2.45477294921875
 30
-144.0396118164062
 10
-1000.000122070312
 20
-2.619651794433593
 30
-144.7311706542969
 10
-1000.000122070312
 20
-2.510719299316406
 30
-145.4339904785156
 10
-1000.000122070312
 20
-2.144554138183593
 30
-146.0411071777343
 10
-1000.000122070312
 20
-1.576927185058593
 30
-146.4600524902343
 10
-1000.000122070312
 20
-0.89422607421875
 30
-146.6270751953125
 10
1000.0
 20
-0.8942070007324218
 30
-146.6268310546875
 10
1000.0
 20
-1.576908111572265
 30
-146.4598083496094
 10
1000.0
 20
-2.144535064697265
 30
-146.0408630371093
 10
1000.0
 20
-2.510700225830078
 30
-145.4337463378906
 10
1000.0
 20
-2.619632720947265
 30
-144.7308959960937
 10
1000.0
 20
-2.454761505126953
 30
-144.0393371582031
 10
1000.0
 20
-2.04117202758789
 30
-143.46435546875
 10
-1000.000122070312
 20
-0.0000381469726563
 30
-146.6639099121094
 10
1000.0
 20
-0.0000190734863281
 30
-146.6636352539062
 10
-1000.000122070312
 20
-0.0009231567382813
 30
-141.5592956542969
 10
1000.0
 20
-0.0009040832519531
 30
-141.5590515136718
 10
-1000.000122070312
 20
-89.18959045410156
 30
0.0027542114257813
 10
-1000.000122070312
 20
-92.51080322265625
 30
-1.940414428710937
 10
-1000.000122070312
 20
-93.22254943847656
 30
-2.174819946289062
 10
-1000.000122070312
 20
-93.96696472167969
 30
-2.095718383789062
 10
-1000.000122070312
 20
-94.61529541015625
 30
-1.716690063476562
 10
-1000.000122070312
 20
-95.05534362792969
 30
-1.103347778320312
 10
-1000.000122070312
 20
-95.21107482910156
 30
-0.3618011474609375
 10
-1000.000122070312
 20
-95.21113586425782
 30
0.001708984375
 10
1000.0
 20
-95.21122741699219
 30
0.0019760131835938
 10
1000.0
 20
-95.21116638183594
 30
-0.3615264892578125
 10
1000.0
 20
-95.05545043945312
 30
-1.103073120117187
 10
1000.0
 20
-94.61538696289062
 30
-1.716423034667968
 10
1000.0
 20
-93.96707153320312
 30
-2.095443725585937
 10
1000.0
 20
-93.22264099121094
 30
-2.174560546875
 10
1000.0
 20
-92.51091003417968
 30
-1.940139770507812
 10
1000.0
 20
-89.18968200683593
 30
0.0030288696289063
 93
     1351
 90
        4
 90
      241
 90
        0
 90
        1
 90
      242
 90
        4
 90
        0
 90
        3
 90
        2
 90
        1
 90
        4
 90
        3
 90
        5
 90
        4
 90
        2
 90
        4
 90
        5
 90
        7
 90
        6
 90
        4
 90
        4
 90
        7
 90
       25
 90
       26
 90
        6
 90
        4
 90
       25
 90
       24
 90
       27
 90
       26
 90
        4
 90
       24
 90
       23
 90
       28
 90
       27
 90
        4
 90
       23
 90
       22
 90
       29
 90
       28
 90
        4
 90
       22
 90
       21
 90
       30
 90
       29
 90
        4
 90
       21
 90
       20
 90
       31
 90
       30
 90
        4
 90
       20
 90
       19
 90
       32
 90
       31
 90
        4
 90
       19
 90
       18
 90
       33
 90
       32
 90
        4
 90
       18
 90
       17
 90
       34
 90
       33
 90
        4
 90
       17
 90
       16
 90
       35
 90
       34
 90
        4
 90
       16
 90
       15
 90
       36
 90
       35
 90
        4
 90
       15
 90
       14
 90
       37
 90
       36
 90
        4
 90
       14
 90
       13
 90
       38
 90
       37
 90
        4
 90
       13
 90
       12
 90
       39
 90
       38
 90
        4
 90
       12
 90
       11
 90
       40
 90
       39
 90
        4
 90
       11
 90
       10
 90
       41
 90
       40
 90
        4
 90
       10
 90
        9
 90
       42
 90
       41
 90
        4
 90
        9
 90
        8
 90
       43
 90
       42
 90
        4
 90
        8
 90
       45
 90
       44
 90
       43
 90
        4
 90
       45
 90
       62
 90
       63
 90
       44
 90
        4
 90
       62
 90
       61
 90
       64
 90
       63
 90
        4
 90
       61
 90
       60
 90
       65
 90
       64
 90
        4
 90
       60
 90
       59
 90
       66
 90
       65
 90
        4
 90
       59
 90
       58
 90
       67
 90
       66
 90
        4
 90
       58
 90
       57
 90
       68
 90
       67
 90
        4
 90
       57
 90
       56
 90
       69
 90
       68
 90
        4
 90
       56
 90
       55
 90
       70
 90
       69
 90
        4
 90
       55
 90
       54
 90
       71
 90
       70
 90
        4
 90
       54
 90
       53
 90
       72
 90
       71
 90
        4
 90
       53
 90
       52
 90
       73
 90
       72
 90
        4
 90
       52
 90
       51
 90
       74
 90
       73
 90
        4
 90
       51
 90
       50
 90
       75
 90
       74
 90
        4
 90
       50
 90
       49
 90
       76
 90
       75
 90
        4
 90
       49
 90
       48
 90
       77
 90
       76
 90
        4
 90
       48
 90
       47
 90
       78
 90
       77
 90
        4
 90
       47
 90
       46
 90
       79
 90
       78
 90
        4
 90
       46
 90
      148
 90
      149
 90
       79
 90
        4
 90
      148
 90
      147
 90
      150
 90
      149
 90
        4
 90
      147
 90
      146
 90
      151
 90
      150
 90
        4
 90
      146
 90
      144
 90
      145
 90
      151
 90
        4
 90
      144
 90
       96
 90
       97
 90
      145
 90
        4
 90
       96
 90
       95
 90
       98
 90
       97
 90
        4
 90
       95
 90
       94
 90
       99
 90
       98
 90
        4
 90
       94
 90
       93
 90
      100
 90
       99
 90
        4
 90
       93
 90
       92
 90
      101
 90
      100
 90
        4
 90
       92
 90
       91
 90
      102
 90
      101
 90
        4
 90
       91
 90
       90
 90
      103
 90
      102
 90
        4
 90
       90
 90
       89
 90
      104
 90
      103
 90
        4
 90
       89
 90
       88
 90
      105
 90
      104
 90
        4
 90
       88
 90
       87
 90
      106
 90
      105
 90
        4
 90
       87
 90
       86
 90
      107
 90
      106
 90
        4
 90
       86
 90
       85
 90
      108
 90
      107
 90
        4
 90
       85
 90
       84
 90
      109
 90
      108
 90
        4
 90
       84
 90
       83
 90
      110
 90
      109
 90
        4
 90
       83
 90
       82
 90
      111
 90
      110
 90
        4
 90
       82
 90
       81
 90
      112
 90
      111
 90
        4
 90
       81
 90
       80
 90
      113
 90
      112
 90
        4
 90
       80
 90
      115
 90
      114
 90
      113
 90
        4
 90
      115
 90
      117
 90
      116
 90
      114
 90
        4
 90
      117
 90
      129
 90
      130
 90
      116
 90
        4
 90
      129
 90
      128
 90
      131
 90
      130
 90
        4
 90
      128
 90
      127
 90
      132
 90
      131
 90
        4
 90
      127
 90
      126
 90
      133
 90
      132
 90
        4
 90
      126
 90
      125
 90
      134
 90
      133
 90
        4
 90
      125
 90
      124
 90
      135
 90
      134
 90
        4
 90
      124
 90
      123
 90
      136
 90
      135
 90
        4
 90
      123
 90
      122
 90
      137
 90
      136
 90
        4
 90
      122
 90
      121
 90
      138
 90
      137
 90
        4
 90
      121
 90
      120
 90
      139
 90
      138
 90
        4
 90
      120
 90
      119
 90
      140
 90
      139
 90
        4
 90
      119
 90
      118
 90
      141
 90
      140
 90
        4
 90
      118
 90
      143
 90
      142
 90
      141
 90
        4
 90
      143
 90
      230
 90
      231
 90
      142
 90
        4
 90
      230
 90
      222
 90
      223
 90
      231
 90
        4
 90
      222
 90
      221
 90
      224
 90
      223
 90
        4
 90
      221
 90
      220
 90
      225
 90
      224
 90
        4
 90
      220
 90
      219
 90
      226
 90
      225
 90
        4
 90
      219
 90
      218
 90
      227
 90
      226
 90
        4
 90
      218
 90
      217
 90
      228
 90
      227
 90
        4
 90
      217
 90
      216
 90
      229
 90
      228
 90
        4
 90
      216
 90
      232
 90
      233
 90
      229
 90
        4
 90
      232
 90
      179
 90
      215
 90
      233
 90
        4
 90
      179
 90
      178
 90
      180
 90
      215
 90
        4
 90
      178
 90
      194
 90
      189
 90
      180
 90
        4
 90
      194
 90
      193
 90
      190
 90
      189
 90
        4
 90
      193
 90
      192
 90
      191
 90
      190
 90
        4
 90
      192
 90
      171
 90
      172
 90
      191
 90
        4
 90
      171
 90
      170
 90
      173
 90
      172
 90
        4
 90
      170
 90
      169
 90
      174
 90
      173
 90
        4
 90
      169
 90
      168
 90
      175
 90
      174
 90
        4
 90
      168
 90
      167
 90
      176
 90
      175
 90
        4
 90
      167
 90
      166
 90
      177
 90
      176
 90
        4
 90
      166
 90
      206
 90
      205
 90
      177
 90
        4
 90
      206
 90
      202
 90
      201
 90
      205
 90
        4
 90
      202
 90
      212
 90
      213
 90
      201
 90
        4
 90
      212
 90
      211
 90
      214
 90
      213
 90
        4
 90
      211
 90
      195
 90
      196
 90
      214
 90
        4
 90
      195
 90
      198
 90
      197
 90
      196
 90
        4
 90
      198
 90
      208
 90
      209
 90
      197
 90
        4
 90
      208
 90
      207
 90
      210
 90
      209
 90
        4
 90
      207
 90
      200
 90
      199
 90
      210
 90
        4
 90
      200
 90
      203
 90
      204
 90
      199
 90
        4
 90
      203
 90
      158
 90
      159
 90
      204
 90
        4
 90
      158
 90
      157
 90
      160
 90
      159
 90
        4
 90
      157
 90
      156
 90
      161
 90
      160
 90
        4
 90
      156
 90
      155
 90
      162
 90
      161
 90
        4
 90
      155
 90
      154
 90
      163
 90
      162
 90
        4
 90
      154
 90
      153
 90
      164
 90
      163
 90
        4
 90
      153
 90
      152
 90
      165
 90
      164
 90
        4
 90
      152
 90
      188
 90
      185
 90
      165
 90
        4
 90
      188
 90
      187
 90
      186
 90
      185
 90
        4
 90
      187
 90
      182
 90
      183
 90
      186
 90
        4
 90
      182
 90
      181
 90
      184
 90
      183
 90
        4
 90
      181
 90
      234
 90
      249
 90
      184
 90
        4
 90
      234
 90
      235
 90
      248
 90
      249
 90
        4
 90
      235
 90
      236
 90
      247
 90
      248
 90
        4
 90
      236
 90
      237
 90
      246
 90
      247
 90
        4
 90
      237
 90
      238
 90
      245
 90
      246
 90
        4
 90
      238
 90
      239
 90
      244
 90
      245
 90
        4
 90
      239
 90
      240
 90
      243
 90
      244
 90
        4
 90
      240
 90
      241
 90
      242
 90
      243
 90
        4
 90
        0
 90
      241
 90
      240
 90
        3
 90
        4
 90
      230
 90
      143
 90
      118
 90
      119
 90
        4
 90
      222
 90
      230
 90
      119
 90
      120
 90
        4
 90
      221
 90
      222
 90
      120
 90
      121
 90
        4
 90
      220
 90
      221
 90
      121
 90
      122
 90
        4
 90
      219
 90
      220
 90
      122
 90
      123
 90
        4
 90
      218
 90
      219
 90
      123
 90
      124
 90
        4
 90
      217
 90
      218
 90
      124
 90
      125
 90
        4
 90
      216
 90
      217
 90
      125
 90
      126
 90
        4
 90
      232
 90
      216
 90
      126
 90
      127
 90
        4
 90
      179
 90
      232
 90
      127
 90
      128
 90
        4
 90
      178
 90
      179
 90
      128
 90
      129
 90
        4
 90
      194
 90
      178
 90
      129
 90
      117
 90
        4
 90
      193
 90
      194
 90
      117
 90
      115
 90
        4
 90
      192
 90
      193
 90
      115
 90
       80
 90
        4
 90
      171
 90
      192
 90
       80
 90
       81
 90
        3
 90
      171
 90
       81
 90
       82
 90
        3
 90
      171
 90
       82
 90
       83
 90
        3
 90
      171
 90
       83
 90
       84
 90
        3
 90
      171
 90
       84
 90
       85
 90
        3
 90
      171
 90
       85
 90
       86
 90
        3
 90
      171
 90
       86
 90
       87
 90
        3
 90
      171
 90
       87
 90
       88
 90
        3
 90
      171
 90
       88
 90
       89
 90
        3
 90
      171
 90
       89
 90
       90
 90
        3
 90
      171
 90
       90
 90
       91
 90
        3
 90
      171
 90
       91
 90
       92
 90
        3
 90
      171
 90
       92
 90
       93
 90
        3
 90
      171
 90
       93
 90
       94
 90
        3
 90
      171
 90
       94
 90
       95
 90
        3
 90
      171
 90
       95
 90
       96
 90
        3
 90
      171
 90
       96
 90
      144
 90
        3
 90
      171
 90
      144
 90
      146
 90
        4
 90
      170
 90
      171
 90
      146
 90
      147
 90
        4
 90
      168
 90
      169
 90
       46
 90
       47
 90
        3
 90
      170
 90
      147
 90
      148
 90
        4
 90
      169
 90
      170
 90
      148
 90
       46
 90
        4
 90
      167
 90
      168
 90
       47
 90
       48
 90
        3
 90
      167
 90
       48
 90
       49
 90
        4
 90
      166
 90
      167
 90
       49
 90
       50
 90
        3
 90
      206
 90
      166
 90
       50
 90
        4
 90
      202
 90
      206
 90
       50
 90
       51
 90
        3
 90
      158
 90
      203
 90
       55
 90
        3
 90
      212
 90
      202
 90
       51
 90
        4
 90
      211
 90
      212
 90
       51
 90
       52
 90
        4
 90
      198
 90
      195
 90
       52
 90
       53
 90
        3
 90
      195
 90
      211
 90
       52
 90
        3
 90
      208
 90
      198
 90
       53
 90
        4
 90
      207
 90
      208
 90
       53
 90
       54
 90
        3
 90
      200
 90
      207
 90
       54
 90
        4
 90
      203
 90
      200
 90
       54
 90
       55
 90
        4
 90
      157
 90
      158
 90
       55
 90
       56
 90
        4
 90
      156
 90
      157
 90
       56
 90
       57
 90
        4
 90
      155
 90
      156
 90
       57
 90
       58
 90
        4
 90
      154
 90
      155
 90
       58
 90
       59
 90
        4
 90
      153
 90
      154
 90
       59
 90
       60
 90
        4
 90
      152
 90
      153
 90
       60
 90
       61
 90
        4
 90
      188
 90
      152
 90
       61
 90
       62
 90
        4
 90
      187
 90
      188
 90
       62
 90
       45
 90
        4
 90
      182
 90
      187
 90
       45
 90
        8
 90
        3
 90
      181
 90
        9
 90
       10
 90
        4
 90
      181
 90
      182
 90
        8
 90
        9
 90
        3
 90
      181
 90
       10
 90
       11
 90
        3
 90
      181
 90
       11
 90
       12
 90
        3
 90
      181
 90
       13
 90
       14
 90
        3
 90
      181
 90
       12
 90
       13
 90
        3
 90
      181
 90
       14
 90
       15
 90
        3
 90
      181
 90
       15
 90
       16
 90
        3
 90
      181
 90
       16
 90
       17
 90
        3
 90
      181
 90
       17
 90
       18
 90
        3
 90
      181
 90
       18
 90
       19
 90
        3
 90
      181
 90
       19
 90
       20
 90
        3
 90
      181
 90
       20
 90
       21
 90
        4
 90
      234
 90
      181
 90
       21
 90
       22
 90
        4
 90
      235
 90
      234
 90
       22
 90
       23
 90
        4
 90
      236
 90
      235
 90
       23
 90
       24
 90
        4
 90
      237
 90
      236
 90
       24
 90
       25
 90
        4
 90
      238
 90
      237
 90
       25
 90
        7
 90
        4
 90
      239
 90
      238
 90
        7
 90
        5
 90
        4
 90
      240
 90
      239
 90
        5
 90
        3
 90
        4
 90
        1
 90
        2
 90
      243
 90
      242
 90
        4
 90
      231
 90
      140
 90
      141
 90
      142
 90
        4
 90
      223
 90
      139
 90
      140
 90
      231
 90
        4
 90
      224
 90
      138
 90
      139
 90
      223
 90
        4
 90
      225
 90
      137
 90
      138
 90
      224
 90
        4
 90
      226
 90
      136
 90
      137
 90
      225
 90
        4
 90
      227
 90
      135
 90
      136
 90
      226
 90
        4
 90
      228
 90
      134
 90
      135
 90
      227
 90
        4
 90
      229
 90
      133
 90
      134
 90
      228
 90
        4
 90
      233
 90
      132
 90
      133
 90
      229
 90
        4
 90
      215
 90
      131
 90
      132
 90
      233
 90
        4
 90
      180
 90
      130
 90
      131
 90
      215
 90
        4
 90
      189
 90
      116
 90
      130
 90
      180
 90
        4
 90
      190
 90
      114
 90
      116
 90
      189
 90
        4
 90
      191
 90
      113
 90
      114
 90
      190
 90
        4
 90
      172
 90
      112
 90
      113
 90
      191
 90
        3
 90
      172
 90
      111
 90
      112
 90
        3
 90
      172
 90
      110
 90
      111
 90
        3
 90
      172
 90
      109
 90
      110
 90
        3
 90
      172
 90
      108
 90
      109
 90
        3
 90
      172
 90
      107
 90
      108
 90
        3
 90
      172
 90
      106
 90
      107
 90
        3
 90
      172
 90
      105
 90
      106
 90
        3
 90
      172
 90
      104
 90
      105
 90
        3
 90
      172
 90
      103
 90
      104
 90
        3
 90
      172
 90
      102
 90
      103
 90
        3
 90
      172
 90
      101
 90
      102
 90
        3
 90
      172
 90
      100
 90
      101
 90
        3
 90
      172
 90
       99
 90
      100
 90
        3
 90
      172
 90
       98
 90
       99
 90
        3
 90
      172
 90
       97
 90
       98
 90
        3
 90
      172
 90
      145
 90
       97
 90
        3
 90
      172
 90
      151
 90
      145
 90
        4
 90
      173
 90
      150
 90
      151
 90
      172
 90
        4
 90
      175
 90
       78
 90
       79
 90
      174
 90
        3
 90
      173
 90
      149
 90
      150
 90
        4
 90
      174
 90
       79
 90
      149
 90
      173
 90
        4
 90
      176
 90
       77
 90
       78
 90
      175
 90
        3
 90
      176
 90
       76
 90
       77
 90
        4
 90
      177
 90
       75
 90
       76
 90
      176
 90
        3
 90
      205
 90
       75
 90
      177
 90
        4
 90
      201
 90
       74
 90
       75
 90
      205
 90
        3
 90
      159
 90
       70
 90
      204
 90
        3
 90
      213
 90
       74
 90
      201
 90
        4
 90
      214
 90
       73
 90
       74
 90
      213
 90
        4
 90
      197
 90
       72
 90
       73
 90
      196
 90
        3
 90
      196
 90
       73
 90
      214
 90
        3
 90
      209
 90
       72
 90
      197
 90
        4
 90
      210
 90
       71
 90
       72
 90
      209
 90
        3
 90
      199
 90
       71
 90
      210
 90
        4
 90
      204
 90
       70
 90
       71
 90
      199
 90
        4
 90
      160
 90
       69
 90
       70
 90
      159
 90
        4
 90
      161
 90
       68
 90
       69
 90
      160
 90
        4
 90
      162
 90
       67
 90
       68
 90
      161
 90
        4
 90
      163
 90
       66
 90
       67
 90
      162
 90
        4
 90
      164
 90
       65
 90
       66
 90
      163
 90
        4
 90
      165
 90
       64
 90
       65
 90
      164
 90
        4
 90
      185
 90
       63
 90
       64
 90
      165
 90
        4
 90
      186
 90
       44
 90
       63
 90
      185
 90
        4
 90
      183
 90
       43
 90
       44
 90
      186
 90
        3
 90
      184
 90
       41
 90
       42
 90
        4
 90
      184
 90
       42
 90
       43
 90
      183
 90
        3
 90
      184
 90
       40
 90
       41
 90
        3
 90
      184
 90
       39
 90
       40
 90
        3
 90
      184
 90
       37
 90
       38
 90
        3
 90
      184
 90
       38
 90
       39
 90
        3
 90
      184
 90
       36
 90
       37
 90
        3
 90
      184
 90
       35
 90
       36
 90
        3
 90
      184
 90
       34
 90
       35
 90
        3
 90
      184
 90
       33
 90
       34
 90
        3
 90
      184
 90
       32
 90
       33
 90
        3
 90
      184
 90
       31
 90
       32
 90
        3
 90
      184
 90
       30
 90
       31
 90
        4
 90
      249
 90
       29
 90
       30
 90
      184
 90
        4
 90
      248
 90
       28
 90
       29
 90
      249
 90
        4
 90
      247
 90
       27
 90
       28
 90
      248
 90
        4
 90
      246
 90
       26
 90
       27
 90
      247
 90
        4
 90
      245
 90
        6
 90
       26
 90
      246
 90
        4
 90
      244
 90
        4
 90
        6
 90
      245
 90
        4
 90
      243
 90
        2
 90
        4
 90
      244
 94
      533
 90
        0
 90
      241
 90
        0
 90
        1
 90
        1
 90
      242
 90
      241
 90
      242
 90
        0
 90
        3
 90
        2
 90
        3
 90
        1
 90
        2
 90
        3
 90
        5
 90
        4
 90
        5
 90
        2
 90
        4
 90
        5
 90
        7
 90
        6
 90
        7
 90
        4
 90
        6
 90
        7
 90
       25
 90
       25
 90
       26
 90
        6
 90
       26
 90
       24
 90
       25
 90
       24
 90
       27
 90
       26
 90
       27
 90
       23
 90
       24
 90
       23
 90
       28
 90
       27
 90
       28
 90
       22
 90
       23
 90
       22
 90
       29
 90
       28
 90
       29
 90
       21
 90
       22
 90
       21
 90
       30
 90
       29
 90
       30
 90
       20
 90
       21
 90
       20
 90
       31
 90
       30
 90
       31
 90
       19
 90
       20
 90
       19
 90
       32
 90
       31
 90
       32
 90
       18
 90
       19
 90
       18
 90
       33
 90
       32
 90
       33
 90
       17
 90
       18
 90
       17
 90
       34
 90
       33
 90
       34
 90
       16
 90
       17
 90
       16
 90
       35
 90
       34
 90
       35
 90
       15
 90
       16
 90
       15
 90
       36
 90
       35
 90
       36
 90
       14
 90
       15
 90
       14
 90
       37
 90
       36
 90
       37
 90
       13
 90
       14
 90
       13
 90
       38
 90
       37
 90
       38
 90
       12
 90
       13
 90
       12
 90
       39
 90
       38
 90
       39
 90
       11
 90
       12
 90
       11
 90
       40
 90
       39
 90
       40
 90
       10
 90
       11
 90
       10
 90
       41
 90
       40
 90
       41
 90
        9
 90
       10
 90
        9
 90
       42
 90
       41
 90
       42
 90
        8
 90
        9
 90
        8
 90
       43
 90
       42
 90
       43
 90
        8
 90
       45
 90
       44
 90
       45
 90
       43
 90
       44
 90
       45
 90
       62
 90
       62
 90
       63
 90
       44
 90
       63
 90
       61
 90
       62
 90
       61
 90
       64
 90
       63
 90
       64
 90
       60
 90
       61
 90
       60
 90
       65
 90
       64
 90
       65
 90
       59
 90
       60
 90
       59
 90
       66
 90
       65
 90
       66
 90
       58
 90
       59
 90
       58
 90
       67
 90
       66
 90
       67
 90
       57
 90
       58
 90
       57
 90
       68
 90
       67
 90
       68
 90
       56
 90
       57
 90
       56
 90
       69
 90
       68
 90
       69
 90
       55
 90
       56
 90
       55
 90
       70
 90
       69
 90
       70
 90
       54
 90
       55
 90
       54
 90
       71
 90
       70
 90
       71
 90
       53
 90
       54
 90
       53
 90
       72
 90
       71
 90
       72
 90
       52
 90
       53
 90
       52
 90
       73
 90
       72
 90
       73
 90
       51
 90
       52
 90
       51
 90
       74
 90
       73
 90
       74
 90
       50
 90
       51
 90
       50
 90
       75
 90
       74
 90
       75
 90
       49
 90
       50
 90
       49
 90
       76
 90
       75
 90
       76
 90
       48
 90
       49
 90
       48
 90
       77
 90
       76
 90
       77
 90
       47
 90
       48
 90
       47
 90
       78
 90
       77
 90
       78
 90
       46
 90
       47
 90
       46
 90
       79
 90
       78
 90
       79
 90
       46
 90
      148
 90
      148
 90
      149
 90
       79
 90
      149
 90
      147
 90
      148
 90
      147
 90
      150
 90
      149
 90
      150
 90
      146
 90
      147
 90
      146
 90
      151
 90
      150
 90
      151
 90
      144
 90
      146
 90
      144
 90
      145
 90
      145
 90
      151
 90
       96
 90
      144
 90
       96
 90
       97
 90
       97
 90
      145
 90
       95
 90
       96
 90
       95
 90
       98
 90
       97
 90
       98
 90
       94
 90
       95
 90
       94
 90
       99
 90
       98
 90
       99
 90
       93
 90
       94
 90
       93
 90
      100
 90
       99
 90
      100
 90
       92
 90
       93
 90
       92
 90
      101
 90
      100
 90
      101
 90
       91
 90
       92
 90
       91
 90
      102
 90
      101
 90
      102
 90
       90
 90
       91
 90
       90
 90
      103
 90
      102
 90
      103
 90
       89
 90
       90
 90
       89
 90
      104
 90
      103
 90
      104
 90
       88
 90
       89
 90
       88
 90
      105
 90
      104
 90
      105
 90
       87
 90
       88
 90
       87
 90
      106
 90
      105
 90
      106
 90
       86
 90
       87
 90
       86
 90
      107
 90
      106
 90
      107
 90
       85
 90
       86
 90
       85
 90
      108
 90
      107
 90
      108
 90
       84
 90
       85
 90
       84
 90
      109
 90
      108
 90
      109
 90
       83
 90
       84
 90
       83
 90
      110
 90
      109
 90
      110
 90
       82
 90
       83
 90
       82
 90
      111
 90
      110
 90
      111
 90
       81
 90
       82
 90
       81
 90
      112
 90
      111
 90
      112
 90
       80
 90
       81
 90
       80
 90
      113
 90
      112
 90
      113
 90
       80
 90
      115
 90
      114
 90
      115
 90
      113
 90
      114
 90
      115
 90
      117
 90
      116
 90
      117
 90
      114
 90
      116
 90
      117
 90
      129
 90
      129
 90
      130
 90
      116
 90
      130
 90
      128
 90
      129
 90
      128
 90
      131
 90
      130
 90
      131
 90
      127
 90
      128
 90
      127
 90
      132
 90
      131
 90
      132
 90
      126
 90
      127
 90
      126
 90
      133
 90
      132
 90
      133
 90
      125
 90
      126
 90
      125
 90
      134
 90
      133
 90
      134
 90
      124
 90
      125
 90
      124
 90
      135
 90
      134
 90
      135
 90
      123
 90
      124
 90
      123
 90
      136
 90
      135
 90
      136
 90
      122
 90
      123
 90
      122
 90
      137
 90
      136
 90
      137
 90
      121
 90
      122
 90
      121
 90
      138
 90
      137
 90
      138
 90
      120
 90
      121
 90
      120
 90
      139
 90
      138
 90
      139
 90
      119
 90
      120
 90
      119
 90
      140
 90
      139
 90
      140
 90
      118
 90
      119
 90
      118
 90
      141
 90
      140
 90
      141
 90
      118
 90
      143
 90
      142
 90
      143
 90
      141
 90
      142
 90
      143
 90
      230
 90
      230
 90
      231
 90
      142
 90
      231
 90
      222
 90
      230
 90
      222
 90
      223
 90
      223
 90
      231
 90
      221
 90
      222
 90
      221
 90
      224
 90
      223
 90
      224
 90
      220
 90
      221
 90
      220
 90
      225
 90
      224
 90
      225
 90
      219
 90
      220
 90
      219
 90
      226
 90
      225
 90
      226
 90
      218
 90
      219
 90
      218
 90
      227
 90
      226
 90
      227
 90
      217
 90
      218
 90
      217
 90
      228
 90
      227
 90
      228
 90
      216
 90
      217
 90
      216
 90
      229
 90
      228
 90
      229
 90
      216
 90
      232
 90
      232
 90
      233
 90
      229
 90
      233
 90
      179
 90
      232
 90
      179
 90
      215
 90
      215
 90
      233
 90
      178
 90
      179
 90
      178
 90
      180
 90
      180
 90
      215
 90
      178
 90
      194
 90
      189
 90
      194
 90
      180
 90
      189
 90
      193
 90
      194
 90
      190
 90
      193
 90
      189
 90
      190
 90
      192
 90
      193
 90
      191
 90
      192
 90
      190
 90
      191
 90
      171
 90
      192
 90
      171
 90
      172
 90
      172
 90
      191
 90
      170
 90
      171
 90
      170
 90
      173
 90
      172
 90
      173
 90
      169
 90
      170
 90
      169
 90
      174
 90
      173
 90
      174
 90
      168
 90
      169
 90
      168
 90
      175
 90
      174
 90
      175
 90
      167
 90
      168
 90
      167
 90
      176
 90
      175
 90
      176
 90
      166
 90
      167
 90
      166
 90
      177
 90
      176
 90
      177
 90
      166
 90
      206
 90
      205
 90
      206
 90
      177
 90
      205
 90
      202
 90
      206
 90
      201
 90
      202
 90
      201
 90
      205
 90
      202
 90
      212
 90
      212
 90
      213
 90
      201
 90
      213
 90
      211
 90
      212
 90
      211
 90
      214
 90
      213
 90
      214
 90
      195
 90
      211
 90
      195
 90
      196
 90
      196
 90
      214
 90
      195
 90
      198
 90
      197
 90
      198
 90
      196
 90
      197
 90
      198
 90
      208
 90
      208
 90
      209
 90
      197
 90
      209
 90
      207
 90
      208
 90
      207
 90
      210
 90
      209
 90
      210
 90
      200
 90
      207
 90
      199
 90
      200
 90
      199
 90
      210
 90
      200
 90
      203
 90
      203
 90
      204
 90
      199
 90
      204
 90
      158
 90
      203
 90
      158
 90
      159
 90
      159
 90
      204
 90
      157
 90
      158
 90
      157
 90
      160
 90
      159
 90
      160
 90
      156
 90
      157
 90
      156
 90
      161
 90
      160
 90
      161
 90
      155
 90
      156
 90
      155
 90
      162
 90
      161
 90
      162
 90
      154
 90
      155
 90
      154
 90
      163
 90
      162
 90
      163
 90
      153
 90
      154
 90
      153
 90
      164
 90
      163
 90
      164
 90
      152
 90
      153
 90
      152
 90
      165
 90
      164
 90
      165
 90
      152
 90
      188
 90
      185
 90
      188
 90
      165
 90
      185
 90
      187
 90
      188
 90
      186
 90
      187
 90
      185
 90
      186
 90
      182
 90
      187
 90
      182
 90
      183
 90
      183
 90
      186
 90
      181
 90
      182
 90
      181
 90
      184
 90
      183
 90
      184
 90
      181
 90
      234
 90
      234
 90
      249
 90
      184
 90
      249
 90
      234
 90
      235
 90
      235
 90
      248
 90
      248
 90
      249
 90
      235
 90
      236
 90
      236
 90
      247
 90
      247
 90
      248
 90
      236
 90
      237
 90
      237
 90
      246
 90
      246
 90
      247
 90
      237
 90
      238
 90
      238
 90
      245
 90
      245
 90
      246
 90
      238
 90
      239
 90
      239
 90
      244
 90
      244
 90
      245
 90
      239
 90
      240
 90
      240
 90
      243
 90
      243
 90
      244
 90
      240
 90
      241
 90
      242
 90
      243
 90
        3
 90
      240
 90
      119
 90
      230
 90
      120
 90
      222
 90
      121
 90
      221
 90
      122
 90
      220
 90
      123
 90
      219
 90
      124
 90
      218
 90
      125
 90
      217
 90
      126
 90
      216
 90
      127
 90
      232
 90
      128
 90
      179
 90
      129
 90
      178
 90
      117
 90
      194
 90
      115
 90
      193
 90
       80
 90
      192
 90
       81
 90
      171
 90
       82
 90
      171
 90
       83
 90
      171
 90
       84
 90
      171
 90
       85
 90
      171
 90
       86
 90
      171
 90
       87
 90
      171
 90
       88
 90
      171
 90
       89
 90
      171
 90
       90
 90
      171
 90
       91
 90
      171
 90
       92
 90
      171
 90
       93
 90
      171
 90
       94
 90
      171
 90
       95
 90
      171
 90
       96
 90
      171
 90
      144
 90
      171
 90
      146
 90
      171
 90
      147
 90
      170
 90
       46
 90
      169
 90
       47
 90
      168
 90
      148
 90
      170
 90
       48
 90
      167
 90
       49
 90
      167
 90
       50
 90
      166
 90
       50
 90
      206
 90
       51
 90
      202
 90
       55
 90
      203
 90
       55
 90
      158
 90
       51
 90
      212
 90
       52
 90
      211
 90
       52
 90
      195
 90
       53
 90
      198
 90
       53
 90
      208
 90
       54
 90
      207
 90
       54
 90
      200
 90
       56
 90
      157
 90
       57
 90
      156
 90
       58
 90
      155
 90
       59
 90
      154
 90
       60
 90
      153
 90
       61
 90
      152
 90
       62
 90
      188
 90
       45
 90
      187
 90
        8
 90
      182
 90
        9
 90
      181
 90
       10
 90
      181
 90
       11
 90
      181
 90
       12
 90
      181
 90
       13
 90
      181
 90
       14
 90
      181
 90
       15
 90
      181
 90
       16
 90
      181
 90
       17
 90
      181
 90
       18
 90
      181
 90
       19
 90
      181
 90
       20
 90
      181
 90
       21
 90
      181
 90
       22
 90
      234
 90
       23
 90
      235
 90
       24
 90
      236
 90
       25
 90
      237
 90
        7
 90
      238
 90
        5
 90
      239
 90
        2
 90
      243
 90
      140
 90
      231
 90
      139
 90
      223
 90
      138
 90
      224
 90
      137
 90
      225
 90
      136
 90
      226
 90
      135
 90
      227
 90
      134
 90
      228
 90
      133
 90
      229
 90
      132
 90
      233
 90
      131
 90
      215
 90
      130
 90
      180
 90
      116
 90
      189
 90
      114
 90
      190
 90
      113
 90
      191
 90
      112
 90
      172
 90
      111
 90
      172
 90
      110
 90
      172
 90
      109
 90
      172
 90
      108
 90
      172
 90
      107
 90
      172
 90
      106
 90
      172
 90
      105
 90
      172
 90
      104
 90
      172
 90
      103
 90
      172
 90
      102
 90
      172
 90
      101
 90
      172
 90
      100
 90
      172
 90
       99
 90
      172
 90
       98
 90
      172
 90
       97
 90
      172
 90
      145
 90
      172
 90
      151
 90
      172
 90
      150
 90
      173
 90
       78
 90
      175
 90
       79
 90
      174
 90
      149
 90
      173
 90
       77
 90
      176
 90
       76
 90
      176
 90
       75
 90
      177
 90
       75
 90
      205
 90
       74
 90
      201
 90
       70
 90
      159
 90
       70
 90
      204
 90
       74
 90
      213
 90
       73
 90
      214
 90
       72
 90
      197
 90
       73
 90
      196
 90
       72
 90
      209
 90
       71
 90
      210
 90
       71
 90
      199
 90
       69
 90
      160
 90
       68
 90
      161
 90
       67
 90
      162
 90
       66
 90
      163
 90
       65
 90
      164
 90
       64
 90
      165
 90
       63
 90
      185
 90
       44
 90
      186
 90
       43
 90
      183
 90
       41
 90
      184
 90
       42
 90
      184
 90
       40
 90
      184
 90
       39
 90
      184
 90
       37
 90
      184
 90
       38
 90
      184
 90
       36
 90
      184
 90
       35
 90
      184
 90
       34
 90
      184
 90
       33
 90
      184
 90
       32
 90
      184
 90
       31
 90
      184
 90
       30
 90
      184
 90
       29
 90
      249
 90
       28
 90
      248
 90
       27
 90
      247
 90
       26
 90
      246
 90
        6
 90
      245
 90
        4
 90
      244
 95
      533
140
0.0
140
0.0
140
0.0
140
0.0
140
0.0
140
0.0
140
0.0
140
0.0
140
0.0
140
0.0
140
0.0
140
0.0
140
0.0
140
0.0
140
0.0
140
0.0
140
0.0
140
0.0
140
0.0
140
0.0
140
0.0
140
0.0
140
0.0
140
0.0
140
0.0
140
0.0
140
0.0
140
0.0
140
0.0
140
0.0
140
0.0
140
0.0
140
0.0
140
0.0
140
0.0
140
0.0
140
0.0
140
0.0
140
0.0
140
0.0
140
0.0
140
0.0
140
0.0
140
0.0
140
0.0
140
0.0
140
0.0
140
0.0
140
0.0
140
0.0
140
0.0
140
0.0
140
0.0
140
0.0
140
0.0
140
0.0
140
0.0
140
0.0
140
0.0
140
0.0
140
0.0
140
0.0
140
0.0
140
0.0
140
0.0
140
0.0
140
0.0
140
0.0
140
0.0
140
0.0
140
0.0
140
0.0
140
0.0
140
0.0
140
0.0
140
0.0
140
0.0
140
0.0
140
0.0
140
0.0
140
0.0
140
0.0
140
0.0
140
0.0
140
0.0
140
0.0
140
0.0
140
0.0
140
0.0
140
0.0
140
0.0
140
0.0
140
0.0
140
0.0
140
0.0
140
0.0
140
0.0
140
0.0
140
0.0
140
0.0
140
0.0
140
0.0
140
0.0
140
0.0
140
0.0
140
0.0
140
0.0
140
0.0
140
0.0
140
0.0
140
0.0
140
0.0
140
0.0
140
0.0
140
0.0
140
0.0
140
0.0
140
0.0
140
0.0
140
0.0
140
0.0
140
0.0
140
0.0
140
0.0
140
0.0
140
0.0
140
0.0
140
0.0
140
0.0
140
0.0
140
0.0
140
0.0
140
0.0
140
0.0
140
0.0
140
0.0
140
0.0
140
0.0
140
0.0
140
0.0
140
0.0
140
0.0
140
0.0
140
0.0
140
0.0
140
0.0
140
0.0
140
0.0
140
0.0
140
0.0
140
0.0
140
0.0
140
0.0
140
0.0
140
0.0
140
0.0
140
0.0
140
0.0
140
0.0
140
0.0
140
0.0
140
0.0
140
0.0
140
0.0
140
0.0
140
0.0
140
0.0
140
0.0
140
0.0
140
0.0
140
0.0
140
0.0
140
0.0
140
0.0
140
0.0
140
0.0
140
0.0
140
0.0
140
0.0
140
0.0
140
0.0
140
0.0
140
0.0
140
0.0
140
0.0
140
0.0
140
0.0
140
0.0
140
0.0
140
0.0
140
0.0
140
0.0
140
0.0
140
0.0
140
0.0
140
0.0
140
0.0
140
0.0
140
0.0
140
0.0
140
0.0
140
0.0
140
0.0
140
0.0
140
0.0
140
0.0
140
0.0
140
0.0
140
0.0
140
0.0
140
0.0
140
0.0
140
0.0
140
0.0
140
0.0
140
0.0
140
0.0
140
0.0
140
0.0
140
0.0
140
0.0
140
0.0
140
0.0
140
0.0
140
0.0
140
0.0
140
0.0
140
0.0
140
0.0
140
0.0
140
0.0
140
0.0
140
0.0
140
0.0
140
0.0
140
0.0
140
0.0
140
0.0
140
0.0
140
0.0
140
0.0
140
0.0
140
0.0
140
0.0
140
0.0
140
0.0
140
0.0
140
0.0
140
0.0
140
0.0
140
0.0
140
0.0
140
0.0
140
0.0
140
0.0
140
0.0
140
0.0
140
0.0
140
0.0
140
0.0
140
0.0
140
0.0
140
0.0
140
0.0
140
0.0
140
0.0
140
0.0
140
0.0
140
0.0
140
0.0
140
0.0
140
0.0
140
0.0
140
0.0
140
0.0
140
0.0
140
0.0
140
0.0
140
0.0
140
0.0
140
0.0
140
0.0
140
0.0
140
0.0
140
0.0
140
0.0
140
0.0
140
0.0
140
0.0
140
0.0
140
0.0
140
0.0
140
0.0
140
0.0
140
0.0
140
0.0
140
0.0
140
0.0
140
0.0
140
0.0
140
0.0
140
0.0
140
0.0
140
0.0
140
0.0
140
0.0
140
0.0
140
0.0
140
0.0
140
0.0
140
0.0
140
0.0
140
0.0
140
0.0
140
0.0
140
0.0
140
0.0
140
0.0
140
0.0
140
0.0
140
0.0
140
0.0
140
0.0
140
0.0
140
0.0
140
0.0
140
0.0
140
0.0
140
0.0
140
0.0
140
0.0
140
0.0
140
0.0
140
0.0
140
0.0
140
0.0
140
0.0
140
0.0
140
0.0
140
0.0
140
0.0
140
0.0
140
0.0
140
0.0
140
0.0
140
0.0
140
0.0
140
0.0
140
0.0
140
0.0
140
0.0
140
0.0
140
0.0
140
0.0
140
0.0
140
0.0
140
0.0
140
0.0
140
0.0
140
0.0
140
0.0
140
0.0
140
0.0
140
0.0
140
0.0
140
0.0
140
0.0
140
0.0
140
0.0
140
0.0
140
0.0
140
0.0
140
0.0
140
0.0
140
0.0
140
0.0
140
0.0
140
0.0
140
0.0
140
0.0
140
0.0
140
0.0
140
0.0
140
0.0
140
0.0
140
0.0
140
0.0
140
0.0
140
0.0
140
0.0
140
0.0
140
0.0
140
0.0
140
0.0
140
0.0
140
0.0
140
0.0
140
0.0
140
0.0
140
0.0
140
0.0
140
0.0
140
0.0
140
0.0
140
0.0
140
0.0
140
0.0
140
0.0
140
0.0
140
0.0
140
0.0
140
0.0
140
0.0
140
0.0
140
0.0
140
0.0
140
0.0
140
0.0
140
0.0
140
0.0
140
0.0
140
0.0
140
0.0
140
0.0
140
0.0
140
0.0
140
0.0
140
0.0
140
0.0
140
0.0
140
0.0
140
0.0
140
0.0
140
0.0
140
0.0
140
0.0
140
0.0
140
0.0
140
0.0
140
0.0
140
0.0
140
0.0
140
0.0
140
0.0
140
0.0
140
0.0
140
0.0
140
0.0
140
0.0
140
0.0
140
0.0
140
0.0
140
0.0
140
0.0
140
0.0
140
0.0
140
0.0
140
0.0
140
0.0
140
0.0
140
0.0
140
0.0
140
0.0
140
0.0
140
0.0
140
0.0
140
0.0
140
0.0
140
0.0
140
0.0
140
0.0
140
0.0
140
0.0
140
0.0
140
0.0
140
0.0
140
0.0
140
0.0
140
0.0
140
0.0
140
0.0
140
0.0
140
0.0
140
0.0
140
0.0
140
0.0
140
0.0
140
0.0
140
0.0
140
0.0
140
0.0
140
0.0
140
0.0
140
0.0
140
0.0
140
0.0
140
0.0
140
0.0
140
0.0
140
0.0
140
0.0
140
0.0
140
0.0
140
0.0
140
0.0
140
0.0
140
0.0
140
0.0
140
0.0
140
0.0
140
0.0
140
0.0
140
0.0
140
0.0
140
0.0
140
0.0
140
0.0
140
0.0
140
0.0
140
0.0
140
0.0
140
0.0
140
0.0
140
0.0
140
0.0
140
0.0
140
0.0
140
0.0
140
0.0
140
0.0
140
0.0
140
0.0
140
0.0
 90
        0
  0
POLYLINE
  5
FA
330
1F
100
AcDbEntity
  8
OracDecor_cornice_mouldings
 62
   141
420
 10147813
100
AcDb2dPolyline
 66
     1
 10
0.0
 20
0.0
 30
0.0000000357991468
 70
     1
210
-0.9999999999999769
220
0.0000001788139343
230
-0.0000001192092896
  0
VERTEX
  5
FB
330
FA
100
AcDbEntity
  8
OracDecor_cornice_mouldings
 62
   141
420
 10147813
100
AcDbVertex
100
AcDb2dVertex
 10
-103.4131393432617
 20
-0.0043035042472184
 30
0.0000000357991468
  0
VERTEX
  5
FC
330
FA
100
AcDbEntity
  8
OracDecor_cornice_mouldings
 62
   141
420
 10147813
100
AcDbVertex
100
AcDb2dVertex
 10
-95.213134765625
 20
-0.0028839481528848
 30
0.0000000357991468
  0
VERTEX
  5
FD
330
FA
100
AcDbEntity
  8
OracDecor_cornice_mouldings
 62
   141
420
 10147813
100
AcDbVertex
100
AcDb2dVertex
 10
-95.21306610107421
 20
-0.3663788139820099
 30
0.0000000357991468
  0
VERTEX
  5
FE
330
FA
100
AcDbEntity
  8
OracDecor_cornice_mouldings
 62
   141
420
 10147813
100
AcDbVertex
100
AcDb2dVertex
 10
-95.0573501586914
 20
-1.107925534248352
 30
0.0000000357991468
  0
VERTEX
  5
FF
330
FA
100
AcDbEntity
  8
OracDecor_cornice_mouldings
 62
   141
420
 10147813
100
AcDbVertex
100
AcDb2dVertex
 10
-94.61729431152344
 20
-1.721267700195312
 30
0.0000000357991468
  0
VERTEX
  5
100
330
FA
100
AcDbEntity
  8
OracDecor_cornice_mouldings
 62
   141
420
 10147813
100
AcDbVertex
100
AcDb2dVertex
 10
-93.96897125244141
 20
-2.100295782089233
 30
0.0000000357991468
  0
VERTEX
  5
101
330
FA
100
AcDbEntity
  8
OracDecor_cornice_mouldings
 62
   141
420
 10147813
100
AcDbVertex
100
AcDb2dVertex
 10
-93.22454071044921
 20
-2.179412603378295
 30
0.0000000357991468
  0
VERTEX
  5
102
330
FA
100
AcDbEntity
  8
OracDecor_cornice_mouldings
 62
   141
420
 10147813
100
AcDbVertex
100
AcDb2dVertex
 10
-92.51280975341797
 20
-1.944991946220397
 30
0.0000000357991468
  0
VERTEX
  5
103
330
FA
100
AcDbEntity
  8
OracDecor_cornice_mouldings
 62
   141
420
 10147813
100
AcDbVertex
100
AcDb2dVertex
 10
-89.19158172607422
 20
-0.001815474126488
 30
0.0000000357991468
  0
VERTEX
  5
104
330
FA
100
AcDbEntity
  8
OracDecor_cornice_mouldings
 62
   141
420
 10147813
100
AcDbVertex
100
AcDb2dVertex
 10
-78.65223693847656
 20
-0.0000143087745528
 30
0.0000000357991468
  0
VERTEX
  5
105
330
FA
100
AcDbEntity
  8
OracDecor_cornice_mouldings
 62
   141
420
 10147813
100
AcDbVertex
100
AcDb2dVertex
 10
-71.81732940673828
 20
-24.85227775573731
 30
0.0000000357991468
  0
VERTEX
  5
106
330
FA
100
AcDbEntity
  8
OracDecor_cornice_mouldings
 62
   141
420
 10147813
100
AcDbVertex
100
AcDb2dVertex
 10
-71.06455993652343
 20
-26.44376945495606
 30
0.0000000357991468
  0
VERTEX
  5
107
330
FA
100
AcDbEntity
  8
OracDecor_cornice_mouldings
 62
   141
420
 10147813
100
AcDbVertex
100
AcDb2dVertex
 10
-69.81826019287109
 20
-27.67718315124512
 30
0.0000000357991468
  0
VERTEX
  5
108
330
FA
100
AcDbEntity
  8
OracDecor_cornice_mouldings
 62
   141
420
 10147813
100
AcDbVertex
100
AcDb2dVertex
 10
-68.23003387451172
 20
-28.40244865417481
 30
0.0000000357991468
  0
VERTEX
  5
109
330
FA
100
AcDbEntity
  8
OracDecor_cornice_mouldings
 62
   141
420
 10147813
100
AcDbVertex
100
AcDb2dVertex
 10
-60.56832122802735
 20
-30.66758537292481
 30
0.0000000357991468
  0
VERTEX
  5
10A
330
FA
100
AcDbEntity
  8
OracDecor_cornice_mouldings
 62
   141
420
 10147813
100
AcDbVertex
100
AcDb2dVertex
 10
-53.72286987304687
 20
-33.26720809936523
 30
0.0000000357991468
  0
VERTEX
  5
10B
330
FA
100
AcDbEntity
  8
OracDecor_cornice_mouldings
 62
   141
420
 10147813
100
AcDbVertex
100
AcDb2dVertex
 10
-47.52826690673828
 20
-36.19523239135742
 30
0.0000000357991468
  0
VERTEX
  5
10C
330
FA
100
AcDbEntity
  8
OracDecor_cornice_mouldings
 62
   141
420
 10147813
100
AcDbVertex
100
AcDb2dVertex
 10
-41.95703887939453
 20
-39.40426254272461
 30
0.0000000357991468
  0
VERTEX
  5
10D
330
FA
100
AcDbEntity
  8
OracDecor_cornice_mouldings
 62
   141
420
 10147813
100
AcDbVertex
100
AcDb2dVertex
 10
-36.96040344238281
 20
-42.85283279418945
 30
0.0000000357991468
  0
VERTEX
  5
10E
330
FA
100
AcDbEntity
  8
OracDecor_cornice_mouldings
 62
   141
420
 10147813
100
AcDbVertex
100
AcDb2dVertex
 10
-32.47074127197266
 20
-46.53173446655273
 30
0.0000000357991468
  0
VERTEX
  5
10F
330
FA
100
AcDbEntity
  8
OracDecor_cornice_mouldings
 62
   141
420
 10147813
100
AcDbVertex
100
AcDb2dVertex
 10
-31.79102325439453
 20
-46.92961883544922
 30
0.0000000357991468
  0
VERTEX
  5
110
330
FA
100
AcDbEntity
  8
OracDecor_cornice_mouldings
 62
   141
420
 10147813
100
AcDbVertex
100
AcDb2dVertex
 10
-30.87297821044922
 20
-47.02214813232422
 30
0.0000000357991468
  0
VERTEX
  5
111
330
FA
100
AcDbEntity
  8
OracDecor_cornice_mouldings
 62
   141
420
 10147813
100
AcDbVertex
100
AcDb2dVertex
 10
-30.04272651672363
 20
-47.08683776855468
 30
0.0000000357991468
  0
VERTEX
  5
112
330
FA
100
AcDbEntity
  8
OracDecor_cornice_mouldings
 62
   141
420
 10147813
100
AcDbVertex
100
AcDb2dVertex
 10
-29.41889762878418
 20
-47.39597702026367
 30
0.0000000357991468
  0
VERTEX
  5
113
330
FA
100
AcDbEntity
  8
OracDecor_cornice_mouldings
 62
   141
420
 10147813
100
AcDbVertex
100
AcDb2dVertex
 10
-28.93692970275879
 20
-47.90271377563477
 30
0.0000000357991468
  0
VERTEX
  5
114
330
FA
100
AcDbEntity
  8
OracDecor_cornice_mouldings
 62
   141
420
 10147813
100
AcDbVertex
100
AcDb2dVertex
 10
-13.47960090637207
 20
-71.17578125
 30
0.0000000357991468
  0
VERTEX
  5
115
330
FA
100
AcDbEntity
  8
OracDecor_cornice_mouldings
 62
   141
420
 10147813
100
AcDbVertex
100
AcDb2dVertex
 10
-13.19782829284668
 20
-71.81895446777343
 30
0.0000000357991468
  0
VERTEX
  5
116
330
FA
100
AcDbEntity
  8
OracDecor_cornice_mouldings
 62
   141
420
 10147813
100
AcDbVertex
100
AcDb2dVertex
 10
-13.15020179748535
 20
-72.52079772949219
 30
0.0000000357991468
  0
VERTEX
  5
117
330
FA
100
AcDbEntity
  8
OracDecor_cornice_mouldings
 62
   141
420
 10147813
100
AcDbVertex
100
AcDb2dVertex
 10
-13.40104484558105
 20
-73.31832885742187
 30
0.0000000357991468
  0
VERTEX
  5
118
330
FA
100
AcDbEntity
  8
OracDecor_cornice_mouldings
 62
   141
420
 10147813
100
AcDbVertex
100
AcDb2dVertex
 10
-13.66016578674316
 20
-74.2203369140625
 30
0.0000000357991468
  0
VERTEX
  5
119
330
FA
100
AcDbEntity
  8
OracDecor_cornice_mouldings
 62
   141
420
 10147813
100
AcDbVertex
100
AcDb2dVertex
 10
-13.54408073425293
 20
-75.01836395263672
 30
0.0000000357991468
  0
VERTEX
  5
11A
330
FA
100
AcDbEntity
  8
OracDecor_cornice_mouldings
 62
   141
420
 10147813
100
AcDbVertex
100
AcDb2dVertex
 10
-10.79001808166504
 20
-84.54792022705078
 30
0.0000000357991468
  0
VERTEX
  5
11B
330
FA
100
AcDbEntity
  8
OracDecor_cornice_mouldings
 62
   141
420
 10147813
100
AcDbVertex
100
AcDb2dVertex
 10
-8.995893478393554
 20
-95.42213439941406
 30
0.0000000357991468
  0
VERTEX
  5
11C
330
FA
100
AcDbEntity
  8
OracDecor_cornice_mouldings
 62
   141
420
 10147813
100
AcDbVertex
100
AcDb2dVertex
 10
-8.332643508911132
 20
-108.142593383789
 30
0.0000000357991468
  0
VERTEX
  5
11D
330
FA
100
AcDbEntity
  8
OracDecor_cornice_mouldings
 62
   141
420
 10147813
100
AcDbVertex
100
AcDb2dVertex
 10
-8.517000198364257
 20
-115.3954925537109
 30
0.0000000357991468
  0
VERTEX
  5
11E
330
FA
100
AcDbEntity
  8
OracDecor_cornice_mouldings
 62
   141
420
 10147813
100
AcDbVertex
100
AcDb2dVertex
 10
-9.142606735229492
 20
-123.5645751953125
 30
0.0000000357991468
  0
VERTEX
  5
11F
330
FA
100
AcDbEntity
  8
OracDecor_cornice_mouldings
 62
   141
420
 10147813
100
AcDbVertex
100
AcDb2dVertex
 10
-9.042173385620117
 20
-125.2114944458007
 30
0.0000000357991468
  0
VERTEX
  5
120
330
FA
100
AcDbEntity
  8
OracDecor_cornice_mouldings
 62
   141
420
 10147813
100
AcDbVertex
100
AcDb2dVertex
 10
-8.424390792846679
 20
-126.7384643554687
 30
0.0000000357991468
  0
VERTEX
  5
121
330
FA
100
AcDbEntity
  8
OracDecor_cornice_mouldings
 62
   141
420
 10147813
100
AcDbVertex
100
AcDb2dVertex
 10
-7.354833602905273
 20
-127.9832229614258
 30
0.0000000357991468
  0
VERTEX
  5
122
330
FA
100
AcDbEntity
  8
OracDecor_cornice_mouldings
 62
   141
420
 10147813
100
AcDbVertex
100
AcDb2dVertex
 10
-5.947187900543212
 20
-128.8135375976562
 30
0.0000000357991468
  0
VERTEX
  5
123
330
FA
100
AcDbEntity
  8
OracDecor_cornice_mouldings
 62
   141
420
 10147813
100
AcDbVertex
100
AcDb2dVertex
 10
-0.0750067234039307
 20
-131.0900573730469
 30
0.0000000357991468
  0
VERTEX
  5
124
330
FA
100
AcDbEntity
  8
OracDecor_cornice_mouldings
 62
   141
420
 10147813
100
AcDbVertex
100
AcDb2dVertex
 10
-0.0029356479644775
 20
-141.5636901855469
 30
0.0000000357991468
  0
VERTEX
  5
125
330
FA
100
AcDbEntity
  8
OracDecor_cornice_mouldings
 62
   141
420
 10147813
100
AcDbVertex
100
AcDb2dVertex
 10
-2.04320740699768
 20
-143.4689636230469
 30
0.0000000357991468
  0
VERTEX
  5
126
330
FA
100
AcDbEntity
  8
OracDecor_cornice_mouldings
 62
   141
420
 10147813
100
AcDbVertex
100
AcDb2dVertex
 10
-2.456793308258056
 20
-144.0439453125
 30
0.0000000357991468
  0
VERTEX
  5
127
330
FA
100
AcDbEntity
  8
OracDecor_cornice_mouldings
 62
   141
420
 10147813
100
AcDbVertex
100
AcDb2dVertex
 10
-2.621664524078369
 20
-144.7355041503906
 30
0.0000000357991468
  0
VERTEX
  5
128
330
FA
100
AcDbEntity
  8
OracDecor_cornice_mouldings
 62
   141
420
 10147813
100
AcDbVertex
100
AcDb2dVertex
 10
-2.512728214263916
 20
-145.4383544921875
 30
0.0000000357991468
  0
VERTEX
  5
129
330
FA
100
AcDbEntity
  8
OracDecor_cornice_mouldings
 62
   141
420
 10147813
100
AcDbVertex
100
AcDb2dVertex
 10
-2.146566867828369
 20
-146.0454711914062
 30
0.0000000357991468
  0
VERTEX
  5
12A
330
FA
100
AcDbEntity
  8
OracDecor_cornice_mouldings
 62
   141
420
 10147813
100
AcDbVertex
100
AcDb2dVertex
 10
-1.578935861587524
 20
-146.4644165039062
 30
0.0000000357991468
  0
VERTEX
  5
12B
330
FA
100
AcDbEntity
  8
OracDecor_cornice_mouldings
 62
   141
420
 10147813
100
AcDbVertex
100
AcDb2dVertex
 10
-0.8962385654449462
 20
-146.6314392089843
 30
0.0000000357991468
  0
VERTEX
  5
12C
330
FA
100
AcDbEntity
  8
OracDecor_cornice_mouldings
 62
   141
420
 10147813
100
AcDbVertex
100
AcDb2dVertex
 10
-0.0020468235015869
 20
-146.6682434082031
 30
0.0000000357991468
  0
VERTEX
  5
12D
330
FA
100
AcDbEntity
  8
OracDecor_cornice_mouldings
 62
   141
420
 10147813
100
AcDbVertex
100
AcDb2dVertex
 10
-0.0004255771636963
 20
-155.9954223632812
 30
0.0000000357991468
  0
VERTEX
  5
12E
330
FA
100
AcDbEntity
  8
OracDecor_cornice_mouldings
 62
   141
420
 10147813
100
AcDbVertex
100
AcDb2dVertex
 10
-8.116334915161132
 20
-155.6612854003906
 30
0.0000000357991468
  0
VERTEX
  5
12F
330
FA
100
AcDbEntity
  8
OracDecor_cornice_mouldings
 62
   141
420
 10147813
100
AcDbVertex
100
AcDb2dVertex
 10
-8.002042770385742
 20
-153.609619140625
 30
0.0000000357991468
  0
VERTEX
  5
130
330
FA
100
AcDbEntity
  8
OracDecor_cornice_mouldings
 62
   141
420
 10147813
100
AcDbVertex
100
AcDb2dVertex
 10
-8.469572067260742
 20
-151.6352233886719
 30
0.0000000357991468
  0
VERTEX
  5
131
330
FA
100
AcDbEntity
  8
OracDecor_cornice_mouldings
 62
   141
420
 10147813
100
AcDbVertex
100
AcDb2dVertex
 10
-8.927236557006835
 20
-150.6714172363281
 30
0.0000000357991468
  0
VERTEX
  5
132
330
FA
100
AcDbEntity
  8
OracDecor_cornice_mouldings
 62
   141
420
 10147813
100
AcDbVertex
100
AcDb2dVertex
 10
-9.563604354858398
 20
-149.6605224609375
 30
0.0000000357991468
  0
VERTEX
  5
133
330
FA
100
AcDbEntity
  8
OracDecor_cornice_mouldings
 62
   141
420
 10147813
100
AcDbVertex
100
AcDb2dVertex
 10
-10.40785026550293
 20
-148.5350646972656
 30
0.0000000357991468
  0
VERTEX
  5
134
330
FA
100
AcDbEntity
  8
OracDecor_cornice_mouldings
 62
   141
420
 10147813
100
AcDbVertex
100
AcDb2dVertex
 10
-11.40978050231933
 20
-147.2793579101562
 30
0.0000000357991468
  0
VERTEX
  5
135
330
FA
100
AcDbEntity
  8
OracDecor_cornice_mouldings
 62
   141
420
 10147813
100
AcDbVertex
100
AcDb2dVertex
 10
-12.43887519836426
 20
-145.9107055664062
 30
0.0000000357991468
  0
VERTEX
  5
136
330
FA
100
AcDbEntity
  8
OracDecor_cornice_mouldings
 62
   141
420
 10147813
100
AcDbVertex
100
AcDb2dVertex
 10
-13.36345481872558
 20
-144.5263977050781
 30
0.0000000357991468
  0
VERTEX
  5
137
330
FA
100
AcDbEntity
  8
OracDecor_cornice_mouldings
 62
   141
420
 10147813
100
AcDbVertex
100
AcDb2dVertex
 10
-14.11455345153808
 20
-143.2074279785156
 30
0.0000000357991468
  0
VERTEX
  5
138
330
FA
100
AcDbEntity
  8
OracDecor_cornice_mouldings
 62
   141
420
 10147813
100
AcDbVertex
100
AcDb2dVertex
 10
-14.65261650085449
 20
-141.9920349121094
 30
0.0000000357991468
  0
VERTEX
  5
139
330
FA
100
AcDbEntity
  8
OracDecor_cornice_mouldings
 62
   141
420
 10147813
100
AcDbVertex
100
AcDb2dVertex
 10
-15.14330863952636
 20
-139.86572265625
 30
0.0000000357991468
  0
VERTEX
  5
13A
330
FA
100
AcDbEntity
  8
OracDecor_cornice_mouldings
 62
   141
420
 10147813
100
AcDbVertex
100
AcDb2dVertex
 10
-15.05319786071777
 20
-137.8221435546875
 30
0.0000000357991468
  0
VERTEX
  5
13B
330
FA
100
AcDbEntity
  8
OracDecor_cornice_mouldings
 62
   141
420
 10147813
100
AcDbVertex
100
AcDb2dVertex
 10
-18.30926322937012
 20
-137.9154357910156
 30
0.0000000357991468
  0
VERTEX
  5
13C
330
FA
100
AcDbEntity
  8
OracDecor_cornice_mouldings
 62
   141
420
 10147813
100
AcDbVertex
100
AcDb2dVertex
 10
-18.56536674499512
 20
-132.4875183105469
 30
0.0000000357991468
  0
VERTEX
  5
13D
330
FA
100
AcDbEntity
  8
OracDecor_cornice_mouldings
 62
   141
420
 10147813
100
AcDbVertex
100
AcDb2dVertex
 10
-19.70879554748535
 20
-132.4427490234375
 30
0.0000000357991468
  0
VERTEX
  5
13E
330
FA
100
AcDbEntity
  8
OracDecor_cornice_mouldings
 62
   141
420
 10147813
100
AcDbVertex
100
AcDb2dVertex
 10
-20.68232917785644
 20
-132.2778930664062
 30
0.0000000357991468
  0
VERTEX
  5
13F
330
FA
100
AcDbEntity
  8
OracDecor_cornice_mouldings
 62
   141
420
 10147813
100
AcDbVertex
100
AcDb2dVertex
 10
-21.54724311828613
 20
-132.0065002441406
 30
0.0000000357991468
  0
VERTEX
  5
140
330
FA
100
AcDbEntity
  8
OracDecor_cornice_mouldings
 62
   141
420
 10147813
100
AcDbVertex
100
AcDb2dVertex
 10
-22.27888679504395
 20
-131.6534423828125
 30
0.0000000357991468
  0
VERTEX
  5
141
330
FA
100
AcDbEntity
  8
OracDecor_cornice_mouldings
 62
   141
420
 10147813
100
AcDbVertex
100
AcDb2dVertex
 10
-22.91864204406738
 20
-131.2205810546875
 30
0.0000000357991468
  0
VERTEX
  5
142
330
FA
100
AcDbEntity
  8
OracDecor_cornice_mouldings
 62
   141
420
 10147813
100
AcDbVertex
100
AcDb2dVertex
 10
-23.46972846984863
 20
-130.7180786132812
 30
0.0000000357991468
  0
VERTEX
  5
143
330
FA
100
AcDbEntity
  8
OracDecor_cornice_mouldings
 62
   141
420
 10147813
100
AcDbVertex
100
AcDb2dVertex
 10
-23.96151161193848
 20
-130.1238403320312
 30
0.0000000357991468
  0
VERTEX
  5
144
330
FA
100
AcDbEntity
  8
OracDecor_cornice_mouldings
 62
   141
420
 10147813
100
AcDbVertex
100
AcDb2dVertex
 10
-24.39074897766114
 20
-129.4348754882812
 30
0.0000000357991468
  0
VERTEX
  5
145
330
FA
100
AcDbEntity
  8
OracDecor_cornice_mouldings
 62
   141
420
 10147813
100
AcDbVertex
100
AcDb2dVertex
 10
-24.75907707214356
 20
-128.6300354003906
 30
0.0000000357991468
  0
VERTEX
  5
146
330
FA
100
AcDbEntity
  8
OracDecor_cornice_mouldings
 62
   141
420
 10147813
100
AcDbVertex
100
AcDb2dVertex
 10
-25.04486274719238
 20
-127.7400436401367
 30
0.0000000357991468
  0
VERTEX
  5
147
330
FA
100
AcDbEntity
  8
OracDecor_cornice_mouldings
 62
   141
420
 10147813
100
AcDbVertex
100
AcDb2dVertex
 10
-25.22725868225098
 20
-126.7997512817383
 30
0.0000000357991468
  0
VERTEX
  5
148
330
FA
100
AcDbEntity
  8
OracDecor_cornice_mouldings
 62
   141
420
 10147813
100
AcDbVertex
100
AcDb2dVertex
 10
-25.29181098937988
 20
-125.8902130126953
 30
0.0000000357991468
  0
VERTEX
  5
149
330
FA
100
AcDbEntity
  8
OracDecor_cornice_mouldings
 62
   141
420
 10147813
100
AcDbVertex
100
AcDb2dVertex
 10
-25.09951972961426
 20
-124.1834869384765
 30
0.0000000357991468
  0
VERTEX
  5
14A
330
FA
100
AcDbEntity
  8
OracDecor_cornice_mouldings
 62
   141
420
 10147813
100
AcDbVertex
100
AcDb2dVertex
 10
-24.5084285736084
 20
-122.6414489746094
 30
0.0000000357991468
  0
VERTEX
  5
14B
330
FA
100
AcDbEntity
  8
OracDecor_cornice_mouldings
 62
   141
420
 10147813
100
AcDbVertex
100
AcDb2dVertex
 10
-23.47494697570801
 20
-121.1791305541992
 30
0.0000000357991468
  0
VERTEX
  5
14C
330
FA
100
AcDbEntity
  8
OracDecor_cornice_mouldings
 62
   141
420
 10147813
100
AcDbVertex
100
AcDb2dVertex
 10
-21.85695457458496
 20
-119.7470092773437
 30
0.0000000357991468
  0
VERTEX
  5
14D
330
FA
100
AcDbEntity
  8
OracDecor_cornice_mouldings
 62
   141
420
 10147813
100
AcDbVertex
100
AcDb2dVertex
 10
-21.93490028381348
 20
-118.0950317382812
 30
0.0000000357991468
  0
VERTEX
  5
14E
330
FA
100
AcDbEntity
  8
OracDecor_cornice_mouldings
 62
   141
420
 10147813
100
AcDbVertex
100
AcDb2dVertex
 10
-20.82528114318848
 20
-117.004638671875
 30
0.0000000357991468
  0
VERTEX
  5
14F
330
FA
100
AcDbEntity
  8
OracDecor_cornice_mouldings
 62
   141
420
 10147813
100
AcDbVertex
100
AcDb2dVertex
 10
-19.6313419342041
 20
-115.0247650146484
 30
0.0000000357991468
  0
VERTEX
  5
150
330
FA
100
AcDbEntity
  8
OracDecor_cornice_mouldings
 62
   141
420
 10147813
100
AcDbVertex
100
AcDb2dVertex
 10
-18.61178779602051
 20
-111.1565704345703
 30
0.0000000357991468
  0
VERTEX
  5
151
330
FA
100
AcDbEntity
  8
OracDecor_cornice_mouldings
 62
   141
420
 10147813
100
AcDbVertex
100
AcDb2dVertex
 10
-18.34407234191894
 20
-103.5990829467773
 30
0.0000000357991468
  0
VERTEX
  5
152
330
FA
100
AcDbEntity
  8
OracDecor_cornice_mouldings
 62
   141
420
 10147813
100
AcDbVertex
100
AcDb2dVertex
 10
-18.8725528717041
 20
-96.39241027832031
 30
0.0000000357991468
  0
VERTEX
  5
153
330
FA
100
AcDbEntity
  8
OracDecor_cornice_mouldings
 62
   141
420
 10147813
100
AcDbVertex
100
AcDb2dVertex
 10
-19.85816383361816
 20
-89.75537872314452
 30
0.0000000357991468
  0
VERTEX
  5
154
330
FA
100
AcDbEntity
  8
OracDecor_cornice_mouldings
 62
   141
420
 10147813
100
AcDbVertex
100
AcDb2dVertex
 10
-21.22457313537598
 20
-83.7784194946289
 30
0.0000000357991468
  0
VERTEX
  5
155
330
FA
100
AcDbEntity
  8
OracDecor_cornice_mouldings
 62
   141
420
 10147813
100
AcDbVertex
100
AcDb2dVertex
 10
-23.03623390197754
 20
-78.07839965820313
 30
0.0000000357991468
  0
VERTEX
  5
156
330
FA
100
AcDbEntity
  8
OracDecor_cornice_mouldings
 62
   141
420
 10147813
100
AcDbVertex
100
AcDb2dVertex
 10
-25.35793113708496
 20
-72.53538513183594
 30
0.0000000357991468
  0
VERTEX
  5
157
330
FA
100
AcDbEntity
  8
OracDecor_cornice_mouldings
 62
   141
420
 10147813
100
AcDbVertex
100
AcDb2dVertex
 10
-28.04741859436035
 20
-67.50733184814453
 30
0.0000000357991468
  0
VERTEX
  5
158
330
FA
100
AcDbEntity
  8
OracDecor_cornice_mouldings
 62
   141
420
 10147813
100
AcDbVertex
100
AcDb2dVertex
 10
-31.09590911865235
 20
-62.925048828125
 30
0.0000000357991468
  0
VERTEX
  5
159
330
FA
100
AcDbEntity
  8
OracDecor_cornice_mouldings
 62
   141
420
 10147813
100
AcDbVertex
100
AcDb2dVertex
 10
-34.51184844970703
 20
-58.72421646118164
 30
0.0000000357991468
  0
VERTEX
  5
15A
330
FA
100
AcDbEntity
  8
OracDecor_cornice_mouldings
 62
   141
420
 10147813
100
AcDbVertex
100
AcDb2dVertex
 10
-38.31295013427734
 20
-54.86629867553711
 30
0.0000000357991468
  0
VERTEX
  5
15B
330
FA
100
AcDbEntity
  8
OracDecor_cornice_mouldings
 62
   141
420
 10147813
100
AcDbVertex
100
AcDb2dVertex
 10
-42.56489562988281
 20
-51.29265975952148
 30
0.0000000357991468
  0
VERTEX
  5
15C
330
FA
100
AcDbEntity
  8
OracDecor_cornice_mouldings
 62
   141
420
 10147813
100
AcDbVertex
100
AcDb2dVertex
 10
-47.30294036865234
 20
-48.00661087036132
 30
0.0000000357991468
  0
VERTEX
  5
15D
330
FA
100
AcDbEntity
  8
OracDecor_cornice_mouldings
 62
   141
420
 10147813
100
AcDbVertex
100
AcDb2dVertex
 10
-52.63358306884765
 20
-44.97623825073242
 30
0.0000000357991468
  0
VERTEX
  5
15E
330
FA
100
AcDbEntity
  8
OracDecor_cornice_mouldings
 62
   141
420
 10147813
100
AcDbVertex
100
AcDb2dVertex
 10
-58.17835235595703
 20
-42.40777969360351
 30
0.0000000357991468
  0
VERTEX
  5
15F
330
FA
100
AcDbEntity
  8
OracDecor_cornice_mouldings
 62
   141
420
 10147813
100
AcDbVertex
100
AcDb2dVertex
 10
-64.06013488769531
 20
-40.21085739135742
 30
0.0000000357991468
  0
VERTEX
  5
160
330
FA
100
AcDbEntity
  8
OracDecor_cornice_mouldings
 62
   141
420
 10147813
100
AcDbVertex
100
AcDb2dVertex
 10
-70.76920318603516
 20
-38.23567581176758
 30
0.0000000357991468
  0
VERTEX
  5
161
330
FA
100
AcDbEntity
  8
OracDecor_cornice_mouldings
 62
   141
420
 10147813
100
AcDbVertex
100
AcDb2dVertex
 10
-77.81456756591797
 20
-36.65421676635742
 30
0.0000000357991468
  0
VERTEX
  5
162
330
FA
100
AcDbEntity
  8
OracDecor_cornice_mouldings
 62
   141
420
 10147813
100
AcDbVertex
100
AcDb2dVertex
 10
-81.49622344970703
 20
-35.98926162719727
 30
0.0000000357991468
  0
VERTEX
  5
163
330
FA
100
AcDbEntity
  8
OracDecor_cornice_mouldings
 62
   141
420
 10147813
100
AcDbVertex
100
AcDb2dVertex
 10
-81.28887176513671
 20
-32.19639205932617
 30
0.0000000357991468
  0
VERTEX
  5
164
330
FA
100
AcDbEntity
  8
OracDecor_cornice_mouldings
 62
   141
420
 10147813
100
AcDbVertex
100
AcDb2dVertex
 10
-82.68067932128905
 20
-32.13888168334961
 30
0.0000000357991468
  0
VERTEX
  5
165
330
FA
100
AcDbEntity
  8
OracDecor_cornice_mouldings
 62
   141
420
 10147813
100
AcDbVertex
100
AcDb2dVertex
 10
-83.75817871093749
 20
-31.954740524292
 30
0.0000000357991468
  0
VERTEX
  5
166
330
FA
100
AcDbEntity
  8
OracDecor_cornice_mouldings
 62
   141
420
 10147813
100
AcDbVertex
100
AcDb2dVertex
 10
-85.53108978271485
 20
-31.23854827880859
 30
0.0000000357991468
  0
VERTEX
  5
167
330
FA
100
AcDbEntity
  8
OracDecor_cornice_mouldings
 62
   141
420
 10147813
100
AcDbVertex
100
AcDb2dVertex
 10
-86.82858276367188
 20
-30.12538146972656
 30
0.0000000357991468
  0
VERTEX
  5
168
330
FA
100
AcDbEntity
  8
OracDecor_cornice_mouldings
 62
   141
420
 10147813
100
AcDbVertex
100
AcDb2dVertex
 10
-87.35700988769531
 20
-29.3998031616211
 30
0.0000000357991468
  0
VERTEX
  5
169
330
FA
100
AcDbEntity
  8
OracDecor_cornice_mouldings
 62
   141
420
 10147813
100
AcDbVertex
100
AcDb2dVertex
 10
-87.84159088134765
 20
-28.48752593994141
 30
0.0000000357991468
  0
VERTEX
  5
16A
330
FA
100
AcDbEntity
  8
OracDecor_cornice_mouldings
 62
   141
420
 10147813
100
AcDbVertex
100
AcDb2dVertex
 10
-88.26839447021484
 20
-27.38206481933594
 30
0.0000000357991468
  0
VERTEX
  5
16B
330
FA
100
AcDbEntity
  8
OracDecor_cornice_mouldings
 62
   141
420
 10147813
100
AcDbVertex
100
AcDb2dVertex
 10
-88.98352813720704
 20
-24.57696533203125
 30
0.0000000357991468
  0
VERTEX
  5
16C
330
FA
100
AcDbEntity
  8
OracDecor_cornice_mouldings
 62
   141
420
 10147813
100
AcDbVertex
100
AcDb2dVertex
 10
-89.67772674560547
 20
-21.64564514160156
 30
0.0000000357991468
  0
VERTEX
  5
16D
330
FA
100
AcDbEntity
  8
OracDecor_cornice_mouldings
 62
   141
420
 10147813
100
AcDbVertex
100
AcDb2dVertex
 10
-90.1039047241211
 20
-20.36296081542969
 30
0.0000000357991468
  0
VERTEX
  5
16E
330
FA
100
AcDbEntity
  8
OracDecor_cornice_mouldings
 62
   141
420
 10147813
100
AcDbVertex
100
AcDb2dVertex
 10
-90.61856842041015
 20
-19.23687744140625
 30
0.0000000357991468
  0
VERTEX
  5
16F
330
FA
100
AcDbEntity
  8
OracDecor_cornice_mouldings
 62
   141
420
 10147813
100
AcDbVertex
100
AcDb2dVertex
 10
-91.18580627441406
 20
-18.32691955566406
 30
0.0000000357991468
  0
VERTEX
  5
170
330
FA
100
AcDbEntity
  8
OracDecor_cornice_mouldings
 62
   141
420
 10147813
100
AcDbVertex
100
AcDb2dVertex
 10
-91.80227661132812
 20
-17.58488464355469
 30
0.0000000357991468
  0
VERTEX
  5
171
330
FA
100
AcDbEntity
  8
OracDecor_cornice_mouldings
 62
   141
420
 10147813
100
AcDbVertex
100
AcDb2dVertex
 10
-92.49071502685547
 20
-16.95771789550781
 30
0.0000000357991468
  0
VERTEX
  5
172
330
FA
100
AcDbEntity
  8
OracDecor_cornice_mouldings
 62
   141
420
 10147813
100
AcDbVertex
100
AcDb2dVertex
 10
-94.04770660400391
 20
-16.01856994628906
 30
0.0000000357991468
  0
VERTEX
  5
173
330
FA
100
AcDbEntity
  8
OracDecor_cornice_mouldings
 62
   141
420
 10147813
100
AcDbVertex
100
AcDb2dVertex
 10
-96.18129730224609
 20
-15.35294723510742
 30
0.0000000357991468
  0
VERTEX
  5
174
330
FA
100
AcDbEntity
  8
OracDecor_cornice_mouldings
 62
   141
420
 10147813
100
AcDbVertex
100
AcDb2dVertex
 10
-97.47371673583984
 20
-15.15818405151367
 30
0.0000000357991468
  0
VERTEX
  5
175
330
FA
100
AcDbEntity
  8
OracDecor_cornice_mouldings
 62
   141
420
 10147813
100
AcDbVertex
100
AcDb2dVertex
 10
-99.18093109130859
 20
-15.0615348815918
 30
0.0000000357991468
  0
VERTEX
  5
176
330
FA
100
AcDbEntity
  8
OracDecor_cornice_mouldings
 62
   141
420
 10147813
100
AcDbVertex
100
AcDb2dVertex
 10
-99.59786224365235
 20
-9.864044189453125
 30
0.0000000357991468
  0
VERTEX
  5
177
330
FA
100
AcDbEntity
  8
OracDecor_cornice_mouldings
 62
   141
420
 10147813
100
AcDbVertex
100
AcDb2dVertex
 10
-103.4113998413086
 20
-10.00518798828125
 30
0.0000000357991468
  0
SEQEND
  5
178
330
FA
100
AcDbEntity
  8
OracDecor_cornice_mouldings
 62
   141
420
 10147813
  0
ENDSEC
  0
SECTION
  2
OBJECTS
  0
DICTIONARY
  5
C
330
0
100
AcDbDictionary
281
     1
  3
ACAD_COLOR
350
DC
  3
ACAD_DETAILVIEWSTYLE
350
F5
  3
ACAD_GROUP
350
D
  3
ACAD_LAYOUT
350
1A
  3
ACAD_MATERIAL
350
AA
  3
ACAD_MLEADERSTYLE
350
F1
  3
ACAD_MLINESTYLE
350
17
  3
ACAD_PLOTSETTINGS
350
19
  3
ACAD_PLOTSTYLENAME
350
E
  3
ACAD_SCALELIST
350
DF
  3
ACAD_SECTIONVIEWSTYLE
350
F3
  3
ACAD_TABLESTYLE
350
DD
  3
ACAD_VISUALSTYLE
350
C3
  3
ACDB_RECOMPOSE_DATA
350
185
  3
AcDbVariableDictionary
350
179
  0
DICTIONARY
  5
DC
102
{ACAD_REACTORS
330
C
102
}
330
C
100
AcDbDictionary
281
     1
  0
DICTIONARY
  5
F5
102
{ACAD_REACTORS
330
C
102
}
330
C
100
AcDbDictionary
281
     1
  3
Imperial24
350
F6
  0
DICTIONARY
  5
D
102
{ACAD_REACTORS
330
C
102
}
330
C
100
AcDbDictionary
281
     1
  0
DICTIONARY
  5
1A
102
{ACAD_REACTORS
330
C
102
}
330
C
100
AcDbDictionary
281
     1
  3
Layout1
350
1E
  3
Layout2
350
26
  3
Model
350
22
  0
DICTIONARY
  5
AA
102
{ACAD_REACTORS
330
C
102
}
330
C
100
AcDbDictionary
281
     1
  3
ByBlock
350
B3
  3
ByLayer
350
AB
  3
Global
350
BB
  0
DICTIONARY
  5
F1
102
{ACAD_REACTORS
330
C
102
}
330
C
100
AcDbDictionary
281
     1
  3
Standard
350
F2
  0
DICTIONARY
  5
17
102
{ACAD_REACTORS
330
C
102
}
330
C
100
AcDbDictionary
281
     1
  3
Standard
350
18
  0
DICTIONARY
  5
19
102
{ACAD_REACTORS
330
C
102
}
330
C
100
AcDbDictionary
281
     1
  0
ACDBDICTIONARYWDFLT
  5
E
102
{ACAD_REACTORS
330
C
102
}
330
C
100
AcDbDictionary
281
     1
  3
ByLayer
350
2D
  3
Normal
350
F
100
AcDbDictionaryWithDefault
340
F
  0
DICTIONARY
  5
DF
102
{ACAD_REACTORS
330
C
102
}
330
C
100
AcDbDictionary
281
     1
  3
A0
350
E0
  3
A1
350
E1
  3
A2
350
E2
  3
A3
350
E3
  3
A4
350
E4
  3
A5
350
E5
  3
A6
350
E6
  3
A7
350
E7
  3
A8
350
E8
  3
A9
350
E9
  3
B0
350
EA
  3
B1
350
EB
  3
B2
350
EC
  3
B3
350
ED
  3
B4
350
EE
  3
B5
350
EF
  3
B6
350
F0
  0
DICTIONARY
  5
F3
102
{ACAD_REACTORS
330
C
102
}
330
C
100
AcDbDictionary
281
     1
  3
Imperial24
350
F4
  0
DICTIONARY
  5
DD
102
{ACAD_REACTORS
330
C
102
}
330
C
100
AcDbDictionary
281
     1
  3
Standard
350
DE
  0
DICTIONARY
  5
C3
102
{ACAD_REACTORS
330
C
102
}
330
C
100
AcDbDictionary
281
     1
  3
2dWireframe
350
C9
  3
Basic
350
C8
  3
Brighten
350
CF
  3
ColorChange
350
D3
  3
Conceptual
350
CC
  3
Dim
350
CE
  3
EdgeColorOff
350
DB
  3
Facepattern
350
D2
  3
Flat
350
C4
  3
FlatWithEdges
350
C5
  3
Gouraud
350
C6
  3
GouraudWithEdges
350
C7
  3
Hidden
350
CB
  3
JitterOff
350
D9
  3
Linepattern
350
D1
  3
OverhangOff
350
DA
  3
Realistic
350
CD
  3
Shaded
350
D8
  3
Shaded with edges
350
D7
  3
Shades of Gray
350
D4
  3
Sketchy
350
D5
  3
Thicken
350
D0
  3
Wireframe
350
CA
  3
X-Ray
350
D6
  0
XRECORD
  5
185
102
{ACAD_REACTORS
330
C
102
}
330
C
100
AcDbXrecord
280
     1
 90
        1
330
DE
  0
DICTIONARY
  5
179
102
{ACAD_REACTORS
330
C
102
}
330
C
100
AcDbDictionary
281
     1
  3
CANNOSCALE
350
17F
  3
CMLEADERSTYLE
350
17B
  3
CTABLESTYLE
350
17A
  3
CVIEWDETAILSTYLE
350
17C
  3
CVIEWSECTIONSTYLE
350
17D
  3
LAYEREVAL
350
181
  3
LAYERNOTIFY
350
182
  3
LIGHTINGUNITS
350
180
  3
MSLTSCALE
350
17E
  0
ACDBDETAILVIEWSTYLE
  5
F6
102
{ACAD_XDICTIONARY
360
1BA
102
}
102
{ACAD_REACTORS
330
F5
102
}
330
F5
100
AcDbModelDocViewStyle
 70
     0
  3
Imperial24
290
     0
100
AcDbDetailViewStyle
 70
     0
 71
     0
 90
        3
 71
     1
340
11
 62
   256
 40
0.24
340
0
 62
   256
 40
0.24
300

 40
0.36
280
     3
 71
     2
340
16
 90
       25
 62
   256
 71
     3
340
11
 62
   256
 40
0.24
 90
        1
 40
0.75
 90
        1
300
%<\AcVar ViewType \f "%tc1">% %<\AcVar ViewDetailId>%\PSCALE %<\AcVar ViewScale \f "%sn">%
 71
     4
340
16
 90
       25
 62
   256
340
16
 90
       25
 62
   256
280
     0
  0
LAYOUT
  5
1E
102
{ACAD_REACTORS
330
1A
102
}
330
1A
100
AcDbPlotSettings
  1

  2
\\KTXNTBDC\CASF2PN1
  4

  6

 40
0.0
 41
0.0
 42
0.0
 43
0.0
 44
0.0
 45
0.0
 46
0.0
 47
0.0
 48
0.0
 49
0.0
140
0.0
141
0.0
142
1.0
143
1.0
 70
   688
 72
     0
 73
     0
 74
     5
  7

 75
    16
147
1.0
 76
     0
 77
     2
 78
   300
148
0.0
149
0.0
100
AcDbLayout
  1
Layout1
 70
     1
 71
     1
 10
0.0
 20
0.0
 11
12.0
 21
9.0
 12
0.0
 22
0.0
 32
0.0
 14
1.000000000000000E+20
 24
1.000000000000000E+20
 34
1.000000000000000E+20
 15
-1.000000000000000E+20
 25
-1.000000000000000E+20
 35
-1.000000000000000E+20
146
0.0
 13
0.0
 23
0.0
 33
0.0
 16
1.0
 26
0.0
 36
0.0
 17
0.0
 27
1.0
 37
0.0
 76
     0
330
1B
  0
LAYOUT
  5
26
102
{ACAD_REACTORS
330
1A
102
}
330
1A
100
AcDbPlotSettings
  1

  2
\\KTXNTBDC\CASF2PN1
  4

  6

 40
0.0
 41
0.0
 42
0.0
 43
0.0
 44
0.0
 45
0.0
 46
0.0
 47
0.0
 48
0.0
 49
0.0
140
0.0
141
0.0
142
1.0
143
1.0
 70
   688
 72
     0
 73
     0
 74
     5
  7

 75
    16
147
1.0
 76
     0
 77
     2
 78
   300
148
0.0
149
0.0
100
AcDbLayout
  1
Layout2
 70
     1
 71
     2
 10
0.0
 20
0.0
 11
12.0
 21
9.0
 12
0.0
 22
0.0
 32
0.0
 14
0.0
 24
0.0
 34
0.0
 15
0.0
 25
0.0
 35
0.0
146
0.0
 13
0.0
 23
0.0
 33
0.0
 16
1.0
 26
0.0
 36
0.0
 17
0.0
 27
1.0
 37
0.0
 76
     0
330
23
  0
LAYOUT
  5
22
102
{ACAD_REACTORS
330
1A
102
}
330
1A
100
AcDbPlotSettings
  1

  2
\\KTXNTBDC\CASF2PN1
  4

  6

 40
0.0
 41
0.0
 42
0.0
 43
0.0
 44
0.0
 45
0.0
 46
0.0
 47
0.0
 48
0.0
 49
0.0
140
0.0
141
0.0
142
1.0
143
1.0
 70
  1712
 72
     0
 73
     0
 74
     0
  7

 75
     0
147
1.0
 76
     0
 77
     2
 78
   300
148
0.0
149
0.0
100
AcDbLayout
  1
Model
 70
     1
 71
     0
 10
0.0
 20
0.0
 11
12.0
 21
9.0
 12
0.0
 22
0.0
 32
0.0
 14
0.0
 24
0.0
 34
0.0
 15
0.0
 25
0.0
 35
0.0
146
0.0
 13
0.0
 23
0.0
 33
0.0
 16
1.0
 26
0.0
 36
0.0
 17
0.0
 27
1.0
 37
0.0
 76
     0
330
1F
  0
MATERIAL
  5
B3
102
{ACAD_XDICTIONARY
360
B4
102
}
102
{ACAD_REACTORS
330
AA
102
}
330
AA
100
AcDbMaterial
  1
ByBlock
 72
     0
 43
0.0208333333333333
 43
0.0
 43
0.0
 43
0.0
 43
0.0
 43
0.0208333333333333
 43
0.0
 43
0.0
 43
0.0
 43
0.0
 43
1.0
 43
0.0
 43
0.0
 43
0.0
 43
0.0
 43
1.0
 77
     0
 47
0.0208333333333333
 47
0.0
 47
0.0
 47
0.0
 47
0.0
 47
0.0208333333333333
 47
0.0
 47
0.0
 47
0.0
 47
0.0
 47
1.0
 47
0.0
 47
0.0
 47
0.0
 47
0.0
 47
1.0
171
     0
 49
0.0208333333333333
 49
0.0
 49
0.0
 49
0.0
 49
0.0
 49
0.0208333333333333
 49
0.0
 49
0.0
 49
0.0
 49
0.0
 49
1.0
 49
0.0
 49
0.0
 49
0.0
 49
0.0
 49
1.0
175
     0
142
0.0208333333333333
142
0.0
142
0.0
142
0.0
142
0.0
142
0.0208333333333333
142
0.0
142
0.0
142
0.0
142
0.0
142
1.0
142
0.0
142
0.0
142
0.0
142
0.0
142
1.0
179
     0
144
0.0208333333333333
144
0.0
144
0.0
144
0.0
144
0.0
144
0.0208333333333333
144
0.0
144
0.0
144
0.0
144
0.0
144
1.0
144
0.0
144
0.0
144
0.0
144
0.0
144
1.0
147
0.0208333333333333
147
0.0
147
0.0
147
0.0
147
0.0
147
0.0208333333333333
147
0.0
147
0.0
147
0.0
147
0.0
147
1.0
147
0.0
147
0.0
147
0.0
147
0.0
147
1.0
  0
MATERIAL
  5
AB
102
{ACAD_XDICTIONARY
360
AC
102
}
102
{ACAD_REACTORS
330
AA
102
}
330
AA
100
AcDbMaterial
  1
ByLayer
 72
     0
 43
0.0208333333333333
 43
0.0
 43
0.0
 43
0.0
 43
0.0
 43
0.0208333333333333
 43
0.0
 43
0.0
 43
0.0
 43
0.0
 43
1.0
 43
0.0
 43
0.0
 43
0.0
 43
0.0
 43
1.0
 77
     0
 47
0.0208333333333333
 47
0.0
 47
0.0
 47
0.0
 47
0.0
 47
0.0208333333333333
 47
0.0
 47
0.0
 47
0.0
 47
0.0
 47
1.0
 47
0.0
 47
0.0
 47
0.0
 47
0.0
 47
1.0
171
     0
 49
0.0208333333333333
 49
0.0
 49
0.0
 49
0.0
 49
0.0
 49
0.0208333333333333
 49
0.0
 49
0.0
 49
0.0
 49
0.0
 49
1.0
 49
0.0
 49
0.0
 49
0.0
 49
0.0
 49
1.0
175
     0
142
0.0208333333333333
142
0.0
142
0.0
142
0.0
142
0.0
142
0.0208333333333333
142
0.0
142
0.0
142
0.0
142
0.0
142
1.0
142
0.0
142
0.0
142
0.0
142
0.0
142
1.0
179
     0
144
0.0208333333333333
144
0.0
144
0.0
144
0.0
144
0.0
144
0.0208333333333333
144
0.0
144
0.0
144
0.0
144
0.0
144
1.0
144
0.0
144
0.0
144
0.0
144
0.0
144
1.0
147
0.0208333333333333
147
0.0
147
0.0
147
0.0
147
0.0
147
0.0208333333333333
147
0.0
147
0.0
147
0.0
147
0.0
147
1.0
147
0.0
147
0.0
147
0.0
147
0.0
147
1.0
  0
MATERIAL
  5
BB
102
{ACAD_XDICTIONARY
360
BC
102
}
102
{ACAD_REACTORS
330
AA
102
}
330
AA
100
AcDbMaterial
  1
Global
 72
     0
 43
0.0208333333333333
 43
0.0
 43
0.0
 43
0.0
 43
0.0
 43
0.0208333333333333
 43
0.0
 43
0.0
 43
0.0
 43
0.0
 43
1.0
 43
0.0
 43
0.0
 43
0.0
 43
0.0
 43
1.0
 77
     0
 47
0.0208333333333333
 47
0.0
 47
0.0
 47
0.0
 47
0.0
 47
0.0208333333333333
 47
0.0
 47
0.0
 47
0.0
 47
0.0
 47
1.0
 47
0.0
 47
0.0
 47
0.0
 47
0.0
 47
1.0
171
     0
 49
0.0208333333333333
 49
0.0
 49
0.0
 49
0.0
 49
0.0
 49
0.0208333333333333
 49
0.0
 49
0.0
 49
0.0
 49
0.0
 49
1.0
 49
0.0
 49
0.0
 49
0.0
 49
0.0
 49
1.0
175
     0
142
0.0208333333333333
142
0.0
142
0.0
142
0.0
142
0.0
142
0.0208333333333333
142
0.0
142
0.0
142
0.0
142
0.0
142
1.0
142
0.0
142
0.0
142
0.0
142
0.0
142
1.0
179
     0
144
0.0208333333333333
144
0.0
144
0.0
144
0.0
144
0.0
144
0.0208333333333333
144
0.0
144
0.0
144
0.0
144
0.0
144
1.0
144
0.0
144
0.0
144
0.0
144
0.0
144
1.0
147
0.0208333333333333
147
0.0
147
0.0
147
0.0
147
0.0
147
0.0208333333333333
147
0.0
147
0.0
147
0.0
147
0.0
147
1.0
147
0.0
147
0.0
147
0.0
147
0.0
147
1.0
  0
MLEADERSTYLE
  5
F2
102
{ACAD_XDICTIONARY
360
1B6
102
}
102
{ACAD_REACTORS
330
F1
102
}
330
F1
100
AcDbMLeaderStyle
179
     2
170
     2
171
     1
172
     0
 90
        2
 40
0.0
 41
0.0
173
     1
 91
-1056964608
340
14
 92
       -2
290
     1
 42
0.09
291
     1
 43
0.36
  3
Standard
 44
0.18
300

342
11
174
     1
178
     6
175
     1
176
     0
 93
-1056964608
 45
0.18
292
     0
297
     0
 46
0.18
 94
-1056964608
 47
1.0
 49
1.0
140
1.0
293
     1
141
0.0
294
     1
177
     0
142
1.0
295
     0
296
     0
143
0.125
271
     0
272
     9
273
     9
  0
MLINESTYLE
  5
18
102
{ACAD_REACTORS
330
17
102
}
330
17
100
AcDbMlineStyle
  2
STANDARD
 70
     0
  3

 62
   256
 51
90.0
 52
90.0
 71
     2
 49
0.5
 62
   256
  6
BYLAYER
 49
-0.5
 62
   256
  6
BYLAYER
  0
ACDBPLACEHOLDER
  5
2D
102
{ACAD_REACTORS
330
E
102
}
330
E
  0
ACDBPLACEHOLDER
  5
F
102
{ACAD_REACTORS
330
E
102
}
330
E
  0
SCALE
  5
E0
102
{ACAD_REACTORS
330
DF
102
}
330
DF
100
AcDbScale
 70
     0
300
1:1
140
1.0
141
1.0
290
     1
  0
SCALE
  5
E1
102
{ACAD_REACTORS
330
DF
102
}
330
DF
100
AcDbScale
 70
     0
300
1/128" = 1'-0"
140
0.0078125
141
12.0
290
     0
  0
SCALE
  5
E2
102
{ACAD_REACTORS
330
DF
102
}
330
DF
100
AcDbScale
 70
     0
300
1/64" = 1'-0"
140
0.015625
141
12.0
290
     0
  0
SCALE
  5
E3
102
{ACAD_REACTORS
330
DF
102
}
330
DF
100
AcDbScale
 70
     0
300
1/32" = 1'-0"
140
0.03125
141
12.0
290
     0
  0
SCALE
  5
E4
102
{ACAD_REACTORS
330
DF
102
}
330
DF
100
AcDbScale
 70
     0
300
1/16" = 1'-0"
140
0.0625
141
12.0
290
     0
  0
SCALE
  5
E5
102
{ACAD_REACTORS
330
DF
102
}
330
DF
100
AcDbScale
 70
     0
300
3/32" = 1'-0"
140
0.09375
141
12.0
290
     0
  0
SCALE
  5
E6
102
{ACAD_REACTORS
330
DF
102
}
330
DF
100
AcDbScale
 70
     0
300
1/8" = 1'-0"
140
0.125
141
12.0
290
     0
  0
SCALE
  5
E7
102
{ACAD_REACTORS
330
DF
102
}
330
DF
100
AcDbScale
 70
     0
300
3/16" = 1'-0"
140
0.1875
141
12.0
290
     0
  0
SCALE
  5
E8
102
{ACAD_REACTORS
330
DF
102
}
330
DF
100
AcDbScale
 70
     0
300
1/4" = 1'-0"
140
0.25
141
12.0
290
     0
  0
SCALE
  5
E9
102
{ACAD_REACTORS
330
DF
102
}
330
DF
100
AcDbScale
 70
     0
300
3/8" = 1'-0"
140
0.375
141
12.0
290
     0
  0
SCALE
  5
EA
102
{ACAD_REACTORS
330
DF
102
}
330
DF
100
AcDbScale
 70
     0
300
1/2" = 1'-0"
140
0.5
141
12.0
290
     0
  0
SCALE
  5
EB
102
{ACAD_REACTORS
330
DF
102
}
330
DF
100
AcDbScale
 70
     0
300
3/4" = 1'-0"
140
0.75
141
12.0
290
     0
  0
SCALE
  5
EC
102
{ACAD_REACTORS
330
DF
102
}
330
DF
100
AcDbScale
 70
     0
300
1" = 1'-0"
140
1.0
141
12.0
290
     0
  0
SCALE
  5
ED
102
{ACAD_REACTORS
330
DF
102
}
330
DF
100
AcDbScale
 70
     0
300
1-1/2" = 1'-0"
140
1.5
141
12.0
290
     0
  0
SCALE
  5
EE
102
{ACAD_REACTORS
330
DF
102
}
330
DF
100
AcDbScale
 70
     0
300
3" = 1'-0"
140
3.0
141
12.0
290
     0
  0
SCALE
  5
EF
102
{ACAD_REACTORS
330
DF
102
}
330
DF
100
AcDbScale
 70
     0
300
6" = 1'-0"
140
6.0
141
12.0
290
     0
  0
SCALE
  5
F0
102
{ACAD_REACTORS
330
DF
102
}
330
DF
100
AcDbScale
 70
     0
300
1'-0" = 1'-0"
140
12.0
141
12.0
290
     0
  0
ACDBSECTIONVIEWSTYLE
  5
F4
102
{ACAD_XDICTIONARY
360
1B8
102
}
102
{ACAD_REACTORS
330
F3
102
}
330
F3
100
AcDbModelDocViewStyle
 70
     0
  3
Imperial24
290
     0
100
AcDbSectionViewStyle
 70
     0
 71
     0
 90
       78
 71
     1
340
11
 62
   256
 40
0.24
340
0
340
0
 62
   256
 40
0.24
300
I, O, Q, S, X, Z
 40
0.48
 90
        3
 40
0.18
 90
        1
 71
     2
340
16
 90
       25
 62
   256
340
16
 90
       50
 62
   256
 40
0.24
 40
0.0
 40
0.24
 71
     3
340
11
 62
   256
 40
0.24
 90
        1
 40
0.75
 90
        1
300
%<\AcVar ViewType \f "%tc1">% %<\AcVar ViewSectionStartId>%-%<\AcVar ViewSectionEndId>%\PSCALE %<\AcVar ViewScale \f "%sn">%
 71
     4
 62
   256
 62
   257
300
ANSI31
 40
1.0
 90
        0
290
     0
290
     0
 90
        6
 40
0.0
 40
1.570796326794896
 40
0.2617993877991494
 40
1.308996938995747
 40
-0.2617993877991494
 40
1.832595714594046
  0
TABLESTYLE
  5
DE
102
{ACAD_XDICTIONARY
360
183
102
}
102
{ACAD_REACTORS
330
DD
102
}
330
DD
100
AcDbTableStyle
280
     0
  3
Standard
 70
     0
 71
     0
 40
0.06
 41
0.06
280
     0
281
     0
  7
Standard
140
0.18
170
     2
 62
     0
 63
     7
283
     0
 90
      512
 91
        0
  1

274
    -2
284
     1
 64
     0
275
    -2
285
     1
 65
     0
276
    -2
286
     1
 66
     0
277
    -2
287
     1
 67
     0
278
    -2
288
     1
 68
     0
279
    -2
289
     1
 69
     0
  7
Standard
140
0.25
170
     5
 62
     0
 63
     7
283
     0
 90
      512
 91
        0
  1

274
    -2
284
     1
 64
     0
275
    -2
285
     1
 65
     0
276
    -2
286
     1
 66
     0
277
    -2
287
     1
 67
     0
278
    -2
288
     1
 68
     0
279
    -2
289
     1
 69
     0
  7
Standard
140
0.18
170
     5
 62
     0
 63
     7
283
     0
 90
      512
 91
        0
  1

274
    -2
284
     1
 64
     0
275
    -2
285
     1
 65
     0
276
    -2
286
     1
 66
     0
277
    -2
287
     1
 67
     0
278
    -2
288
     1
 68
     0
279
    -2
289
     1
 69
     0
  0
VISUALSTYLE
  5
C9
102
{ACAD_XDICTIONARY
360
190
102
}
102
{ACAD_REACTORS
330
C3
102
}
330
C3
100
AcDbVisualStyle
  2
2dWireframe
 70
     4
177
     2
291
     0
 71
     0
176
     1
 72
     2
176
     1
 73
     0
176
     1
 90
        0
176
     1
 40
0.6
176
     1
 41
30.0
176
     1
 63
     7
421
 16777215
176
     1
 74
     1
176
     1
 91
        4
176
     1
 64
     7
176
     1
 65
   257
176
     1
 75
     1
176
     1
175
     1
176
     1
 42
1.0
176
     1
 92
        0
176
     1
 66
   257
176
     1
 43
1.0
176
     1
 76
     1
176
     1
 77
     6
176
     1
 78
     2
176
     1
 67
     7
176
     1
 79
     5
176
     1
170
     0
176
     1
171
     0
176
     1
290
     0
176
     1
 93
        1
176
     1
 44
0.0
176
     1
173
     0
176
     1
1001
ACAD
1000
AcDbSavedByObjectVersion
1070
     0
  0
VISUALSTYLE
  5
C8
102
{ACAD_XDICTIONARY
360
18E
102
}
102
{ACAD_REACTORS
330
C3
102
}
330
C3
100
AcDbVisualStyle
  2
Basic
 70
     7
177
     2
291
     1
 71
     1
176
     1
 72
     0
176
     1
 73
     1
176
     1
 90
        0
176
     1
 40
0.6
176
     1
 41
30.0
176
     1
 63
     7
421
 16777215
176
     1
 74
     0
176
     1
 91
        4
176
     1
 64
     7
176
     1
 65
   257
176
     1
 75
     1
176
     1
175
     1
176
     1
 42
1.0
176
     1
 92
        8
176
     1
 66
     7
176
     1
 43
1.0
176
     1
 76
     1
176
     1
 77
     6
176
     1
 78
     2
176
     1
 67
     7
176
     1
 79
     5
176
     1
170
     0
176
     1
171
     0
176
     1
290
     0
176
     1
 93
        1
176
     1
 44
0.0
176
     1
173
     0
176
     1
1001
ACAD
1000
AcDbSavedByObjectVersion
1070
     0
  0
VISUALSTYLE
  5
CF
102
{ACAD_XDICTIONARY
360
19C
102
}
102
{ACAD_REACTORS
330
C3
102
}
330
C3
100
AcDbVisualStyle
  2
Brighten
 70
    12
177
     2
291
     1
 71
     2
176
     1
 72
     2
176
     1
 73
     0
176
     1
 90
        0
176
     1
 40
0.6
176
     1
 41
30.0
176
     1
 63
     7
421
 16777215
176
     1
 74
     1
176
     1
 91
        4
176
     1
 64
     7
176
     1
 65
   257
176
     1
 75
     1
176
     1
175
     1
176
     1
 42
1.0
176
     1
 92
        8
176
     1
 66
     7
176
     1
 43
1.0
176
     1
 76
     1
176
     1
 77
     6
176
     1
 78
     2
176
     1
 67
     7
176
     1
 79
     5
176
     1
170
     0
176
     1
171
     0
176
     1
290
     0
176
     1
 93
        1
176
     1
 44
50.0
176
     1
173
     0
176
     1
1001
ACAD
1000
AcDbSavedByObjectVersion
1070
     0
  0
VISUALSTYLE
  5
D3
102
{ACAD_XDICTIONARY
360
1A4
102
}
102
{ACAD_REACTORS
330
C3
102
}
330
C3
100
AcDbVisualStyle
  2
ColorChange
 70
    16
177
     2
291
     1
 71
     2
176
     1
 72
     2
176
     1
 73
     3
176
     1
 90
        0
176
     1
 40
0.6
176
     1
 41
30.0
176
     1
 63
     8
421
  8421504
176
     1
 74
     1
176
     1
 91
        4
176
     1
 64
     7
176
     1
 65
   257
176
     1
 75
     1
176
     1
175
     1
176
     1
 42
1.0
176
     1
 92
        8
176
     1
 66
     8
424
  8421504
176
     1
 43
1.0
176
     1
 76
     1
176
     1
 77
     6
176
     1
 78
     2
176
     1
 67
     7
176
     1
 79
     5
176
     1
170
     0
176
     1
171
     0
176
     1
290
     0
176
     1
 93
        1
176
     1
 44
0.0
176
     1
173
     0
176
     1
1001
ACAD
1000
AcDbSavedByObjectVersion
1070
     0
  0
VISUALSTYLE
  5
CC
102
{ACAD_XDICTIONARY
360
196
102
}
102
{ACAD_REACTORS
330
C3
102
}
330
C3
100
AcDbVisualStyle
  2
Conceptual
 70
     9
177
     2
291
     0
 71
     3
176
     1
 72
     2
176
     1
 73
     0
176
     1
 90
        0
176
     1
 40
0.6
176
     1
 41
30.0
176
     1
 63
     7
421
 16777215
176
     1
 74
     2
176
     1
 91
        2
176
     1
 64
     7
176
     1
 65
   257
176
     1
 75
     1
176
     1
175
     1
176
     1
 42
179.0
176
     1
 92
        8
176
     1
 66
     7
176
     1
 43
1.0
176
     1
 76
     1
176
     1
 77
     6
176
     1
 78
     2
176
     1
 67
     7
176
     1
 79
     3
176
     1
170
     0
176
     1
171
     0
176
     1
290
     0
176
     1
 93
        1
176
     1
 44
0.0
176
     1
173
     0
176
     1
1001
ACAD
1000
AcDbSavedByObjectVersion
1070
     0
  0
VISUALSTYLE
  5
CE
102
{ACAD_XDICTIONARY
360
19A
102
}
102
{ACAD_REACTORS
330
C3
102
}
330
C3
100
AcDbVisualStyle
  2
Dim
 70
    11
177
     2
291
     1
 71
     2
176
     1
 72
     2
176
     1
 73
     0
176
     1
 90
        0
176
     1
 40
0.6
176
     1
 41
30.0
176
     1
 63
     7
421
 16777215
176
     1
 74
     1
176
     1
 91
        4
176
     1
 64
     7
176
     1
 65
   257
176
     1
 75
     1
176
     1
175
     1
176
     1
 42
1.0
176
     1
 92
        8
176
     1
 66
     7
176
     1
 43
1.0
176
     1
 76
     1
176
     1
 77
     6
176
     1
 78
     2
176
     1
 67
     7
176
     1
 79
     5
176
     1
170
     0
176
     1
171
     0
176
     1
290
     0
176
     1
 93
        1
176
     1
 44
-50.0
176
     1
173
     0
176
     1
1001
ACAD
1000
AcDbSavedByObjectVersion
1070
     0
  0
VISUALSTYLE
  5
DB
102
{ACAD_XDICTIONARY
360
1B4
102
}
102
{ACAD_REACTORS
330
C3
102
}
330
C3
100
AcDbVisualStyle
  2
EdgeColorOff
 70
    22
177
     2
291
     1
 71
     2
176
     0
 72
     2
176
     0
 73
     0
176
     0
 90
        0
176
     0
 40
0.6
176
     0
 41
30.0
176
     0
 63
     7
421
 16777215
176
     0
 74
     1
176
     0
 91
        4
176
     0
 64
     7
176
     0
 65
   257
176
     0
 75
     1
176
     0
175
     1
176
     0
 42
1.0
176
     0
 92
        8
176
     2
 66
     7
176
     0
 43
1.0
176
     0
 76
     1
176
     0
 77
     6
176
     0
 78
     2
176
     0
 67
     7
176
     0
 79
     5
176
     0
170
     0
176
     0
171
     0
176
     0
290
     0
176
     0
 93
        1
176
     0
 44
0.0
176
     0
173
     0
176
     0
1001
ACAD
1000
AcDbSavedByObjectVersion
1070
     0
  0
VISUALSTYLE
  5
D2
102
{ACAD_XDICTIONARY
360
1A2
102
}
102
{ACAD_REACTORS
330
C3
102
}
330
C3
100
AcDbVisualStyle
  2
Facepattern
 70
    15
177
     2
291
     1
 71
     2
176
     1
 72
     2
176
     1
 73
     0
176
     1
 90
        0
176
     1
 40
0.6
176
     1
 41
30.0
176
     1
 63
     7
421
 16777215
176
     1
 74
     1
176
     1
 91
        4
176
     1
 64
     7
176
     1
 65
   257
176
     1
 75
     1
176
     1
175
     1
176
     1
 42
1.0
176
     1
 92
        8
176
     1
 66
     7
176
     1
 43
1.0
176
     1
 76
     1
176
     1
 77
     6
176
     1
 78
     2
176
     1
 67
     7
176
     1
 79
     5
176
     1
170
     0
176
     1
171
     0
176
     1
290
     0
176
     1
 93
        1
176
     1
 44
0.0
176
     1
173
     0
176
     1
1001
ACAD
1000
AcDbSavedByObjectVersion
1070
     0
  0
VISUALSTYLE
  5
C4
102
{ACAD_XDICTIONARY
360
186
102
}
102
{ACAD_REACTORS
330
C3
102
}
330
C3
100
AcDbVisualStyle
  2
Flat
 70
     0
177
     2
291
     1
 71
     2
176
     1
 72
     1
176
     1
 73
     1
176
     1
 90
        2
176
     1
 40
0.6
176
     1
 41
30.0
176
     1
 63
     7
421
 16777215
176
     1
 74
     0
176
     1
 91
        0
176
     1
 64
     7
176
     1
 65
   257
176
     1
 75
     1
176
     1
175
     1
176
     1
 42
1.0
176
     1
 92
        8
176
     1
 66
     7
176
     1
 43
1.0
176
     1
 76
     1
176
     1
 77
     6
176
     1
 78
     2
176
     1
 67
     7
176
     1
 79
     5
176
     1
170
     0
176
     1
171
     0
176
     1
290
     0
176
     1
 93
       13
176
     1
 44
0.0
176
     1
173
     0
176
     1
1001
ACAD
1000
AcDbSavedByObjectVersion
1070
     0
  0
VISUALSTYLE
  5
C5
102
{ACAD_XDICTIONARY
360
188
102
}
102
{ACAD_REACTORS
330
C3
102
}
330
C3
100
AcDbVisualStyle
  2
FlatWithEdges
 70
     1
177
     2
291
     1
 71
     2
176
     1
 72
     1
176
     1
 73
     1
176
     1
 90
        2
176
     1
 40
0.6
176
     1
 41
30.0
176
     1
 63
     7
421
 16777215
176
     1
 74
     1
176
     1
 91
        0
176
     1
 64
     7
176
     1
 65
   257
176
     1
 75
     1
176
     1
175
     1
176
     1
 42
1.0
176
     1
 92
        0
176
     1
 66
   257
176
     1
 43
1.0
176
     1
 76
     1
176
     1
 77
     6
176
     1
 78
     2
176
     1
 67
     7
176
     1
 79
     5
176
     1
170
     0
176
     1
171
     0
176
     1
290
     0
176
     1
 93
       13
176
     1
 44
0.0
176
     1
173
     0
176
     1
1001
ACAD
1000
AcDbSavedByObjectVersion
1070
     0
  0
VISUALSTYLE
  5
C6
102
{ACAD_XDICTIONARY
360
18A
102
}
102
{ACAD_REACTORS
330
C3
102
}
330
C3
100
AcDbVisualStyle
  2
Gouraud
 70
     2
177
     2
291
     1
 71
     2
176
     1
 72
     2
176
     1
 73
     1
176
     1
 90
        2
176
     1
 40
0.6
176
     1
 41
30.0
176
     1
 63
     7
421
 16777215
176
     1
 74
     0
176
     1
 91
        0
176
     1
 64
     7
176
     1
 65
   257
176
     1
 75
     1
176
     1
175
     1
176
     1
 42
1.0
176
     1
 92
        0
176
     1
 66
     7
176
     1
 43
1.0
176
     1
 76
     1
176
     1
 77
     6
176
     1
 78
     2
176
     1
 67
     7
176
     1
 79
     5
176
     1
170
     0
176
     1
171
     0
176
     1
290
     0
176
     1
 93
       13
176
     1
 44
0.0
176
     1
173
     0
176
     1
1001
ACAD
1000
AcDbSavedByObjectVersion
1070
     0
  0
VISUALSTYLE
  5
C7
102
{ACAD_XDICTIONARY
360
18C
102
}
102
{ACAD_REACTORS
330
C3
102
}
330
C3
100
AcDbVisualStyle
  2
GouraudWithEdges
 70
     3
177
     2
291
     1
 71
     2
176
     1
 72
     2
176
     1
 73
     1
176
     1
 90
        2
176
     1
 40
0.6
176
     1
 41
30.0
176
     1
 63
     7
421
 16777215
176
     1
 74
     1
176
     1
 91
        0
176
     1
 64
     7
176
     1
 65
   257
176
     1
 75
     1
176
     1
175
     1
176
     1
 42
1.0
176
     1
 92
        0
176
     1
 66
   257
176
     1
 43
1.0
176
     1
 76
     1
176
     1
 77
     6
176
     1
 78
     2
176
     1
 67
     7
176
     1
 79
     5
176
     1
170
     0
176
     1
171
     0
176
     1
290
     0
176
     1
 93
       13
176
     1
 44
0.0
176
     1
173
     0
176
     1
1001
ACAD
1000
AcDbSavedByObjectVersion
1070
     0
  0
VISUALSTYLE
  5
CB
102
{ACAD_XDICTIONARY
360
194
102
}
102
{ACAD_REACTORS
330
C3
102
}
330
C3
100
AcDbVisualStyle
  2
Hidden
 70
     6
177
     2
291
     0
 71
     1
176
     1
 72
     2
176
     1
 73
     2
176
     1
 90
        0
176
     1
 40
0.6
176
     1
 41
30.0
176
     1
 63
     7
421
 16777215
176
     1
 74
     2
176
     1
 91
        2
176
     1
 64
     7
176
     1
 65
   257
176
     1
 75
     2
176
     1
175
     1
176
     1
 42
40.0
176
     1
 92
        0
176
     1
 66
   257
176
     1
 43
1.0
176
     1
 76
     1
176
     1
 77
     6
176
     1
 78
     2
176
     1
 67
     7
176
     1
 79
     3
176
     1
170
     0
176
     1
171
     0
176
     1
290
     0
176
     1
 93
        1
176
     1
 44
0.0
176
     1
173
     0
176
     1
1001
ACAD
1000
AcDbSavedByObjectVersion
1070
     0
  0
VISUALSTYLE
  5
D9
102
{ACAD_XDICTIONARY
360
1B0
102
}
102
{ACAD_REACTORS
330
C3
102
}
330
C3
100
AcDbVisualStyle
  2
JitterOff
 70
    20
177
     2
291
     1
 71
     2
176
     0
 72
     2
176
     0
 73
     0
176
     0
 90
        0
176
     0
 40
0.6
176
     0
 41
30.0
176
     0
 63
     7
421
 16777215
176
     0
 74
     1
176
     0
 91
        4
176
     0
 64
     7
176
     0
 65
   257
176
     0
 75
     1
176
     0
175
     1
176
     0
 42
1.0
176
     0
 92
       10
176
     2
 66
     7
176
     0
 43
1.0
176
     0
 76
     1
176
     0
 77
     6
176
     0
 78
     2
176
     0
 67
     7
176
     0
 79
     5
176
     0
170
     0
176
     0
171
     0
176
     0
290
     0
176
     0
 93
        1
176
     0
 44
0.0
176
     0
173
     0
176
     0
1001
ACAD
1000
AcDbSavedByObjectVersion
1070
     0
  0
VISUALSTYLE
  5
D1
102
{ACAD_XDICTIONARY
360
1A0
102
}
102
{ACAD_REACTORS
330
C3
102
}
330
C3
100
AcDbVisualStyle
  2
Linepattern
 70
    14
177
     2
291
     1
 71
     2
176
     1
 72
     2
176
     1
 73
     0
176
     1
 90
        0
176
     1
 40
0.6
176
     1
 41
30.0
176
     1
 63
     7
421
 16777215
176
     1
 74
     1
176
     1
 91
        4
176
     1
 64
     7
176
     1
 65
   257
176
     1
 75
     7
176
     1
175
     7
176
     1
 42
1.0
176
     1
 92
        8
176
     1
 66
     7
176
     1
 43
1.0
176
     1
 76
     1
176
     1
 77
     6
176
     1
 78
     2
176
     1
 67
     7
176
     1
 79
     5
176
     1
170
     0
176
     1
171
     0
176
     1
290
     0
176
     1
 93
        1
176
     1
 44
0.0
176
     1
173
     0
176
     1
1001
ACAD
1000
AcDbSavedByObjectVersion
1070
     0
  0
VISUALSTYLE
  5
DA
102
{ACAD_XDICTIONARY
360
1B2
102
}
102
{ACAD_REACTORS
330
C3
102
}
330
C3
100
AcDbVisualStyle
  2
OverhangOff
 70
    21
177
     2
291
     1
 71
     2
176
     0
 72
     2
176
     0
 73
     0
176
     0
 90
        0
176
     0
 40
0.6
176
     0
 41
30.0
176
     0
 63
     7
421
 16777215
176
     0
 74
     1
176
     0
 91
        4
176
     0
 64
     7
176
     0
 65
   257
176
     0
 75
     1
176
     0
175
     1
176
     0
 42
1.0
176
     0
 92
        9
176
     2
 66
     7
176
     0
 43
1.0
176
     0
 76
     1
176
     0
 77
     6
176
     0
 78
     2
176
     0
 67
     7
176
     0
 79
     5
176
     0
170
     0
176
     0
171
     0
176
     0
290
     0
176
     0
 93
        1
176
     0
 44
0.0
176
     0
173
     0
176
     0
1001
ACAD
1000
AcDbSavedByObjectVersion
1070
     0
  0
VISUALSTYLE
  5
CD
102
{ACAD_XDICTIONARY
360
198
102
}
102
{ACAD_REACTORS
330
C3
102
}
330
C3
100
AcDbVisualStyle
  2
Realistic
 70
     8
177
     2
291
     0
 71
     2
176
     1
 72
     3
176
     1
 73
     0
176
     1
 90
        2
176
     1
 40
0.6
176
     1
 41
30.0
176
     1
 63
     7
421
 16777215
176
     1
 74
     0
176
     1
 91
        0
176
     1
 64
     7
176
     1
 65
   257
176
     1
 75
     1
176
     1
175
     1
176
     1
 42
1.0
176
     1
 92
        8
176
     1
 66
   257
176
     1
 43
1.0
176
     1
 76
     1
176
     1
 77
     6
176
     1
 78
     2
176
     1
 67
     7
176
     1
 79
     3
176
     1
170
     0
176
     1
171
     0
176
     1
290
     0
176
     1
 93
       13
176
     1
 44
0.0
176
     1
173
     0
176
     1
1001
ACAD
1000
AcDbSavedByObjectVersion
1070
     0
  0
VISUALSTYLE
  5
D8
102
{ACAD_XDICTIONARY
360
1AE
102
}
102
{ACAD_REACTORS
330
C3
102
}
330
C3
100
AcDbVisualStyle
  2
Shaded
 70
    27
177
     2
291
     0
 71
     2
176
     1
 72
     2
176
     1
 73
     1
176
     1
 90
        2
176
     1
 40
0.6
176
     1
 41
30.0
176
     1
 63
     7
421
 16777215
176
     1
 74
     0
176
     1
 91
        4
176
     1
 64
     7
176
     1
 65
   257
176
     1
 75
     1
176
     1
175
     1
176
     1
 42
1.0
176
     1
 92
        8
176
     1
 66
   257
176
     1
 43
1.0
176
     1
 76
     1
176
     1
 77
     6
176
     1
 78
     2
176
     1
 67
     8
425
  7895160
176
     1
 79
     3
176
     1
170
     0
176
     1
171
     0
176
     1
290
     0
176
     1
 93
        5
176
     1
 44
0.0
176
     1
173
     0
176
     1
1001
ACAD
1000
AcDbSavedByObjectVersion
1070
     0
  0
VISUALSTYLE
  5
D7
102
{ACAD_XDICTIONARY
360
1AC
102
}
102
{ACAD_REACTORS
330
C3
102
}
330
C3
100
AcDbVisualStyle
  2
Shaded with edges
 70
    26
177
     2
291
     0
 71
     2
176
     1
 72
     2
176
     1
 73
     1
176
     1
 90
        2
176
     1
 40
0.6
176
     1
 41
30.0
176
     1
 63
     7
421
 16777215
176
     1
 74
     1
176
     1
 91
       10
176
     1
 64
     7
176
     1
 65
   257
176
     1
 75
     2
176
     1
175
     1
176
     1
 42
1.0
176
     1
 92
        8
176
     1
 66
   257
176
     1
 43
1.0
176
     1
 76
     1
176
     1
 77
     6
176
     1
 78
     2
176
     1
 67
     7
176
     1
 79
     3
176
     1
170
     0
176
     1
171
     0
176
     1
290
     0
176
     1
 93
        5
176
     1
 44
0.0
176
     1
173
     0
176
     1
1001
ACAD
1000
AcDbSavedByObjectVersion
1070
     0
  0
VISUALSTYLE
  5
D4
102
{ACAD_XDICTIONARY
360
1A6
102
}
102
{ACAD_REACTORS
330
C3
102
}
330
C3
100
AcDbVisualStyle
  2
Shades of Gray
 70
    23
177
     2
291
     0
 71
     2
176
     1
 72
     2
176
     1
 73
     3
176
     1
 90
        0
176
     1
 40
0.6
176
     1
 41
30.0
176
     1
 63
     7
421
 16777215
176
     1
 74
     2
176
     1
 91
        2
176
     1
 64
     7
176
     1
 65
     7
176
     1
 75
     1
176
     1
175
     1
176
     1
 42
40.0
176
     1
 92
        8
176
     1
 66
     7
176
     1
 43
1.0
176
     1
 76
     1
176
     1
 77
     6
176
     1
 78
     2
176
     1
 67
     7
176
     1
 79
     3
176
     1
170
     0
176
     1
171
     0
176
     1
290
     0
176
     1
 93
        1
176
     1
 44
0.0
176
     1
173
     0
176
     1
1001
ACAD
1000
AcDbSavedByObjectVersion
1070
     0
  0
VISUALSTYLE
  5
D5
102
{ACAD_XDICTIONARY
360
1A8
102
}
102
{ACAD_REACTORS
330
C3
102
}
330
C3
100
AcDbVisualStyle
  2
Sketchy
 70
    24
177
     2
291
     0
 71
     1
176
     1
 72
     2
176
     1
 73
     2
176
     1
 90
        0
176
     1
 40
0.6
176
     1
 41
30.0
176
     1
 63
     7
421
 16777215
176
     1
 74
     2
176
     1
 91
        2
176
     1
 64
     7
176
     1
 65
     7
176
     1
 75
     1
176
     1
175
     1
176
     1
 42
40.0
176
     1
 92
       11
176
     1
 66
     7
176
     1
 43
1.0
176
     1
 76
     1
176
     1
 77
     6
176
     1
 78
     2
176
     1
 67
     7
176
     1
 79
     6
176
     1
170
     0
176
     1
171
     0
176
     1
290
     0
176
     1
 93
        1
176
     1
 44
0.0
176
     1
173
     0
176
     1
1001
ACAD
1000
AcDbSavedByObjectVersion
1070
     0
  0
VISUALSTYLE
  5
D0
102
{ACAD_XDICTIONARY
360
19E
102
}
102
{ACAD_REACTORS
330
C3
102
}
330
C3
100
AcDbVisualStyle
  2
Thicken
 70
    13
177
     2
291
     1
 71
     2
176
     1
 72
     2
176
     1
 73
     0
176
     1
 90
        0
176
     1
 40
0.6
176
     1
 41
30.0
176
     1
 63
     7
421
 16777215
176
     1
 74
     1
176
     1
 91
        4
176
     1
 64
     7
176
     1
 65
   257
176
     1
 75
     1
176
     1
175
     1
176
     1
 42
1.0
176
     1
 92
       12
176
     1
 66
     7
176
     1
 43
1.0
176
     1
 76
     1
176
     1
 77
     6
176
     1
 78
     2
176
     1
 67
     7
176
     1
 79
     5
176
     1
170
     0
176
     1
171
     0
176
     1
290
     0
176
     1
 93
        1
176
     1
 44
0.0
176
     1
173
     0
176
     1
1001
ACAD
1000
AcDbSavedByObjectVersion
1070
     0
  0
VISUALSTYLE
  5
CA
102
{ACAD_XDICTIONARY
360
192
102
}
102
{ACAD_REACTORS
330
C3
102
}
330
C3
100
AcDbVisualStyle
  2
Wireframe
 70
     5
177
     2
291
     0
 71
     0
176
     1
 72
     2
176
     1
 73
     0
176
     1
 90
        0
176
     1
 40
0.6
176
     1
 41
30.0
176
     1
 63
     7
421
 16777215
176
     1
 74
     1
176
     1
 91
        4
176
     1
 64
     7
176
     1
 65
   257
176
     1
 75
     1
176
     1
175
     1
176
     1
 42
1.0
176
     1
 92
        0
176
     1
 66
   257
176
     1
 43
1.0
176
     1
 76
     1
176
     1
 77
     6
176
     1
 78
     2
176
     1
 67
     7
176
     1
 79
     3
176
     1
170
     0
176
     1
171
     0
176
     1
290
     0
176
     1
 93
        1
176
     1
 44
0.0
176
     1
173
     0
176
     1
1001
ACAD
1000
AcDbSavedByObjectVersion
1070
     0
  0
VISUALSTYLE
  5
D6
102
{ACAD_XDICTIONARY
360
1AA
102
}
102
{ACAD_REACTORS
330
C3
102
}
330
C3
100
AcDbVisualStyle
  2
X-Ray
 70
    25
177
     2
291
     0
 71
     2
176
     1
 72
     2
176
     1
 73
     1
176
     1
 90
        1
176
     1
 40
0.5
176
     1
 41
30.0
176
     1
 63
     7
421
 16777215
176
     1
 74
     1
176
     1
 91
        0
176
     1
 64
     7
176
     1
 65
   257
176
     1
 75
     1
176
     1
175
     1
176
     1
 42
1.0
176
     1
 92
        8
176
     1
 66
     7
176
     1
 43
1.0
176
     1
 76
     1
176
     1
 77
     6
176
     1
 78
     2
176
     1
 67
     7
176
     1
 79
     3
176
     1
170
     0
176
     1
171
     0
176
     1
290
     0
176
     1
 93
       13
176
     1
 44
0.0
176
     1
173
     0
176
     1
1001
ACAD
1000
AcDbSavedByObjectVersion
1070
     0
  0
DICTIONARYVAR
  5
17F
102
{ACAD_REACTORS
330
179
102
}
330
179
100
DictionaryVariables
280
     0
  1
1:1
  0
DICTIONARYVAR
  5
17B
102
{ACAD_REACTORS
330
179
102
}
330
179
100
DictionaryVariables
280
     0
  1
STANDARD
  0
DICTIONARYVAR
  5
17A
102
{ACAD_REACTORS
330
179
102
}
330
179
100
DictionaryVariables
280
     0
  1
STANDARD
  0
DICTIONARYVAR
  5
17C
102
{ACAD_REACTORS
330
179
102
}
330
179
100
DictionaryVariables
280
     0
  1
Imperial24
  0
DICTIONARYVAR
  5
17D
102
{ACAD_REACTORS
330
179
102
}
330
179
100
DictionaryVariables
280
     0
  1
Imperial24
  0
DICTIONARYVAR
  5
181
102
{ACAD_REACTORS
330
179
102
}
330
179
100
DictionaryVariables
280
     0
  1
1
  0
DICTIONARYVAR
  5
182
102
{ACAD_REACTORS
330
179
102
}
330
179
100
DictionaryVariables
280
     0
  1
15
  0
DICTIONARYVAR
  5
180
102
{ACAD_REACTORS
330
179
102
}
330
179
100
DictionaryVariables
280
     0
  1
0
  0
DICTIONARYVAR
  5
17E
102
{ACAD_REACTORS
330
179
102
}
330
179
100
DictionaryVariables
280
     0
  1
0
  0
DICTIONARY
  5
1BA
330
F6
100
AcDbDictionary
280
     1
281
     1
  3
ACAD_XREC_ROUNDTRIP
360
1BB
  0
DICTIONARY
  5
B4
330
B3
100
AcDbDictionary
280
     1
281
     1
  3
BUMPTILE
360
B6
  3
DIFFUSETILE
360
B5
  3
OPACITYTILE
360
B9
  3
REFLECTIONTILE
360
B8
  3
REFRACTIONTILE
360
BA
  3
SPECULARTILE
360
B7
  0
DICTIONARY
  5
AC
330
AB
100
AcDbDictionary
280
     1
281
     1
  3
BUMPTILE
360
AE
  3
DIFFUSETILE
360
AD
  3
OPACITYTILE
360
B1
  3
REFLECTIONTILE
360
B0
  3
REFRACTIONTILE
360
B2
  3
SPECULARTILE
360
AF
  0
DICTIONARY
  5
BC
330
BB
100
AcDbDictionary
280
     1
281
     1
  3
BUMPTILE
360
BE
  3
DIFFUSETILE
360
BD
  3
OPACITYTILE
360
C1
  3
REFLECTIONTILE
360
C0
  3
REFRACTIONTILE
360
C2
  3
SPECULARTILE
360
BF
  0
DICTIONARY
  5
1B6
330
F2
100
AcDbDictionary
280
     1
281
     1
  3
ACAD_XREC_ROUNDTRIP
360
1B7
  0
DICTIONARY
  5
1B8
330
F4
100
AcDbDictionary
280
     1
281
     1
  3
ACAD_XREC_ROUNDTRIP
360
1B9
  0
DICTIONARY
  5
183
330
DE
100
AcDbDictionary
280
     1
281
     1
  3
ACAD_ROUNDTRIP_2008_TABLESTYLE_CELLSTYLEMAP
360
184
  0
DICTIONARY
  5
190
330
C9
100
AcDbDictionary
280
     1
281
     1
  3
ACAD_XREC_ROUNDTRIP
360
191
  0
DICTIONARY
  5
18E
330
C8
100
AcDbDictionary
280
     1
281
     1
  3
ACAD_XREC_ROUNDTRIP
360
18F
  0
DICTIONARY
  5
19C
330
CF
100
AcDbDictionary
280
     1
281
     1
  3
ACAD_XREC_ROUNDTRIP
360
19D
  0
DICTIONARY
  5
1A4
330
D3
100
AcDbDictionary
280
     1
281
     1
  3
ACAD_XREC_ROUNDTRIP
360
1A5
  0
DICTIONARY
  5
196
330
CC
100
AcDbDictionary
280
     1
281
     1
  3
ACAD_XREC_ROUNDTRIP
360
197
  0
DICTIONARY
  5
19A
330
CE
100
AcDbDictionary
280
     1
281
     1
  3
ACAD_XREC_ROUNDTRIP
360
19B
  0
DICTIONARY
  5
1B4
330
DB
100
AcDbDictionary
280
     1
281
     1
  3
ACAD_XREC_ROUNDTRIP
360
1B5
  0
DICTIONARY
  5
1A2
330
D2
100
AcDbDictionary
280
     1
281
     1
  3
ACAD_XREC_ROUNDTRIP
360
1A3
  0
DICTIONARY
  5
186
330
C4
100
AcDbDictionary
280
     1
281
     1
  3
ACAD_XREC_ROUNDTRIP
360
187
  0
DICTIONARY
  5
188
330
C5
100
AcDbDictionary
280
     1
281
     1
  3
ACAD_XREC_ROUNDTRIP
360
189
  0
DICTIONARY
  5
18A
330
C6
100
AcDbDictionary
280
     1
281
     1
  3
ACAD_XREC_ROUNDTRIP
360
18B
  0
DICTIONARY
  5
18C
330
C7
100
AcDbDictionary
280
     1
281
     1
  3
ACAD_XREC_ROUNDTRIP
360
18D
  0
DICTIONARY
  5
194
330
CB
100
AcDbDictionary
280
     1
281
     1
  3
ACAD_XREC_ROUNDTRIP
360
195
  0
DICTIONARY
  5
1B0
330
D9
100
AcDbDictionary
280
     1
281
     1
  3
ACAD_XREC_ROUNDTRIP
360
1B1
  0
DICTIONARY
  5
1A0
330
D1
100
AcDbDictionary
280
     1
281
     1
  3
ACAD_XREC_ROUNDTRIP
360
1A1
  0
DICTIONARY
  5
1B2
330
DA
100
AcDbDictionary
280
     1
281
     1
  3
ACAD_XREC_ROUNDTRIP
360
1B3
  0
DICTIONARY
  5
198
330
CD
100
AcDbDictionary
280
     1
281
     1
  3
ACAD_XREC_ROUNDTRIP
360
199
  0
DICTIONARY
  5
1AE
330
D8
100
AcDbDictionary
280
     1
281
     1
  3
ACAD_XREC_ROUNDTRIP
360
1AF
  0
DICTIONARY
  5
1AC
330
D7
100
AcDbDictionary
280
     1
281
     1
  3
ACAD_XREC_ROUNDTRIP
360
1AD
  0
DICTIONARY
  5
1A6
330
D4
100
AcDbDictionary
280
     1
281
     1
  3
ACAD_XREC_ROUNDTRIP
360
1A7
  0
DICTIONARY
  5
1A8
330
D5
100
AcDbDictionary
280
     1
281
     1
  3
ACAD_XREC_ROUNDTRIP
360
1A9
  0
DICTIONARY
  5
19E
330
D0
100
AcDbDictionary
280
     1
281
     1
  3
ACAD_XREC_ROUNDTRIP
360
19F
  0
DICTIONARY
  5
192
330
CA
100
AcDbDictionary
280
     1
281
     1
  3
ACAD_XREC_ROUNDTRIP
360
193
  0
DICTIONARY
  5
1AA
330
D6
100
AcDbDictionary
280
     1
281
     1
  3
ACAD_XREC_ROUNDTRIP
360
1AB
  0
XRECORD
  5
1BB
102
{ACAD_REACTORS
330
1BA
102
}
330
1BA
100
AcDbXrecord
280
     1
102
DISPLAYNAME
  1
Imperial24
102
FLAGS
 90
        0
  0
XRECORD
  5
B6
102
{ACAD_REACTORS
330
B4
102
}
330
B4
100
AcDbXrecord
280
     1
270
     1
271
     1
  0
XRECORD
  5
B5
102
{ACAD_REACTORS
330
B4
102
}
330
B4
100
AcDbXrecord
280
     1
270
     1
271
     1
  0
XRECORD
  5
B9
102
{ACAD_REACTORS
330
B4
102
}
330
B4
100
AcDbXrecord
280
     1
270
     1
271
     1
  0
XRECORD
  5
B8
102
{ACAD_REACTORS
330
B4
102
}
330
B4
100
AcDbXrecord
280
     1
270
     1
271
     1
  0
XRECORD
  5
BA
102
{ACAD_REACTORS
330
B4
102
}
330
B4
100
AcDbXrecord
280
     1
270
     1
271
     1
  0
XRECORD
  5
B7
102
{ACAD_REACTORS
330
B4
102
}
330
B4
100
AcDbXrecord
280
     1
270
     1
271
     1
  0
XRECORD
  5
AE
102
{ACAD_REACTORS
330
AC
102
}
330
AC
100
AcDbXrecord
280
     1
270
     1
271
     1
  0
XRECORD
  5
AD
102
{ACAD_REACTORS
330
AC
102
}
330
AC
100
AcDbXrecord
280
     1
270
     1
271
     1
  0
XRECORD
  5
B1
102
{ACAD_REACTORS
330
AC
102
}
330
AC
100
AcDbXrecord
280
     1
270
     1
271
     1
  0
XRECORD
  5
B0
102
{ACAD_REACTORS
330
AC
102
}
330
AC
100
AcDbXrecord
280
     1
270
     1
271
     1
  0
XRECORD
  5
B2
102
{ACAD_REACTORS
330
AC
102
}
330
AC
100
AcDbXrecord
280
     1
270
     1
271
     1
  0
XRECORD
  5
AF
102
{ACAD_REACTORS
330
AC
102
}
330
AC
100
AcDbXrecord
280
     1
270
     1
271
     1
  0
XRECORD
  5
BE
102
{ACAD_REACTORS
330
BC
102
}
330
BC
100
AcDbXrecord
280
     1
270
     1
271
     1
  0
XRECORD
  5
BD
102
{ACAD_REACTORS
330
BC
102
}
330
BC
100
AcDbXrecord
280
     1
270
     1
271
     1
  0
XRECORD
  5
C1
102
{ACAD_REACTORS
330
BC
102
}
330
BC
100
AcDbXrecord
280
     1
270
     1
271
     1
  0
XRECORD
  5
C0
102
{ACAD_REACTORS
330
BC
102
}
330
BC
100
AcDbXrecord
280
     1
270
     1
271
     1
  0
XRECORD
  5
C2
102
{ACAD_REACTORS
330
BC
102
}
330
BC
100
AcDbXrecord
280
     1
270
     1
271
     1
  0
XRECORD
  5
BF
102
{ACAD_REACTORS
330
BC
102
}
330
BC
100
AcDbXrecord
280
     1
270
     1
271
     1
  0
XRECORD
  5
1B7
102
{ACAD_REACTORS
330
1B6
102
}
330
1B6
100
AcDbXrecord
280
     1
102
ACAD_ROUNDTRIP_2012_MLEADER_STYLE
298
     1
  0
XRECORD
  5
1B9
102
{ACAD_REACTORS
330
1B8
102
}
330
1B8
100
AcDbXrecord
280
     1
102
DISPLAYNAME
  1
Imperial24
102
FLAGS
 90
        0
  0
CELLSTYLEMAP
  5
184
102
{ACAD_REACTORS
330
183
102
}
330
183
100
AcDbCellStyleMap
 90
        3
300
CELLSTYLE
  1
TABLEFORMAT_BEGIN
 90
        5
170
     1
 91
        0
 92
    32768
 62
   257
 93
        1
300
CONTENTFORMAT
  1
CONTENTFORMAT_BEGIN
 90
        0
 91
        0
 92
      512
 93
        0
300

 40
0.0
140
1.0
 94
        5
 62
     0
340
11
144
0.25
309
CONTENTFORMAT_END
171
     0
 94
        0
309
TABLEFORMAT_END
  1
CELLSTYLE_BEGIN
 90
        1
 91
        1
300
_TITLE
309
CELLSTYLE_END
300
CELLSTYLE
  1
TABLEFORMAT_BEGIN
 90
        5
170
     1
 91
        0
 92
        0
 62
   257
 93
        1
300
CONTENTFORMAT
  1
CONTENTFORMAT_BEGIN
 90
        0
 91
        0
 92
      512
 93
        0
300

 40
0.0
140
1.0
 94
        5
 62
     0
340
11
144
0.18
309
CONTENTFORMAT_END
171
     0
 94
        0
309
TABLEFORMAT_END
  1
CELLSTYLE_BEGIN
 90
        2
 91
        1
300
_HEADER
309
CELLSTYLE_END
300
CELLSTYLE
  1
TABLEFORMAT_BEGIN
 90
        5
170
     1
 91
        0
 92
        0
 62
   257
 93
        1
300
CONTENTFORMAT
  1
CONTENTFORMAT_BEGIN
 90
        0
 91
        0
 92
      512
 93
        0
300

 40
0.0
140
1.0
 94
        2
 62
     0
340
11
144
0.18
309
CONTENTFORMAT_END
171
     0
 94
        0
309
TABLEFORMAT_END
  1
CELLSTYLE_BEGIN
 90
        3
 91
        2
300
_DATA
309
CELLSTYLE_END
  0
XRECORD
  5
191
102
{ACAD_REACTORS
330
190
102
}
330
190
100
AcDbXrecord
280
     1
102
RTVSPost2010Prop28
280
     1
102
RTVSPost2010PropOp28
 70
     1
102
RTVSPost2010Prop29
280
     1
102
RTVSPost2010PropOp29
 70
     1
102
RTVSPost2010Prop30
280
     0
102
RTVSPost2010PropOp30
 70
     1
102
RTVSPost2010Prop31
280
     0
102
RTVSPost2010PropOp31
 70
     1
102
RTVSPost2010Prop32
280
     0
102
RTVSPost2010PropOp32
 70
     1
102
RTVSPost2010Prop33
280
     0
102
RTVSPost2010PropOp33
 70
     1
102
RTVSPost2010Prop34
280
     0
102
RTVSPost2010PropOp34
 70
     1
102
RTVSPost2010Prop35
280
     0
102
RTVSPost2010PropOp35
 70
     1
102
RTVSPost2010Prop36
280
     0
102
RTVSPost2010PropOp36
 70
     1
102
RTVSPost2010Prop37
 90
       50
102
RTVSPost2010PropOp37
 70
     1
102
RTVSPost2010Prop38
140
0.0
102
RTVSPost2010PropOp38
 70
     1
102
RTVSPost2010Prop39
140
1.0
102
RTVSPost2010PropOp39
 70
     1
102
RTVSPost2010Prop40
 90
        0
102
RTVSPost2010PropOp40
 70
     1
102
RTVSPost2010Prop41ColorIndex
 90
       18
102
RTVSPost2010Prop41ColorRGB
 90
        0
102
RTVSPost2010PropOp41
 70
     1
102
RTVSPost2010Prop42
 90
       50
102
RTVSPost2010PropOp42
 70
     1
102
RTVSPost2010Prop43
 90
        3
102
RTVSPost2010PropOp43
 70
     1
102
RTVSPost2010Prop44ColorIndex
 90
        5
102
RTVSPost2010Prop44ColorRGB
 90
      255
102
RTVSPost2010PropOp44
 70
     1
102
RTVSPost2010Prop45
280
     0
102
RTVSPost2010PropOp45
 70
     1
102
RTVSPost2010Prop46
 90
       50
102
RTVSPost2010PropOp46
 70
     1
102
RTVSPost2010Prop47
 90
       50
102
RTVSPost2010PropOp47
 70
     1
102
RTVSPost2010Prop48
 90
       50
102
RTVSPost2010PropOp48
 70
     1
102
RTVSPost2010Prop49
280
     0
102
RTVSPost2010PropOp49
 70
     1
102
RTVSPost2010Prop50
 90
       50
102
RTVSPost2010PropOp50
 70
     1
102
RTVSPost2010Prop51ColorIndex
 90
      256
102
RTVSPost2010Prop51ColorRGB
 90
-16777216
102
RTVSPost2010PropOp51
 70
     0
102
RTVSPost2010Prop52
140
1.0
102
RTVSPost2010PropOp52
 70
     0
102
RTVSPost2010Prop53
 90
        2
102
RTVSPost2010PropOp53
 70
     1
102
RTVSPost2010Prop54
  1
strokes_ogs.tif
102
RTVSPost2010PropOp54
 70
     1
102
RTVSPost2010Prop55
280
     0
102
RTVSPost2010PropOp55
 70
     1
102
RTVSPost2010Prop56
140
1.0
102
RTVSPost2010PropOp56
 70
     1
102
RTVSPost2010Prop57
140
1.0
102
RTVSPost2010PropOp57
 70
     1
  0
XRECORD
  5
18F
102
{ACAD_REACTORS
330
18E
102
}
330
18E
100
AcDbXrecord
280
     1
102
RTVSPost2010Prop28
280
     0
102
RTVSPost2010PropOp28
 70
     1
102
RTVSPost2010Prop29
280
     1
102
RTVSPost2010PropOp29
 70
     1
102
RTVSPost2010Prop30
280
     1
102
RTVSPost2010PropOp30
 70
     1
102
RTVSPost2010Prop31
280
     0
102
RTVSPost2010PropOp31
 70
     1
102
RTVSPost2010Prop32
280
     0
102
RTVSPost2010PropOp32
 70
     1
102
RTVSPost2010Prop33
280
     0
102
RTVSPost2010PropOp33
 70
     1
102
RTVSPost2010Prop34
280
     0
102
RTVSPost2010PropOp34
 70
     1
102
RTVSPost2010Prop35
280
     0
102
RTVSPost2010PropOp35
 70
     1
102
RTVSPost2010Prop36
280
     0
102
RTVSPost2010PropOp36
 70
     1
102
RTVSPost2010Prop37
 90
       50
102
RTVSPost2010PropOp37
 70
     1
102
RTVSPost2010Prop38
140
0.0
102
RTVSPost2010PropOp38
 70
     1
102
RTVSPost2010Prop39
140
1.0
102
RTVSPost2010PropOp39
 70
     1
102
RTVSPost2010Prop40
 90
        0
102
RTVSPost2010PropOp40
 70
     1
102
RTVSPost2010Prop41ColorIndex
 90
       18
102
RTVSPost2010Prop41ColorRGB
 90
        0
102
RTVSPost2010PropOp41
 70
     1
102
RTVSPost2010Prop42
 90
       50
102
RTVSPost2010PropOp42
 70
     1
102
RTVSPost2010Prop43
 90
        3
102
RTVSPost2010PropOp43
 70
     1
102
RTVSPost2010Prop44ColorIndex
 90
        5
102
RTVSPost2010Prop44ColorRGB
 90
      255
102
RTVSPost2010PropOp44
 70
     1
102
RTVSPost2010Prop45
280
     0
102
RTVSPost2010PropOp45
 70
     1
102
RTVSPost2010Prop46
 90
       50
102
RTVSPost2010PropOp46
 70
     1
102
RTVSPost2010Prop47
 90
       50
102
RTVSPost2010PropOp47
 70
     1
102
RTVSPost2010Prop48
 90
       50
102
RTVSPost2010PropOp48
 70
     1
102
RTVSPost2010Prop49
280
     0
102
RTVSPost2010PropOp49
 70
     1
102
RTVSPost2010Prop50
 90
       50
102
RTVSPost2010PropOp50
 70
     1
102
RTVSPost2010Prop51ColorIndex
 90
      256
102
RTVSPost2010Prop51ColorRGB
 90
-16777216
102
RTVSPost2010PropOp51
 70
     0
102
RTVSPost2010Prop52
140
1.0
102
RTVSPost2010PropOp52
 70
     0
102
RTVSPost2010Prop53
 90
        2
102
RTVSPost2010PropOp53
 70
     1
102
RTVSPost2010Prop54
  1
strokes_ogs.tif
102
RTVSPost2010PropOp54
 70
     1
102
RTVSPost2010Prop55
280
     0
102
RTVSPost2010PropOp55
 70
     1
102
RTVSPost2010Prop56
140
1.0
102
RTVSPost2010PropOp56
 70
     1
102
RTVSPost2010Prop57
140
1.0
102
RTVSPost2010PropOp57
 70
     1
  0
XRECORD
  5
19D
102
{ACAD_REACTORS
330
19C
102
}
330
19C
100
AcDbXrecord
280
     1
102
RTVSPost2010Prop28
280
     0
102
RTVSPost2010PropOp28
 70
     1
102
RTVSPost2010Prop29
280
     1
102
RTVSPost2010PropOp29
 70
     1
102
RTVSPost2010Prop30
280
     1
102
RTVSPost2010PropOp30
 70
     1
102
RTVSPost2010Prop31
280
     0
102
RTVSPost2010PropOp31
 70
     1
102
RTVSPost2010Prop32
280
     0
102
RTVSPost2010PropOp32
 70
     1
102
RTVSPost2010Prop33
280
     0
102
RTVSPost2010PropOp33
 70
     1
102
RTVSPost2010Prop34
280
     0
102
RTVSPost2010PropOp34
 70
     1
102
RTVSPost2010Prop35
280
     0
102
RTVSPost2010PropOp35
 70
     1
102
RTVSPost2010Prop36
280
     0
102
RTVSPost2010PropOp36
 70
     1
102
RTVSPost2010Prop37
 90
       50
102
RTVSPost2010PropOp37
 70
     1
102
RTVSPost2010Prop38
140
0.0
102
RTVSPost2010PropOp38
 70
     1
102
RTVSPost2010Prop39
140
1.0
102
RTVSPost2010PropOp39
 70
     1
102
RTVSPost2010Prop40
 90
        0
102
RTVSPost2010PropOp40
 70
     1
102
RTVSPost2010Prop41ColorIndex
 90
       18
102
RTVSPost2010Prop41ColorRGB
 90
        0
102
RTVSPost2010PropOp41
 70
     1
102
RTVSPost2010Prop42
 90
       50
102
RTVSPost2010PropOp42
 70
     1
102
RTVSPost2010Prop43
 90
        3
102
RTVSPost2010PropOp43
 70
     1
102
RTVSPost2010Prop44ColorIndex
 90
        5
102
RTVSPost2010Prop44ColorRGB
 90
      255
102
RTVSPost2010PropOp44
 70
     1
102
RTVSPost2010Prop45
280
     0
102
RTVSPost2010PropOp45
 70
     1
102
RTVSPost2010Prop46
 90
       50
102
RTVSPost2010PropOp46
 70
     1
102
RTVSPost2010Prop47
 90
       50
102
RTVSPost2010PropOp47
 70
     1
102
RTVSPost2010Prop48
 90
       50
102
RTVSPost2010PropOp48
 70
     1
102
RTVSPost2010Prop49
280
     0
102
RTVSPost2010PropOp49
 70
     1
102
RTVSPost2010Prop50
 90
       50
102
RTVSPost2010PropOp50
 70
     1
102
RTVSPost2010Prop51ColorIndex
 90
      256
102
RTVSPost2010Prop51ColorRGB
 90
-16777216
102
RTVSPost2010PropOp51
 70
     0
102
RTVSPost2010Prop52
140
1.0
102
RTVSPost2010PropOp52
 70
     0
102
RTVSPost2010Prop53
 90
        2
102
RTVSPost2010PropOp53
 70
     1
102
RTVSPost2010Prop54
  1
strokes_ogs.tif
102
RTVSPost2010PropOp54
 70
     1
102
RTVSPost2010Prop55
280
     0
102
RTVSPost2010PropOp55
 70
     1
102
RTVSPost2010Prop56
140
1.0
102
RTVSPost2010PropOp56
 70
     1
102
RTVSPost2010Prop57
140
1.0
102
RTVSPost2010PropOp57
 70
     1
  0
XRECORD
  5
1A5
102
{ACAD_REACTORS
330
1A4
102
}
330
1A4
100
AcDbXrecord
280
     1
102
RTVSPost2010Prop28
280
     0
102
RTVSPost2010PropOp28
 70
     1
102
RTVSPost2010Prop29
280
     1
102
RTVSPost2010PropOp29
 70
     1
102
RTVSPost2010Prop30
280
     1
102
RTVSPost2010PropOp30
 70
     1
102
RTVSPost2010Prop31
280
     0
102
RTVSPost2010PropOp31
 70
     1
102
RTVSPost2010Prop32
280
     0
102
RTVSPost2010PropOp32
 70
     1
102
RTVSPost2010Prop33
280
     0
102
RTVSPost2010PropOp33
 70
     1
102
RTVSPost2010Prop34
280
     0
102
RTVSPost2010PropOp34
 70
     1
102
RTVSPost2010Prop35
280
     0
102
RTVSPost2010PropOp35
 70
     1
102
RTVSPost2010Prop36
280
     0
102
RTVSPost2010PropOp36
 70
     1
102
RTVSPost2010Prop37
 90
       50
102
RTVSPost2010PropOp37
 70
     1
102
RTVSPost2010Prop38
140
0.0
102
RTVSPost2010PropOp38
 70
     1
102
RTVSPost2010Prop39
140
1.0
102
RTVSPost2010PropOp39
 70
     1
102
RTVSPost2010Prop40
 90
        0
102
RTVSPost2010PropOp40
 70
     1
102
RTVSPost2010Prop41ColorIndex
 90
       18
102
RTVSPost2010Prop41ColorRGB
 90
        0
102
RTVSPost2010PropOp41
 70
     1
102
RTVSPost2010Prop42
 90
       50
102
RTVSPost2010PropOp42
 70
     1
102
RTVSPost2010Prop43
 90
        3
102
RTVSPost2010PropOp43
 70
     1
102
RTVSPost2010Prop44ColorIndex
 90
        5
102
RTVSPost2010Prop44ColorRGB
 90
      255
102
RTVSPost2010PropOp44
 70
     1
102
RTVSPost2010Prop45
280
     0
102
RTVSPost2010PropOp45
 70
     1
102
RTVSPost2010Prop46
 90
       50
102
RTVSPost2010PropOp46
 70
     1
102
RTVSPost2010Prop47
 90
       50
102
RTVSPost2010PropOp47
 70
     1
102
RTVSPost2010Prop48
 90
       50
102
RTVSPost2010PropOp48
 70
     1
102
RTVSPost2010Prop49
280
     0
102
RTVSPost2010PropOp49
 70
     1
102
RTVSPost2010Prop50
 90
       50
102
RTVSPost2010PropOp50
 70
     1
102
RTVSPost2010Prop51ColorIndex
 90
      256
102
RTVSPost2010Prop51ColorRGB
 90
-16777216
102
RTVSPost2010PropOp51
 70
     0
102
RTVSPost2010Prop52
140
1.0
102
RTVSPost2010PropOp52
 70
     0
102
RTVSPost2010Prop53
 90
        2
102
RTVSPost2010PropOp53
 70
     1
102
RTVSPost2010Prop54
  1
strokes_ogs.tif
102
RTVSPost2010PropOp54
 70
     1
102
RTVSPost2010Prop55
280
     0
102
RTVSPost2010PropOp55
 70
     1
102
RTVSPost2010Prop56
140
1.0
102
RTVSPost2010PropOp56
 70
     1
102
RTVSPost2010Prop57
140
1.0
102
RTVSPost2010PropOp57
 70
     1
  0
XRECORD
  5
197
102
{ACAD_REACTORS
330
196
102
}
330
196
100
AcDbXrecord
280
     1
102
RTVSPost2010Prop28
280
     0
102
RTVSPost2010PropOp28
 70
     1
102
RTVSPost2010Prop29
280
     1
102
RTVSPost2010PropOp29
 70
     1
102
RTVSPost2010Prop30
280
     1
102
RTVSPost2010PropOp30
 70
     1
102
RTVSPost2010Prop31
280
     0
102
RTVSPost2010PropOp31
 70
     1
102
RTVSPost2010Prop32
280
     0
102
RTVSPost2010PropOp32
 70
     1
102
RTVSPost2010Prop33
280
     0
102
RTVSPost2010PropOp33
 70
     1
102
RTVSPost2010Prop34
280
     0
102
RTVSPost2010PropOp34
 70
     1
102
RTVSPost2010Prop35
280
     0
102
RTVSPost2010PropOp35
 70
     1
102
RTVSPost2010Prop36
280
     0
102
RTVSPost2010PropOp36
 70
     1
102
RTVSPost2010Prop37
 90
       50
102
RTVSPost2010PropOp37
 70
     1
102
RTVSPost2010Prop38
140
0.0
102
RTVSPost2010PropOp38
 70
     1
102
RTVSPost2010Prop39
140
1.0
102
RTVSPost2010PropOp39
 70
     1
102
RTVSPost2010Prop40
 90
        0
102
RTVSPost2010PropOp40
 70
     1
102
RTVSPost2010Prop41ColorIndex
 90
       18
102
RTVSPost2010Prop41ColorRGB
 90
        0
102
RTVSPost2010PropOp41
 70
     1
102
RTVSPost2010Prop42
 90
       50
102
RTVSPost2010PropOp42
 70
     1
102
RTVSPost2010Prop43
 90
        3
102
RTVSPost2010PropOp43
 70
     1
102
RTVSPost2010Prop44ColorIndex
 90
        5
102
RTVSPost2010Prop44ColorRGB
 90
      255
102
RTVSPost2010PropOp44
 70
     1
102
RTVSPost2010Prop45
280
     0
102
RTVSPost2010PropOp45
 70
     1
102
RTVSPost2010Prop46
 90
       50
102
RTVSPost2010PropOp46
 70
     1
102
RTVSPost2010Prop47
 90
       50
102
RTVSPost2010PropOp47
 70
     1
102
RTVSPost2010Prop48
 90
       50
102
RTVSPost2010PropOp48
 70
     1
102
RTVSPost2010Prop49
280
     0
102
RTVSPost2010PropOp49
 70
     1
102
RTVSPost2010Prop50
 90
       50
102
RTVSPost2010PropOp50
 70
     1
102
RTVSPost2010Prop51ColorIndex
 90
      256
102
RTVSPost2010Prop51ColorRGB
 90
-16777216
102
RTVSPost2010PropOp51
 70
     0
102
RTVSPost2010Prop52
140
1.0
102
RTVSPost2010PropOp52
 70
     0
102
RTVSPost2010Prop53
 90
        2
102
RTVSPost2010PropOp53
 70
     1
102
RTVSPost2010Prop54
  1
strokes_ogs.tif
102
RTVSPost2010PropOp54
 70
     1
102
RTVSPost2010Prop55
280
     0
102
RTVSPost2010PropOp55
 70
     1
102
RTVSPost2010Prop56
140
1.0
102
RTVSPost2010PropOp56
 70
     1
102
RTVSPost2010Prop57
140
1.0
102
RTVSPost2010PropOp57
 70
     1
  0
XRECORD
  5
19B
102
{ACAD_REACTORS
330
19A
102
}
330
19A
100
AcDbXrecord
280
     1
102
RTVSPost2010Prop28
280
     0
102
RTVSPost2010PropOp28
 70
     1
102
RTVSPost2010Prop29
280
     1
102
RTVSPost2010PropOp29
 70
     1
102
RTVSPost2010Prop30
280
     1
102
RTVSPost2010PropOp30
 70
     1
102
RTVSPost2010Prop31
280
     0
102
RTVSPost2010PropOp31
 70
     1
102
RTVSPost2010Prop32
280
     0
102
RTVSPost2010PropOp32
 70
     1
102
RTVSPost2010Prop33
280
     0
102
RTVSPost2010PropOp33
 70
     1
102
RTVSPost2010Prop34
280
     0
102
RTVSPost2010PropOp34
 70
     1
102
RTVSPost2010Prop35
280
     0
102
RTVSPost2010PropOp35
 70
     1
102
RTVSPost2010Prop36
280
     0
102
RTVSPost2010PropOp36
 70
     1
102
RTVSPost2010Prop37
 90
       50
102
RTVSPost2010PropOp37
 70
     1
102
RTVSPost2010Prop38
140
0.0
102
RTVSPost2010PropOp38
 70
     1
102
RTVSPost2010Prop39
140
1.0
102
RTVSPost2010PropOp39
 70
     1
102
RTVSPost2010Prop40
 90
        0
102
RTVSPost2010PropOp40
 70
     1
102
RTVSPost2010Prop41ColorIndex
 90
       18
102
RTVSPost2010Prop41ColorRGB
 90
        0
102
RTVSPost2010PropOp41
 70
     1
102
RTVSPost2010Prop42
 90
       50
102
RTVSPost2010PropOp42
 70
     1
102
RTVSPost2010Prop43
 90
        3
102
RTVSPost2010PropOp43
 70
     1
102
RTVSPost2010Prop44ColorIndex
 90
        5
102
RTVSPost2010Prop44ColorRGB
 90
      255
102
RTVSPost2010PropOp44
 70
     1
102
RTVSPost2010Prop45
280
     0
102
RTVSPost2010PropOp45
 70
     1
102
RTVSPost2010Prop46
 90
       50
102
RTVSPost2010PropOp46
 70
     1
102
RTVSPost2010Prop47
 90
       50
102
RTVSPost2010PropOp47
 70
     1
102
RTVSPost2010Prop48
 90
       50
102
RTVSPost2010PropOp48
 70
     1
102
RTVSPost2010Prop49
280
     0
102
RTVSPost2010PropOp49
 70
     1
102
RTVSPost2010Prop50
 90
       50
102
RTVSPost2010PropOp50
 70
     1
102
RTVSPost2010Prop51ColorIndex
 90
      256
102
RTVSPost2010Prop51ColorRGB
 90
-16777216
102
RTVSPost2010PropOp51
 70
     0
102
RTVSPost2010Prop52
140
1.0
102
RTVSPost2010PropOp52
 70
     0
102
RTVSPost2010Prop53
 90
        2
102
RTVSPost2010PropOp53
 70
     1
102
RTVSPost2010Prop54
  1
strokes_ogs.tif
102
RTVSPost2010PropOp54
 70
     1
102
RTVSPost2010Prop55
280
     0
102
RTVSPost2010PropOp55
 70
     1
102
RTVSPost2010Prop56
140
1.0
102
RTVSPost2010PropOp56
 70
     1
102
RTVSPost2010Prop57
140
1.0
102
RTVSPost2010PropOp57
 70
     1
  0
XRECORD
  5
1B5
102
{ACAD_REACTORS
330
1B4
102
}
330
1B4
100
AcDbXrecord
280
     1
102
RTVSPost2010Prop28
280
     0
102
RTVSPost2010PropOp28
 70
     0
102
RTVSPost2010Prop29
280
     1
102
RTVSPost2010PropOp29
 70
     0
102
RTVSPost2010Prop30
280
     1
102
RTVSPost2010PropOp30
 70
     0
102
RTVSPost2010Prop31
280
     0
102
RTVSPost2010PropOp31
 70
     0
102
RTVSPost2010Prop32
280
     0
102
RTVSPost2010PropOp32
 70
     0
102
RTVSPost2010Prop33
280
     0
102
RTVSPost2010PropOp33
 70
     0
102
RTVSPost2010Prop34
280
     0
102
RTVSPost2010PropOp34
 70
     0
102
RTVSPost2010Prop35
280
     0
102
RTVSPost2010PropOp35
 70
     0
102
RTVSPost2010Prop36
280
     0
102
RTVSPost2010PropOp36
 70
     0
102
RTVSPost2010Prop37
 90
       50
102
RTVSPost2010PropOp37
 70
     0
102
RTVSPost2010Prop38
140
0.0
102
RTVSPost2010PropOp38
 70
     0
102
RTVSPost2010Prop39
140
1.0
102
RTVSPost2010PropOp39
 70
     0
102
RTVSPost2010Prop40
 90
        0
102
RTVSPost2010PropOp40
 70
     0
102
RTVSPost2010Prop41ColorIndex
 90
       18
102
RTVSPost2010Prop41ColorRGB
 90
        0
102
RTVSPost2010PropOp41
 70
     0
102
RTVSPost2010Prop42
 90
       50
102
RTVSPost2010PropOp42
 70
     0
102
RTVSPost2010Prop43
 90
        3
102
RTVSPost2010PropOp43
 70
     0
102
RTVSPost2010Prop44ColorIndex
 90
        5
102
RTVSPost2010Prop44ColorRGB
 90
      255
102
RTVSPost2010PropOp44
 70
     0
102
RTVSPost2010Prop45
280
     0
102
RTVSPost2010PropOp45
 70
     0
102
RTVSPost2010Prop46
 90
       50
102
RTVSPost2010PropOp46
 70
     0
102
RTVSPost2010Prop47
 90
       50
102
RTVSPost2010PropOp47
 70
     0
102
RTVSPost2010Prop48
 90
       50
102
RTVSPost2010PropOp48
 70
     0
102
RTVSPost2010Prop49
280
     0
102
RTVSPost2010PropOp49
 70
     0
102
RTVSPost2010Prop50
 90
       50
102
RTVSPost2010PropOp50
 70
     0
102
RTVSPost2010Prop51ColorIndex
 90
      256
102
RTVSPost2010Prop51ColorRGB
 90
-16777216
102
RTVSPost2010PropOp51
 70
     0
102
RTVSPost2010Prop52
140
1.0
102
RTVSPost2010PropOp52
 70
     0
102
RTVSPost2010Prop53
 90
        2
102
RTVSPost2010PropOp53
 70
     0
102
RTVSPost2010Prop54
  1
strokes_ogs.tif
102
RTVSPost2010PropOp54
 70
     0
102
RTVSPost2010Prop55
280
     0
102
RTVSPost2010PropOp55
 70
     0
102
RTVSPost2010Prop56
140
1.0
102
RTVSPost2010PropOp56
 70
     0
102
RTVSPost2010Prop57
140
1.0
102
RTVSPost2010PropOp57
 70
     0
  0
XRECORD
  5
1A3
102
{ACAD_REACTORS
330
1A2
102
}
330
1A2
100
AcDbXrecord
280
     1
102
RTVSPost2010Prop28
280
     0
102
RTVSPost2010PropOp28
 70
     1
102
RTVSPost2010Prop29
280
     1
102
RTVSPost2010PropOp29
 70
     1
102
RTVSPost2010Prop30
280
     1
102
RTVSPost2010PropOp30
 70
     1
102
RTVSPost2010Prop31
280
     0
102
RTVSPost2010PropOp31
 70
     1
102
RTVSPost2010Prop32
280
     0
102
RTVSPost2010PropOp32
 70
     1
102
RTVSPost2010Prop33
280
     0
102
RTVSPost2010PropOp33
 70
     1
102
RTVSPost2010Prop34
280
     0
102
RTVSPost2010PropOp34
 70
     1
102
RTVSPost2010Prop35
280
     0
102
RTVSPost2010PropOp35
 70
     1
102
RTVSPost2010Prop36
280
     0
102
RTVSPost2010PropOp36
 70
     1
102
RTVSPost2010Prop37
 90
       50
102
RTVSPost2010PropOp37
 70
     1
102
RTVSPost2010Prop38
140
0.0
102
RTVSPost2010PropOp38
 70
     1
102
RTVSPost2010Prop39
140
1.0
102
RTVSPost2010PropOp39
 70
     1
102
RTVSPost2010Prop40
 90
        0
102
RTVSPost2010PropOp40
 70
     1
102
RTVSPost2010Prop41ColorIndex
 90
       18
102
RTVSPost2010Prop41ColorRGB
 90
        0
102
RTVSPost2010PropOp41
 70
     1
102
RTVSPost2010Prop42
 90
       50
102
RTVSPost2010PropOp42
 70
     1
102
RTVSPost2010Prop43
 90
        3
102
RTVSPost2010PropOp43
 70
     1
102
RTVSPost2010Prop44ColorIndex
 90
        5
102
RTVSPost2010Prop44ColorRGB
 90
      255
102
RTVSPost2010PropOp44
 70
     1
102
RTVSPost2010Prop45
280
     0
102
RTVSPost2010PropOp45
 70
     1
102
RTVSPost2010Prop46
 90
       50
102
RTVSPost2010PropOp46
 70
     1
102
RTVSPost2010Prop47
 90
       50
102
RTVSPost2010PropOp47
 70
     1
102
RTVSPost2010Prop48
 90
       50
102
RTVSPost2010PropOp48
 70
     1
102
RTVSPost2010Prop49
280
     0
102
RTVSPost2010PropOp49
 70
     1
102
RTVSPost2010Prop50
 90
       50
102
RTVSPost2010PropOp50
 70
     1
102
RTVSPost2010Prop51ColorIndex
 90
      256
102
RTVSPost2010Prop51ColorRGB
 90
-16777216
102
RTVSPost2010PropOp51
 70
     0
102
RTVSPost2010Prop52
140
1.0
102
RTVSPost2010PropOp52
 70
     0
102
RTVSPost2010Prop53
 90
        2
102
RTVSPost2010PropOp53
 70
     1
102
RTVSPost2010Prop54
  1
strokes_ogs.tif
102
RTVSPost2010PropOp54
 70
     1
102
RTVSPost2010Prop55
280
     0
102
RTVSPost2010PropOp55
 70
     1
102
RTVSPost2010Prop56
140
1.0
102
RTVSPost2010PropOp56
 70
     1
102
RTVSPost2010Prop57
140
1.0
102
RTVSPost2010PropOp57
 70
     1
  0
XRECORD
  5
187
102
{ACAD_REACTORS
330
186
102
}
330
186
100
AcDbXrecord
280
     1
102
RTVSPost2010Prop28
280
     0
102
RTVSPost2010PropOp28
 70
     1
102
RTVSPost2010Prop29
280
     1
102
RTVSPost2010PropOp29
 70
     1
102
RTVSPost2010Prop30
280
     1
102
RTVSPost2010PropOp30
 70
     1
102
RTVSPost2010Prop31
280
     0
102
RTVSPost2010PropOp31
 70
     1
102
RTVSPost2010Prop32
280
     0
102
RTVSPost2010PropOp32
 70
     1
102
RTVSPost2010Prop33
280
     0
102
RTVSPost2010PropOp33
 70
     1
102
RTVSPost2010Prop34
280
     0
102
RTVSPost2010PropOp34
 70
     1
102
RTVSPost2010Prop35
280
     0
102
RTVSPost2010PropOp35
 70
     1
102
RTVSPost2010Prop36
280
     0
102
RTVSPost2010PropOp36
 70
     1
102
RTVSPost2010Prop37
 90
       50
102
RTVSPost2010PropOp37
 70
     1
102
RTVSPost2010Prop38
140
0.0
102
RTVSPost2010PropOp38
 70
     1
102
RTVSPost2010Prop39
140
1.0
102
RTVSPost2010PropOp39
 70
     1
102
RTVSPost2010Prop40
 90
        0
102
RTVSPost2010PropOp40
 70
     1
102
RTVSPost2010Prop41ColorIndex
 90
       18
102
RTVSPost2010Prop41ColorRGB
 90
        0
102
RTVSPost2010PropOp41
 70
     1
102
RTVSPost2010Prop42
 90
       50
102
RTVSPost2010PropOp42
 70
     1
102
RTVSPost2010Prop43
 90
        3
102
RTVSPost2010PropOp43
 70
     1
102
RTVSPost2010Prop44ColorIndex
 90
        5
102
RTVSPost2010Prop44ColorRGB
 90
      255
102
RTVSPost2010PropOp44
 70
     1
102
RTVSPost2010Prop45
280
     0
102
RTVSPost2010PropOp45
 70
     1
102
RTVSPost2010Prop46
 90
       50
102
RTVSPost2010PropOp46
 70
     1
102
RTVSPost2010Prop47
 90
       50
102
RTVSPost2010PropOp47
 70
     1
102
RTVSPost2010Prop48
 90
       50
102
RTVSPost2010PropOp48
 70
     1
102
RTVSPost2010Prop49
280
     0
102
RTVSPost2010PropOp49
 70
     1
102
RTVSPost2010Prop50
 90
       50
102
RTVSPost2010PropOp50
 70
     1
102
RTVSPost2010Prop51ColorIndex
 90
      256
102
RTVSPost2010Prop51ColorRGB
 90
-16777216
102
RTVSPost2010PropOp51
 70
     0
102
RTVSPost2010Prop52
140
1.0
102
RTVSPost2010PropOp52
 70
     0
102
RTVSPost2010Prop53
 90
        2
102
RTVSPost2010PropOp53
 70
     1
102
RTVSPost2010Prop54
  1
strokes_ogs.tif
102
RTVSPost2010PropOp54
 70
     1
102
RTVSPost2010Prop55
280
     0
102
RTVSPost2010PropOp55
 70
     1
102
RTVSPost2010Prop56
140
1.0
102
RTVSPost2010PropOp56
 70
     1
102
RTVSPost2010Prop57
140
1.0
102
RTVSPost2010PropOp57
 70
     1
  0
XRECORD
  5
189
102
{ACAD_REACTORS
330
188
102
}
330
188
100
AcDbXrecord
280
     1
102
RTVSPost2010Prop28
280
     0
102
RTVSPost2010PropOp28
 70
     1
102
RTVSPost2010Prop29
280
     1
102
RTVSPost2010PropOp29
 70
     1
102
RTVSPost2010Prop30
280
     1
102
RTVSPost2010PropOp30
 70
     1
102
RTVSPost2010Prop31
280
     0
102
RTVSPost2010PropOp31
 70
     1
102
RTVSPost2010Prop32
280
     0
102
RTVSPost2010PropOp32
 70
     1
102
RTVSPost2010Prop33
280
     0
102
RTVSPost2010PropOp33
 70
     1
102
RTVSPost2010Prop34
280
     0
102
RTVSPost2010PropOp34
 70
     1
102
RTVSPost2010Prop35
280
     0
102
RTVSPost2010PropOp35
 70
     1
102
RTVSPost2010Prop36
280
     0
102
RTVSPost2010PropOp36
 70
     1
102
RTVSPost2010Prop37
 90
       50
102
RTVSPost2010PropOp37
 70
     1
102
RTVSPost2010Prop38
140
0.0
102
RTVSPost2010PropOp38
 70
     1
102
RTVSPost2010Prop39
140
1.0
102
RTVSPost2010PropOp39
 70
     1
102
RTVSPost2010Prop40
 90
        0
102
RTVSPost2010PropOp40
 70
     1
102
RTVSPost2010Prop41ColorIndex
 90
       18
102
RTVSPost2010Prop41ColorRGB
 90
        0
102
RTVSPost2010PropOp41
 70
     1
102
RTVSPost2010Prop42
 90
       50
102
RTVSPost2010PropOp42
 70
     1
102
RTVSPost2010Prop43
 90
        3
102
RTVSPost2010PropOp43
 70
     1
102
RTVSPost2010Prop44ColorIndex
 90
        5
102
RTVSPost2010Prop44ColorRGB
 90
      255
102
RTVSPost2010PropOp44
 70
     1
102
RTVSPost2010Prop45
280
     0
102
RTVSPost2010PropOp45
 70
     1
102
RTVSPost2010Prop46
 90
       50
102
RTVSPost2010PropOp46
 70
     1
102
RTVSPost2010Prop47
 90
       50
102
RTVSPost2010PropOp47
 70
     1
102
RTVSPost2010Prop48
 90
       50
102
RTVSPost2010PropOp48
 70
     1
102
RTVSPost2010Prop49
280
     0
102
RTVSPost2010PropOp49
 70
     1
102
RTVSPost2010Prop50
 90
       50
102
RTVSPost2010PropOp50
 70
     1
102
RTVSPost2010Prop51ColorIndex
 90
      256
102
RTVSPost2010Prop51ColorRGB
 90
-16777216
102
RTVSPost2010PropOp51
 70
     0
102
RTVSPost2010Prop52
140
1.0
102
RTVSPost2010PropOp52
 70
     0
102
RTVSPost2010Prop53
 90
        2
102
RTVSPost2010PropOp53
 70
     1
102
RTVSPost2010Prop54
  1
strokes_ogs.tif
102
RTVSPost2010PropOp54
 70
     1
102
RTVSPost2010Prop55
280
     0
102
RTVSPost2010PropOp55
 70
     1
102
RTVSPost2010Prop56
140
1.0
102
RTVSPost2010PropOp56
 70
     1
102
RTVSPost2010Prop57
140
1.0
102
RTVSPost2010PropOp57
 70
     1
  0
XRECORD
  5
18B
102
{ACAD_REACTORS
330
18A
102
}
330
18A
100
AcDbXrecord
280
     1
102
RTVSPost2010Prop28
280
     0
102
RTVSPost2010PropOp28
 70
     1
102
RTVSPost2010Prop29
280
     1
102
RTVSPost2010PropOp29
 70
     1
102
RTVSPost2010Prop30
280
     1
102
RTVSPost2010PropOp30
 70
     1
102
RTVSPost2010Prop31
280
     0
102
RTVSPost2010PropOp31
 70
     1
102
RTVSPost2010Prop32
280
     0
102
RTVSPost2010PropOp32
 70
     1
102
RTVSPost2010Prop33
280
     0
102
RTVSPost2010PropOp33
 70
     1
102
RTVSPost2010Prop34
280
     0
102
RTVSPost2010PropOp34
 70
     1
102
RTVSPost2010Prop35
280
     0
102
RTVSPost2010PropOp35
 70
     1
102
RTVSPost2010Prop36
280
     0
102
RTVSPost2010PropOp36
 70
     1
102
RTVSPost2010Prop37
 90
       50
102
RTVSPost2010PropOp37
 70
     1
102
RTVSPost2010Prop38
140
0.0
102
RTVSPost2010PropOp38
 70
     1
102
RTVSPost2010Prop39
140
1.0
102
RTVSPost2010PropOp39
 70
     1
102
RTVSPost2010Prop40
 90
        0
102
RTVSPost2010PropOp40
 70
     1
102
RTVSPost2010Prop41ColorIndex
 90
       18
102
RTVSPost2010Prop41ColorRGB
 90
        0
102
RTVSPost2010PropOp41
 70
     1
102
RTVSPost2010Prop42
 90
       50
102
RTVSPost2010PropOp42
 70
     1
102
RTVSPost2010Prop43
 90
        3
102
RTVSPost2010PropOp43
 70
     1
102
RTVSPost2010Prop44ColorIndex
 90
        5
102
RTVSPost2010Prop44ColorRGB
 90
      255
102
RTVSPost2010PropOp44
 70
     1
102
RTVSPost2010Prop45
280
     0
102
RTVSPost2010PropOp45
 70
     1
102
RTVSPost2010Prop46
 90
       50
102
RTVSPost2010PropOp46
 70
     1
102
RTVSPost2010Prop47
 90
       50
102
RTVSPost2010PropOp47
 70
     1
102
RTVSPost2010Prop48
 90
       50
102
RTVSPost2010PropOp48
 70
     1
102
RTVSPost2010Prop49
280
     0
102
RTVSPost2010PropOp49
 70
     1
102
RTVSPost2010Prop50
 90
       50
102
RTVSPost2010PropOp50
 70
     1
102
RTVSPost2010Prop51ColorIndex
 90
      256
102
RTVSPost2010Prop51ColorRGB
 90
-16777216
102
RTVSPost2010PropOp51
 70
     0
102
RTVSPost2010Prop52
140
1.0
102
RTVSPost2010PropOp52
 70
     0
102
RTVSPost2010Prop53
 90
        2
102
RTVSPost2010PropOp53
 70
     1
102
RTVSPost2010Prop54
  1
strokes_ogs.tif
102
RTVSPost2010PropOp54
 70
     1
102
RTVSPost2010Prop55
280
     0
102
RTVSPost2010PropOp55
 70
     1
102
RTVSPost2010Prop56
140
1.0
102
RTVSPost2010PropOp56
 70
     1
102
RTVSPost2010Prop57
140
1.0
102
RTVSPost2010PropOp57
 70
     1
  0
XRECORD
  5
18D
102
{ACAD_REACTORS
330
18C
102
}
330
18C
100
AcDbXrecord
280
     1
102
RTVSPost2010Prop28
280
     0
102
RTVSPost2010PropOp28
 70
     1
102
RTVSPost2010Prop29
280
     1
102
RTVSPost2010PropOp29
 70
     1
102
RTVSPost2010Prop30
280
     1
102
RTVSPost2010PropOp30
 70
     1
102
RTVSPost2010Prop31
280
     0
102
RTVSPost2010PropOp31
 70
     1
102
RTVSPost2010Prop32
280
     0
102
RTVSPost2010PropOp32
 70
     1
102
RTVSPost2010Prop33
280
     0
102
RTVSPost2010PropOp33
 70
     1
102
RTVSPost2010Prop34
280
     0
102
RTVSPost2010PropOp34
 70
     1
102
RTVSPost2010Prop35
280
     0
102
RTVSPost2010PropOp35
 70
     1
102
RTVSPost2010Prop36
280
     0
102
RTVSPost2010PropOp36
 70
     1
102
RTVSPost2010Prop37
 90
       50
102
RTVSPost2010PropOp37
 70
     1
102
RTVSPost2010Prop38
140
0.0
102
RTVSPost2010PropOp38
 70
     1
102
RTVSPost2010Prop39
140
1.0
102
RTVSPost2010PropOp39
 70
     1
102
RTVSPost2010Prop40
 90
        0
102
RTVSPost2010PropOp40
 70
     1
102
RTVSPost2010Prop41ColorIndex
 90
       18
102
RTVSPost2010Prop41ColorRGB
 90
        0
102
RTVSPost2010PropOp41
 70
     1
102
RTVSPost2010Prop42
 90
       50
102
RTVSPost2010PropOp42
 70
     1
102
RTVSPost2010Prop43
 90
        3
102
RTVSPost2010PropOp43
 70
     1
102
RTVSPost2010Prop44ColorIndex
 90
        5
102
RTVSPost2010Prop44ColorRGB
 90
      255
102
RTVSPost2010PropOp44
 70
     1
102
RTVSPost2010Prop45
280
     0
102
RTVSPost2010PropOp45
 70
     1
102
RTVSPost2010Prop46
 90
       50
102
RTVSPost2010PropOp46
 70
     1
102
RTVSPost2010Prop47
 90
       50
102
RTVSPost2010PropOp47
 70
     1
102
RTVSPost2010Prop48
 90
       50
102
RTVSPost2010PropOp48
 70
     1
102
RTVSPost2010Prop49
280
     0
102
RTVSPost2010PropOp49
 70
     1
102
RTVSPost2010Prop50
 90
       50
102
RTVSPost2010PropOp50
 70
     1
102
RTVSPost2010Prop51ColorIndex
 90
      256
102
RTVSPost2010Prop51ColorRGB
 90
-16777216
102
RTVSPost2010PropOp51
 70
     0
102
RTVSPost2010Prop52
140
1.0
102
RTVSPost2010PropOp52
 70
     0
102
RTVSPost2010Prop53
 90
        2
102
RTVSPost2010PropOp53
 70
     1
102
RTVSPost2010Prop54
  1
strokes_ogs.tif
102
RTVSPost2010PropOp54
 70
     1
102
RTVSPost2010Prop55
280
     0
102
RTVSPost2010PropOp55
 70
     1
102
RTVSPost2010Prop56
140
1.0
102
RTVSPost2010PropOp56
 70
     1
102
RTVSPost2010Prop57
140
1.0
102
RTVSPost2010PropOp57
 70
     1
  0
XRECORD
  5
195
102
{ACAD_REACTORS
330
194
102
}
330
194
100
AcDbXrecord
280
     1
102
RTVSPost2010Prop28
280
     0
102
RTVSPost2010PropOp28
 70
     1
102
RTVSPost2010Prop29
280
     1
102
RTVSPost2010PropOp29
 70
     1
102
RTVSPost2010Prop30
280
     1
102
RTVSPost2010PropOp30
 70
     1
102
RTVSPost2010Prop31
280
     0
102
RTVSPost2010PropOp31
 70
     1
102
RTVSPost2010Prop32
280
     0
102
RTVSPost2010PropOp32
 70
     1
102
RTVSPost2010Prop33
280
     0
102
RTVSPost2010PropOp33
 70
     1
102
RTVSPost2010Prop34
280
     0
102
RTVSPost2010PropOp34
 70
     1
102
RTVSPost2010Prop35
280
     0
102
RTVSPost2010PropOp35
 70
     1
102
RTVSPost2010Prop36
280
     0
102
RTVSPost2010PropOp36
 70
     1
102
RTVSPost2010Prop37
 90
       50
102
RTVSPost2010PropOp37
 70
     1
102
RTVSPost2010Prop38
140
0.0
102
RTVSPost2010PropOp38
 70
     1
102
RTVSPost2010Prop39
140
1.0
102
RTVSPost2010PropOp39
 70
     1
102
RTVSPost2010Prop40
 90
        0
102
RTVSPost2010PropOp40
 70
     1
102
RTVSPost2010Prop41ColorIndex
 90
       18
102
RTVSPost2010Prop41ColorRGB
 90
        0
102
RTVSPost2010PropOp41
 70
     1
102
RTVSPost2010Prop42
 90
       50
102
RTVSPost2010PropOp42
 70
     1
102
RTVSPost2010Prop43
 90
        3
102
RTVSPost2010PropOp43
 70
     1
102
RTVSPost2010Prop44ColorIndex
 90
        5
102
RTVSPost2010Prop44ColorRGB
 90
      255
102
RTVSPost2010PropOp44
 70
     1
102
RTVSPost2010Prop45
280
     0
102
RTVSPost2010PropOp45
 70
     1
102
RTVSPost2010Prop46
 90
       50
102
RTVSPost2010PropOp46
 70
     1
102
RTVSPost2010Prop47
 90
       50
102
RTVSPost2010PropOp47
 70
     1
102
RTVSPost2010Prop48
 90
       50
102
RTVSPost2010PropOp48
 70
     1
102
RTVSPost2010Prop49
280
     0
102
RTVSPost2010PropOp49
 70
     1
102
RTVSPost2010Prop50
 90
       50
102
RTVSPost2010PropOp50
 70
     1
102
RTVSPost2010Prop51ColorIndex
 90
      256
102
RTVSPost2010Prop51ColorRGB
 90
-16777216
102
RTVSPost2010PropOp51
 70
     0
102
RTVSPost2010Prop52
140
1.0
102
RTVSPost2010PropOp52
 70
     0
102
RTVSPost2010Prop53
 90
        2
102
RTVSPost2010PropOp53
 70
     1
102
RTVSPost2010Prop54
  1
strokes_ogs.tif
102
RTVSPost2010PropOp54
 70
     1
102
RTVSPost2010Prop55
280
     0
102
RTVSPost2010PropOp55
 70
     1
102
RTVSPost2010Prop56
140
1.0
102
RTVSPost2010PropOp56
 70
     1
102
RTVSPost2010Prop57
140
1.0
102
RTVSPost2010PropOp57
 70
     1
  0
XRECORD
  5
1B1
102
{ACAD_REACTORS
330
1B0
102
}
330
1B0
100
AcDbXrecord
280
     1
102
RTVSPost2010Prop28
280
     0
102
RTVSPost2010PropOp28
 70
     0
102
RTVSPost2010Prop29
280
     1
102
RTVSPost2010PropOp29
 70
     0
102
RTVSPost2010Prop30
280
     1
102
RTVSPost2010PropOp30
 70
     0
102
RTVSPost2010Prop31
280
     0
102
RTVSPost2010PropOp31
 70
     0
102
RTVSPost2010Prop32
280
     0
102
RTVSPost2010PropOp32
 70
     0
102
RTVSPost2010Prop33
280
     0
102
RTVSPost2010PropOp33
 70
     0
102
RTVSPost2010Prop34
280
     0
102
RTVSPost2010PropOp34
 70
     0
102
RTVSPost2010Prop35
280
     0
102
RTVSPost2010PropOp35
 70
     0
102
RTVSPost2010Prop36
280
     0
102
RTVSPost2010PropOp36
 70
     0
102
RTVSPost2010Prop37
 90
       50
102
RTVSPost2010PropOp37
 70
     0
102
RTVSPost2010Prop38
140
0.0
102
RTVSPost2010PropOp38
 70
     0
102
RTVSPost2010Prop39
140
1.0
102
RTVSPost2010PropOp39
 70
     0
102
RTVSPost2010Prop40
 90
        0
102
RTVSPost2010PropOp40
 70
     0
102
RTVSPost2010Prop41ColorIndex
 90
       18
102
RTVSPost2010Prop41ColorRGB
 90
        0
102
RTVSPost2010PropOp41
 70
     0
102
RTVSPost2010Prop42
 90
       50
102
RTVSPost2010PropOp42
 70
     0
102
RTVSPost2010Prop43
 90
        3
102
RTVSPost2010PropOp43
 70
     0
102
RTVSPost2010Prop44ColorIndex
 90
        5
102
RTVSPost2010Prop44ColorRGB
 90
      255
102
RTVSPost2010PropOp44
 70
     0
102
RTVSPost2010Prop45
280
     0
102
RTVSPost2010PropOp45
 70
     0
102
RTVSPost2010Prop46
 90
       50
102
RTVSPost2010PropOp46
 70
     0
102
RTVSPost2010Prop47
 90
       50
102
RTVSPost2010PropOp47
 70
     0
102
RTVSPost2010Prop48
 90
       50
102
RTVSPost2010PropOp48
 70
     0
102
RTVSPost2010Prop49
280
     0
102
RTVSPost2010PropOp49
 70
     0
102
RTVSPost2010Prop50
 90
       50
102
RTVSPost2010PropOp50
 70
     0
102
RTVSPost2010Prop51ColorIndex
 90
      256
102
RTVSPost2010Prop51ColorRGB
 90
-16777216
102
RTVSPost2010PropOp51
 70
     0
102
RTVSPost2010Prop52
140
1.0
102
RTVSPost2010PropOp52
 70
     0
102
RTVSPost2010Prop53
 90
        2
102
RTVSPost2010PropOp53
 70
     0
102
RTVSPost2010Prop54
  1
strokes_ogs.tif
102
RTVSPost2010PropOp54
 70
     0
102
RTVSPost2010Prop55
280
     0
102
RTVSPost2010PropOp55
 70
     0
102
RTVSPost2010Prop56
140
1.0
102
RTVSPost2010PropOp56
 70
     0
102
RTVSPost2010Prop57
140
1.0
102
RTVSPost2010PropOp57
 70
     0
  0
XRECORD
  5
1A1
102
{ACAD_REACTORS
330
1A0
102
}
330
1A0
100
AcDbXrecord
280
     1
102
RTVSPost2010Prop28
280
     0
102
RTVSPost2010PropOp28
 70
     1
102
RTVSPost2010Prop29
280
     1
102
RTVSPost2010PropOp29
 70
     1
102
RTVSPost2010Prop30
280
     1
102
RTVSPost2010PropOp30
 70
     1
102
RTVSPost2010Prop31
280
     0
102
RTVSPost2010PropOp31
 70
     1
102
RTVSPost2010Prop32
280
     0
102
RTVSPost2010PropOp32
 70
     1
102
RTVSPost2010Prop33
280
     0
102
RTVSPost2010PropOp33
 70
     1
102
RTVSPost2010Prop34
280
     0
102
RTVSPost2010PropOp34
 70
     1
102
RTVSPost2010Prop35
280
     0
102
RTVSPost2010PropOp35
 70
     1
102
RTVSPost2010Prop36
280
     0
102
RTVSPost2010PropOp36
 70
     1
102
RTVSPost2010Prop37
 90
       50
102
RTVSPost2010PropOp37
 70
     1
102
RTVSPost2010Prop38
140
0.0
102
RTVSPost2010PropOp38
 70
     1
102
RTVSPost2010Prop39
140
1.0
102
RTVSPost2010PropOp39
 70
     1
102
RTVSPost2010Prop40
 90
        0
102
RTVSPost2010PropOp40
 70
     1
102
RTVSPost2010Prop41ColorIndex
 90
       18
102
RTVSPost2010Prop41ColorRGB
 90
        0
102
RTVSPost2010PropOp41
 70
     1
102
RTVSPost2010Prop42
 90
       50
102
RTVSPost2010PropOp42
 70
     1
102
RTVSPost2010Prop43
 90
        3
102
RTVSPost2010PropOp43
 70
     1
102
RTVSPost2010Prop44ColorIndex
 90
        5
102
RTVSPost2010Prop44ColorRGB
 90
      255
102
RTVSPost2010PropOp44
 70
     1
102
RTVSPost2010Prop45
280
     0
102
RTVSPost2010PropOp45
 70
     1
102
RTVSPost2010Prop46
 90
       50
102
RTVSPost2010PropOp46
 70
     1
102
RTVSPost2010Prop47
 90
       50
102
RTVSPost2010PropOp47
 70
     1
102
RTVSPost2010Prop48
 90
       50
102
RTVSPost2010PropOp48
 70
     1
102
RTVSPost2010Prop49
280
     0
102
RTVSPost2010PropOp49
 70
     1
102
RTVSPost2010Prop50
 90
       50
102
RTVSPost2010PropOp50
 70
     1
102
RTVSPost2010Prop51ColorIndex
 90
      256
102
RTVSPost2010Prop51ColorRGB
 90
-16777216
102
RTVSPost2010PropOp51
 70
     0
102
RTVSPost2010Prop52
140
1.0
102
RTVSPost2010PropOp52
 70
     0
102
RTVSPost2010Prop53
 90
        2
102
RTVSPost2010PropOp53
 70
     1
102
RTVSPost2010Prop54
  1
strokes_ogs.tif
102
RTVSPost2010PropOp54
 70
     1
102
RTVSPost2010Prop55
280
     0
102
RTVSPost2010PropOp55
 70
     1
102
RTVSPost2010Prop56
140
1.0
102
RTVSPost2010PropOp56
 70
     1
102
RTVSPost2010Prop57
140
1.0
102
RTVSPost2010PropOp57
 70
     1
  0
XRECORD
  5
1B3
102
{ACAD_REACTORS
330
1B2
102
}
330
1B2
100
AcDbXrecord
280
     1
102
RTVSPost2010Prop28
280
     0
102
RTVSPost2010PropOp28
 70
     0
102
RTVSPost2010Prop29
280
     1
102
RTVSPost2010PropOp29
 70
     0
102
RTVSPost2010Prop30
280
     1
102
RTVSPost2010PropOp30
 70
     0
102
RTVSPost2010Prop31
280
     0
102
RTVSPost2010PropOp31
 70
     0
102
RTVSPost2010Prop32
280
     0
102
RTVSPost2010PropOp32
 70
     0
102
RTVSPost2010Prop33
280
     0
102
RTVSPost2010PropOp33
 70
     0
102
RTVSPost2010Prop34
280
     0
102
RTVSPost2010PropOp34
 70
     0
102
RTVSPost2010Prop35
280
     0
102
RTVSPost2010PropOp35
 70
     0
102
RTVSPost2010Prop36
280
     0
102
RTVSPost2010PropOp36
 70
     0
102
RTVSPost2010Prop37
 90
       50
102
RTVSPost2010PropOp37
 70
     0
102
RTVSPost2010Prop38
140
0.0
102
RTVSPost2010PropOp38
 70
     0
102
RTVSPost2010Prop39
140
1.0
102
RTVSPost2010PropOp39
 70
     0
102
RTVSPost2010Prop40
 90
        0
102
RTVSPost2010PropOp40
 70
     0
102
RTVSPost2010Prop41ColorIndex
 90
       18
102
RTVSPost2010Prop41ColorRGB
 90
        0
102
RTVSPost2010PropOp41
 70
     0
102
RTVSPost2010Prop42
 90
       50
102
RTVSPost2010PropOp42
 70
     0
102
RTVSPost2010Prop43
 90
        3
102
RTVSPost2010PropOp43
 70
     0
102
RTVSPost2010Prop44ColorIndex
 90
        5
102
RTVSPost2010Prop44ColorRGB
 90
      255
102
RTVSPost2010PropOp44
 70
     0
102
RTVSPost2010Prop45
280
     0
102
RTVSPost2010PropOp45
 70
     0
102
RTVSPost2010Prop46
 90
       50
102
RTVSPost2010PropOp46
 70
     0
102
RTVSPost2010Prop47
 90
       50
102
RTVSPost2010PropOp47
 70
     0
102
RTVSPost2010Prop48
 90
       50
102
RTVSPost2010PropOp48
 70
     0
102
RTVSPost2010Prop49
280
     0
102
RTVSPost2010PropOp49
 70
     0
102
RTVSPost2010Prop50
 90
       50
102
RTVSPost2010PropOp50
 70
     0
102
RTVSPost2010Prop51ColorIndex
 90
      256
102
RTVSPost2010Prop51ColorRGB
 90
-16777216
102
RTVSPost2010PropOp51
 70
     0
102
RTVSPost2010Prop52
140
1.0
102
RTVSPost2010PropOp52
 70
     0
102
RTVSPost2010Prop53
 90
        2
102
RTVSPost2010PropOp53
 70
     0
102
RTVSPost2010Prop54
  1
strokes_ogs.tif
102
RTVSPost2010PropOp54
 70
     0
102
RTVSPost2010Prop55
280
     0
102
RTVSPost2010PropOp55
 70
     0
102
RTVSPost2010Prop56
140
1.0
102
RTVSPost2010PropOp56
 70
     0
102
RTVSPost2010Prop57
140
1.0
102
RTVSPost2010PropOp57
 70
     0
  0
XRECORD
  5
199
102
{ACAD_REACTORS
330
198
102
}
330
198
100
AcDbXrecord
280
     1
102
RTVSPost2010Prop28
280
     0
102
RTVSPost2010PropOp28
 70
     1
102
RTVSPost2010Prop29
280
     1
102
RTVSPost2010PropOp29
 70
     1
102
RTVSPost2010Prop30
280
     1
102
RTVSPost2010PropOp30
 70
     1
102
RTVSPost2010Prop31
280
     0
102
RTVSPost2010PropOp31
 70
     1
102
RTVSPost2010Prop32
280
     0
102
RTVSPost2010PropOp32
 70
     1
102
RTVSPost2010Prop33
280
     0
102
RTVSPost2010PropOp33
 70
     1
102
RTVSPost2010Prop34
280
     0
102
RTVSPost2010PropOp34
 70
     1
102
RTVSPost2010Prop35
280
     0
102
RTVSPost2010PropOp35
 70
     1
102
RTVSPost2010Prop36
280
     0
102
RTVSPost2010PropOp36
 70
     1
102
RTVSPost2010Prop37
 90
       50
102
RTVSPost2010PropOp37
 70
     1
102
RTVSPost2010Prop38
140
0.0
102
RTVSPost2010PropOp38
 70
     1
102
RTVSPost2010Prop39
140
1.0
102
RTVSPost2010PropOp39
 70
     1
102
RTVSPost2010Prop40
 90
        0
102
RTVSPost2010PropOp40
 70
     1
102
RTVSPost2010Prop41ColorIndex
 90
       18
102
RTVSPost2010Prop41ColorRGB
 90
        0
102
RTVSPost2010PropOp41
 70
     1
102
RTVSPost2010Prop42
 90
       50
102
RTVSPost2010PropOp42
 70
     1
102
RTVSPost2010Prop43
 90
        3
102
RTVSPost2010PropOp43
 70
     1
102
RTVSPost2010Prop44ColorIndex
 90
        5
102
RTVSPost2010Prop44ColorRGB
 90
      255
102
RTVSPost2010PropOp44
 70
     1
102
RTVSPost2010Prop45
280
     0
102
RTVSPost2010PropOp45
 70
     1
102
RTVSPost2010Prop46
 90
       50
102
RTVSPost2010PropOp46
 70
     1
102
RTVSPost2010Prop47
 90
       50
102
RTVSPost2010PropOp47
 70
     1
102
RTVSPost2010Prop48
 90
       50
102
RTVSPost2010PropOp48
 70
     1
102
RTVSPost2010Prop49
280
     0
102
RTVSPost2010PropOp49
 70
     1
102
RTVSPost2010Prop50
 90
       50
102
RTVSPost2010PropOp50
 70
     1
102
RTVSPost2010Prop51ColorIndex
 90
      256
102
RTVSPost2010Prop51ColorRGB
 90
-16777216
102
RTVSPost2010PropOp51
 70
     0
102
RTVSPost2010Prop52
140
1.0
102
RTVSPost2010PropOp52
 70
     0
102
RTVSPost2010Prop53
 90
        2
102
RTVSPost2010PropOp53
 70
     1
102
RTVSPost2010Prop54
  1
strokes_ogs.tif
102
RTVSPost2010PropOp54
 70
     1
102
RTVSPost2010Prop55
280
     0
102
RTVSPost2010PropOp55
 70
     1
102
RTVSPost2010Prop56
140
1.0
102
RTVSPost2010PropOp56
 70
     1
102
RTVSPost2010Prop57
140
1.0
102
RTVSPost2010PropOp57
 70
     1
  0
XRECORD
  5
1AF
102
{ACAD_REACTORS
330
1AE
102
}
330
1AE
100
AcDbXrecord
280
     1
102
RTVSPost2010Prop28
280
     0
102
RTVSPost2010PropOp28
 70
     1
102
RTVSPost2010Prop29
280
     1
102
RTVSPost2010PropOp29
 70
     1
102
RTVSPost2010Prop30
280
     1
102
RTVSPost2010PropOp30
 70
     1
102
RTVSPost2010Prop31
280
     0
102
RTVSPost2010PropOp31
 70
     1
102
RTVSPost2010Prop32
280
     0
102
RTVSPost2010PropOp32
 70
     1
102
RTVSPost2010Prop33
280
     0
102
RTVSPost2010PropOp33
 70
     1
102
RTVSPost2010Prop34
280
     0
102
RTVSPost2010PropOp34
 70
     1
102
RTVSPost2010Prop35
280
     0
102
RTVSPost2010PropOp35
 70
     1
102
RTVSPost2010Prop36
280
     0
102
RTVSPost2010PropOp36
 70
     1
102
RTVSPost2010Prop37
 90
       50
102
RTVSPost2010PropOp37
 70
     1
102
RTVSPost2010Prop38
140
0.0
102
RTVSPost2010PropOp38
 70
     1
102
RTVSPost2010Prop39
140
1.0
102
RTVSPost2010PropOp39
 70
     1
102
RTVSPost2010Prop40
 90
        0
102
RTVSPost2010PropOp40
 70
     1
102
RTVSPost2010Prop41ColorIndex
 90
       18
102
RTVSPost2010Prop41ColorRGB
 90
        0
102
RTVSPost2010PropOp41
 70
     1
102
RTVSPost2010Prop42
 90
       50
102
RTVSPost2010PropOp42
 70
     1
102
RTVSPost2010Prop43
 90
        3
102
RTVSPost2010PropOp43
 70
     1
102
RTVSPost2010Prop44ColorIndex
 90
        5
102
RTVSPost2010Prop44ColorRGB
 90
      255
102
RTVSPost2010PropOp44
 70
     1
102
RTVSPost2010Prop45
280
     0
102
RTVSPost2010PropOp45
 70
     1
102
RTVSPost2010Prop46
 90
       50
102
RTVSPost2010PropOp46
 70
     1
102
RTVSPost2010Prop47
 90
       50
102
RTVSPost2010PropOp47
 70
     1
102
RTVSPost2010Prop48
 90
       50
102
RTVSPost2010PropOp48
 70
     1
102
RTVSPost2010Prop49
280
     0
102
RTVSPost2010PropOp49
 70
     1
102
RTVSPost2010Prop50
 90
       50
102
RTVSPost2010PropOp50
 70
     1
102
RTVSPost2010Prop51ColorIndex
 90
      256
102
RTVSPost2010Prop51ColorRGB
 90
-16777216
102
RTVSPost2010PropOp51
 70
     0
102
RTVSPost2010Prop52
140
1.0
102
RTVSPost2010PropOp52
 70
     0
102
RTVSPost2010Prop53
 90
        2
102
RTVSPost2010PropOp53
 70
     1
102
RTVSPost2010Prop54
  1
strokes_ogs.tif
102
RTVSPost2010PropOp54
 70
     1
102
RTVSPost2010Prop55
280
     0
102
RTVSPost2010PropOp55
 70
     1
102
RTVSPost2010Prop56
140
1.0
102
RTVSPost2010PropOp56
 70
     1
102
RTVSPost2010Prop57
140
1.0
102
RTVSPost2010PropOp57
 70
     1
  0
XRECORD
  5
1AD
102
{ACAD_REACTORS
330
1AC
102
}
330
1AC
100
AcDbXrecord
280
     1
102
RTVSPost2010Prop28
280
     0
102
RTVSPost2010PropOp28
 70
     1
102
RTVSPost2010Prop29
280
     1
102
RTVSPost2010PropOp29
 70
     1
102
RTVSPost2010Prop30
280
     1
102
RTVSPost2010PropOp30
 70
     1
102
RTVSPost2010Prop31
280
     0
102
RTVSPost2010PropOp31
 70
     1
102
RTVSPost2010Prop32
280
     0
102
RTVSPost2010PropOp32
 70
     1
102
RTVSPost2010Prop33
280
     0
102
RTVSPost2010PropOp33
 70
     1
102
RTVSPost2010Prop34
280
     0
102
RTVSPost2010PropOp34
 70
     1
102
RTVSPost2010Prop35
280
     0
102
RTVSPost2010PropOp35
 70
     1
102
RTVSPost2010Prop36
280
     0
102
RTVSPost2010PropOp36
 70
     1
102
RTVSPost2010Prop37
 90
       50
102
RTVSPost2010PropOp37
 70
     1
102
RTVSPost2010Prop38
140
0.0
102
RTVSPost2010PropOp38
 70
     1
102
RTVSPost2010Prop39
140
1.0
102
RTVSPost2010PropOp39
 70
     1
102
RTVSPost2010Prop40
 90
        0
102
RTVSPost2010PropOp40
 70
     1
102
RTVSPost2010Prop41ColorIndex
 90
       18
102
RTVSPost2010Prop41ColorRGB
 90
        0
102
RTVSPost2010PropOp41
 70
     1
102
RTVSPost2010Prop42
 90
       50
102
RTVSPost2010PropOp42
 70
     1
102
RTVSPost2010Prop43
 90
        3
102
RTVSPost2010PropOp43
 70
     1
102
RTVSPost2010Prop44ColorIndex
 90
        5
102
RTVSPost2010Prop44ColorRGB
 90
      255
102
RTVSPost2010PropOp44
 70
     1
102
RTVSPost2010Prop45
280
     0
102
RTVSPost2010PropOp45
 70
     1
102
RTVSPost2010Prop46
 90
       50
102
RTVSPost2010PropOp46
 70
     1
102
RTVSPost2010Prop47
 90
       50
102
RTVSPost2010PropOp47
 70
     1
102
RTVSPost2010Prop48
 90
       50
102
RTVSPost2010PropOp48
 70
     1
102
RTVSPost2010Prop49
280
     0
102
RTVSPost2010PropOp49
 70
     1
102
RTVSPost2010Prop50
 90
       50
102
RTVSPost2010PropOp50
 70
     1
102
RTVSPost2010Prop51ColorIndex
 90
      256
102
RTVSPost2010Prop51ColorRGB
 90
-16777216
102
RTVSPost2010PropOp51
 70
     0
102
RTVSPost2010Prop52
140
1.0
102
RTVSPost2010PropOp52
 70
     0
102
RTVSPost2010Prop53
 90
        2
102
RTVSPost2010PropOp53
 70
     1
102
RTVSPost2010Prop54
  1
strokes_ogs.tif
102
RTVSPost2010PropOp54
 70
     1
102
RTVSPost2010Prop55
280
     0
102
RTVSPost2010PropOp55
 70
     1
102
RTVSPost2010Prop56
140
1.0
102
RTVSPost2010PropOp56
 70
     1
102
RTVSPost2010Prop57
140
1.0
102
RTVSPost2010PropOp57
 70
     1
  0
XRECORD
  5
1A7
102
{ACAD_REACTORS
330
1A6
102
}
330
1A6
100
AcDbXrecord
280
     1
102
RTVSPost2010Prop28
280
     0
102
RTVSPost2010PropOp28
 70
     1
102
RTVSPost2010Prop29
280
     1
102
RTVSPost2010PropOp29
 70
     1
102
RTVSPost2010Prop30
280
     1
102
RTVSPost2010PropOp30
 70
     1
102
RTVSPost2010Prop31
280
     0
102
RTVSPost2010PropOp31
 70
     1
102
RTVSPost2010Prop32
280
     0
102
RTVSPost2010PropOp32
 70
     1
102
RTVSPost2010Prop33
280
     0
102
RTVSPost2010PropOp33
 70
     1
102
RTVSPost2010Prop34
280
     0
102
RTVSPost2010PropOp34
 70
     1
102
RTVSPost2010Prop35
280
     0
102
RTVSPost2010PropOp35
 70
     1
102
RTVSPost2010Prop36
280
     0
102
RTVSPost2010PropOp36
 70
     1
102
RTVSPost2010Prop37
 90
       50
102
RTVSPost2010PropOp37
 70
     1
102
RTVSPost2010Prop38
140
0.0
102
RTVSPost2010PropOp38
 70
     1
102
RTVSPost2010Prop39
140
1.0
102
RTVSPost2010PropOp39
 70
     1
102
RTVSPost2010Prop40
 90
        0
102
RTVSPost2010PropOp40
 70
     1
102
RTVSPost2010Prop41ColorIndex
 90
       18
102
RTVSPost2010Prop41ColorRGB
 90
        0
102
RTVSPost2010PropOp41
 70
     1
102
RTVSPost2010Prop42
 90
       50
102
RTVSPost2010PropOp42
 70
     1
102
RTVSPost2010Prop43
 90
        3
102
RTVSPost2010PropOp43
 70
     1
102
RTVSPost2010Prop44ColorIndex
 90
        5
102
RTVSPost2010Prop44ColorRGB
 90
      255
102
RTVSPost2010PropOp44
 70
     1
102
RTVSPost2010Prop45
280
     0
102
RTVSPost2010PropOp45
 70
     1
102
RTVSPost2010Prop46
 90
       50
102
RTVSPost2010PropOp46
 70
     1
102
RTVSPost2010Prop47
 90
       50
102
RTVSPost2010PropOp47
 70
     1
102
RTVSPost2010Prop48
 90
       50
102
RTVSPost2010PropOp48
 70
     1
102
RTVSPost2010Prop49
280
     0
102
RTVSPost2010PropOp49
 70
     1
102
RTVSPost2010Prop50
 90
       50
102
RTVSPost2010PropOp50
 70
     1
102
RTVSPost2010Prop51ColorIndex
 90
      256
102
RTVSPost2010Prop51ColorRGB
 90
-16777216
102
RTVSPost2010PropOp51
 70
     0
102
RTVSPost2010Prop52
140
1.0
102
RTVSPost2010PropOp52
 70
     0
102
RTVSPost2010Prop53
 90
        2
102
RTVSPost2010PropOp53
 70
     1
102
RTVSPost2010Prop54
  1
strokes_ogs.tif
102
RTVSPost2010PropOp54
 70
     1
102
RTVSPost2010Prop55
280
     0
102
RTVSPost2010PropOp55
 70
     1
102
RTVSPost2010Prop56
140
1.0
102
RTVSPost2010PropOp56
 70
     1
102
RTVSPost2010Prop57
140
1.0
102
RTVSPost2010PropOp57
 70
     1
  0
XRECORD
  5
1A9
102
{ACAD_REACTORS
330
1A8
102
}
330
1A8
100
AcDbXrecord
280
     1
102
RTVSPost2010Prop28
280
     0
102
RTVSPost2010PropOp28
 70
     1
102
RTVSPost2010Prop29
280
     1
102
RTVSPost2010PropOp29
 70
     1
102
RTVSPost2010Prop30
280
     1
102
RTVSPost2010PropOp30
 70
     1
102
RTVSPost2010Prop31
280
     0
102
RTVSPost2010PropOp31
 70
     1
102
RTVSPost2010Prop32
280
     0
102
RTVSPost2010PropOp32
 70
     1
102
RTVSPost2010Prop33
280
     0
102
RTVSPost2010PropOp33
 70
     1
102
RTVSPost2010Prop34
280
     0
102
RTVSPost2010PropOp34
 70
     1
102
RTVSPost2010Prop35
280
     0
102
RTVSPost2010PropOp35
 70
     1
102
RTVSPost2010Prop36
280
     0
102
RTVSPost2010PropOp36
 70
     1
102
RTVSPost2010Prop37
 90
       50
102
RTVSPost2010PropOp37
 70
     1
102
RTVSPost2010Prop38
140
0.0
102
RTVSPost2010PropOp38
 70
     1
102
RTVSPost2010Prop39
140
1.0
102
RTVSPost2010PropOp39
 70
     1
102
RTVSPost2010Prop40
 90
        0
102
RTVSPost2010PropOp40
 70
     1
102
RTVSPost2010Prop41ColorIndex
 90
       18
102
RTVSPost2010Prop41ColorRGB
 90
        0
102
RTVSPost2010PropOp41
 70
     1
102
RTVSPost2010Prop42
 90
       50
102
RTVSPost2010PropOp42
 70
     1
102
RTVSPost2010Prop43
 90
        3
102
RTVSPost2010PropOp43
 70
     1
102
RTVSPost2010Prop44ColorIndex
 90
        5
102
RTVSPost2010Prop44ColorRGB
 90
      255
102
RTVSPost2010PropOp44
 70
     1
102
RTVSPost2010Prop45
280
     0
102
RTVSPost2010PropOp45
 70
     1
102
RTVSPost2010Prop46
 90
       50
102
RTVSPost2010PropOp46
 70
     1
102
RTVSPost2010Prop47
 90
       50
102
RTVSPost2010PropOp47
 70
     1
102
RTVSPost2010Prop48
 90
       50
102
RTVSPost2010PropOp48
 70
     1
102
RTVSPost2010Prop49
280
     0
102
RTVSPost2010PropOp49
 70
     1
102
RTVSPost2010Prop50
 90
       50
102
RTVSPost2010PropOp50
 70
     1
102
RTVSPost2010Prop51ColorIndex
 90
      256
102
RTVSPost2010Prop51ColorRGB
 90
-16777216
102
RTVSPost2010PropOp51
 70
     0
102
RTVSPost2010Prop52
140
1.0
102
RTVSPost2010PropOp52
 70
     0
102
RTVSPost2010Prop53
 90
        2
102
RTVSPost2010PropOp53
 70
     1
102
RTVSPost2010Prop54
  1
strokes_ogs.tif
102
RTVSPost2010PropOp54
 70
     1
102
RTVSPost2010Prop55
280
     0
102
RTVSPost2010PropOp55
 70
     1
102
RTVSPost2010Prop56
140
1.0
102
RTVSPost2010PropOp56
 70
     1
102
RTVSPost2010Prop57
140
1.0
102
RTVSPost2010PropOp57
 70
     1
  0
XRECORD
  5
19F
102
{ACAD_REACTORS
330
19E
102
}
330
19E
100
AcDbXrecord
280
     1
102
RTVSPost2010Prop28
280
     0
102
RTVSPost2010PropOp28
 70
     1
102
RTVSPost2010Prop29
280
     1
102
RTVSPost2010PropOp29
 70
     1
102
RTVSPost2010Prop30
280
     1
102
RTVSPost2010PropOp30
 70
     1
102
RTVSPost2010Prop31
280
     0
102
RTVSPost2010PropOp31
 70
     1
102
RTVSPost2010Prop32
280
     0
102
RTVSPost2010PropOp32
 70
     1
102
RTVSPost2010Prop33
280
     0
102
RTVSPost2010PropOp33
 70
     1
102
RTVSPost2010Prop34
280
     0
102
RTVSPost2010PropOp34
 70
     1
102
RTVSPost2010Prop35
280
     0
102
RTVSPost2010PropOp35
 70
     1
102
RTVSPost2010Prop36
280
     0
102
RTVSPost2010PropOp36
 70
     1
102
RTVSPost2010Prop37
 90
       50
102
RTVSPost2010PropOp37
 70
     1
102
RTVSPost2010Prop38
140
0.0
102
RTVSPost2010PropOp38
 70
     1
102
RTVSPost2010Prop39
140
1.0
102
RTVSPost2010PropOp39
 70
     1
102
RTVSPost2010Prop40
 90
        0
102
RTVSPost2010PropOp40
 70
     1
102
RTVSPost2010Prop41ColorIndex
 90
       18
102
RTVSPost2010Prop41ColorRGB
 90
        0
102
RTVSPost2010PropOp41
 70
     1
102
RTVSPost2010Prop42
 90
       50
102
RTVSPost2010PropOp42
 70
     1
102
RTVSPost2010Prop43
 90
        3
102
RTVSPost2010PropOp43
 70
     1
102
RTVSPost2010Prop44ColorIndex
 90
        5
102
RTVSPost2010Prop44ColorRGB
 90
      255
102
RTVSPost2010PropOp44
 70
     1
102
RTVSPost2010Prop45
280
     0
102
RTVSPost2010PropOp45
 70
     1
102
RTVSPost2010Prop46
 90
       50
102
RTVSPost2010PropOp46
 70
     1
102
RTVSPost2010Prop47
 90
       50
102
RTVSPost2010PropOp47
 70
     1
102
RTVSPost2010Prop48
 90
       50
102
RTVSPost2010PropOp48
 70
     1
102
RTVSPost2010Prop49
280
     0
102
RTVSPost2010PropOp49
 70
     1
102
RTVSPost2010Prop50
 90
       50
102
RTVSPost2010PropOp50
 70
     1
102
RTVSPost2010Prop51ColorIndex
 90
      256
102
RTVSPost2010Prop51ColorRGB
 90
-16777216
102
RTVSPost2010PropOp51
 70
     0
102
RTVSPost2010Prop52
140
1.0
102
RTVSPost2010PropOp52
 70
     0
102
RTVSPost2010Prop53
 90
        2
102
RTVSPost2010PropOp53
 70
     1
102
RTVSPost2010Prop54
  1
strokes_ogs.tif
102
RTVSPost2010PropOp54
 70
     1
102
RTVSPost2010Prop55
280
     0
102
RTVSPost2010PropOp55
 70
     1
102
RTVSPost2010Prop56
140
1.0
102
RTVSPost2010PropOp56
 70
     1
102
RTVSPost2010Prop57
140
1.0
102
RTVSPost2010PropOp57
 70
     1
  0
XRECORD
  5
193
102
{ACAD_REACTORS
330
192
102
}
330
192
100
AcDbXrecord
280
     1
102
RTVSPost2010Prop28
280
     0
102
RTVSPost2010PropOp28
 70
     1
102
RTVSPost2010Prop29
280
     1
102
RTVSPost2010PropOp29
 70
     1
102
RTVSPost2010Prop30
280
     1
102
RTVSPost2010PropOp30
 70
     1
102
RTVSPost2010Prop31
280
     0
102
RTVSPost2010PropOp31
 70
     1
102
RTVSPost2010Prop32
280
     0
102
RTVSPost2010PropOp32
 70
     1
102
RTVSPost2010Prop33
280
     0
102
RTVSPost2010PropOp33
 70
     1
102
RTVSPost2010Prop34
280
     0
102
RTVSPost2010PropOp34
 70
     1
102
RTVSPost2010Prop35
280
     0
102
RTVSPost2010PropOp35
 70
     1
102
RTVSPost2010Prop36
280
     0
102
RTVSPost2010PropOp36
 70
     1
102
RTVSPost2010Prop37
 90
       50
102
RTVSPost2010PropOp37
 70
     1
102
RTVSPost2010Prop38
140
0.0
102
RTVSPost2010PropOp38
 70
     1
102
RTVSPost2010Prop39
140
1.0
102
RTVSPost2010PropOp39
 70
     1
102
RTVSPost2010Prop40
 90
        0
102
RTVSPost2010PropOp40
 70
     1
102
RTVSPost2010Prop41ColorIndex
 90
       18
102
RTVSPost2010Prop41ColorRGB
 90
        0
102
RTVSPost2010PropOp41
 70
     1
102
RTVSPost2010Prop42
 90
       50
102
RTVSPost2010PropOp42
 70
     1
102
RTVSPost2010Prop43
 90
        3
102
RTVSPost2010PropOp43
 70
     1
102
RTVSPost2010Prop44ColorIndex
 90
        5
102
RTVSPost2010Prop44ColorRGB
 90
      255
102
RTVSPost2010PropOp44
 70
     1
102
RTVSPost2010Prop45
280
     0
102
RTVSPost2010PropOp45
 70
     1
102
RTVSPost2010Prop46
 90
       50
102
RTVSPost2010PropOp46
 70
     1
102
RTVSPost2010Prop47
 90
       50
102
RTVSPost2010PropOp47
 70
     1
102
RTVSPost2010Prop48
 90
       50
102
RTVSPost2010PropOp48
 70
     1
102
RTVSPost2010Prop49
280
     0
102
RTVSPost2010PropOp49
 70
     1
102
RTVSPost2010Prop50
 90
       50
102
RTVSPost2010PropOp50
 70
     1
102
RTVSPost2010Prop51ColorIndex
 90
      256
102
RTVSPost2010Prop51ColorRGB
 90
-16777216
102
RTVSPost2010PropOp51
 70
     0
102
RTVSPost2010Prop52
140
1.0
102
RTVSPost2010PropOp52
 70
     0
102
RTVSPost2010Prop53
 90
        2
102
RTVSPost2010PropOp53
 70
     1
102
RTVSPost2010Prop54
  1
strokes_ogs.tif
102
RTVSPost2010PropOp54
 70
     1
102
RTVSPost2010Prop55
280
     0
102
RTVSPost2010PropOp55
 70
     1
102
RTVSPost2010Prop56
140
1.0
102
RTVSPost2010PropOp56
 70
     1
102
RTVSPost2010Prop57
140
1.0
102
RTVSPost2010PropOp57
 70
     1
  0
XRECORD
  5
1AB
102
{ACAD_REACTORS
330
1AA
102
}
330
1AA
100
AcDbXrecord
280
     1
102
RTVSPost2010Prop28
280
     0
102
RTVSPost2010PropOp28
 70
     1
102
RTVSPost2010Prop29
280
     1
102
RTVSPost2010PropOp29
 70
     1
102
RTVSPost2010Prop30
280
     1
102
RTVSPost2010PropOp30
 70
     1
102
RTVSPost2010Prop31
280
     0
102
RTVSPost2010PropOp31
 70
     1
102
RTVSPost2010Prop32
280
     0
102
RTVSPost2010PropOp32
 70
     1
102
RTVSPost2010Prop33
280
     0
102
RTVSPost2010PropOp33
 70
     1
102
RTVSPost2010Prop34
280
     0
102
RTVSPost2010PropOp34
 70
     1
102
RTVSPost2010Prop35
280
     0
102
RTVSPost2010PropOp35
 70
     1
102
RTVSPost2010Prop36
280
     0
102
RTVSPost2010PropOp36
 70
     1
102
RTVSPost2010Prop37
 90
       50
102
RTVSPost2010PropOp37
 70
     1
102
RTVSPost2010Prop38
140
0.0
102
RTVSPost2010PropOp38
 70
     1
102
RTVSPost2010Prop39
140
1.0
102
RTVSPost2010PropOp39
 70
     1
102
RTVSPost2010Prop40
 90
        0
102
RTVSPost2010PropOp40
 70
     1
102
RTVSPost2010Prop41ColorIndex
 90
       18
102
RTVSPost2010Prop41ColorRGB
 90
        0
102
RTVSPost2010PropOp41
 70
     1
102
RTVSPost2010Prop42
 90
       50
102
RTVSPost2010PropOp42
 70
     1
102
RTVSPost2010Prop43
 90
        3
102
RTVSPost2010PropOp43
 70
     1
102
RTVSPost2010Prop44ColorIndex
 90
        5
102
RTVSPost2010Prop44ColorRGB
 90
      255
102
RTVSPost2010PropOp44
 70
     1
102
RTVSPost2010Prop45
280
     0
102
RTVSPost2010PropOp45
 70
     1
102
RTVSPost2010Prop46
 90
       50
102
RTVSPost2010PropOp46
 70
     1
102
RTVSPost2010Prop47
 90
       50
102
RTVSPost2010PropOp47
 70
     1
102
RTVSPost2010Prop48
 90
       50
102
RTVSPost2010PropOp48
 70
     1
102
RTVSPost2010Prop49
280
     0
102
RTVSPost2010PropOp49
 70
     1
102
RTVSPost2010Prop50
 90
       50
102
RTVSPost2010PropOp50
 70
     1
102
RTVSPost2010Prop51ColorIndex
 90
      256
102
RTVSPost2010Prop51ColorRGB
 90
-16777216
102
RTVSPost2010PropOp51
 70
     0
102
RTVSPost2010Prop52
140
1.0
102
RTVSPost2010PropOp52
 70
     0
102
RTVSPost2010Prop53
 90
        2
102
RTVSPost2010PropOp53
 70
     1
102
RTVSPost2010Prop54
  1
strokes_ogs.tif
102
RTVSPost2010PropOp54
 70
     1
102
RTVSPost2010Prop55
280
     0
102
RTVSPost2010PropOp55
 70
     1
102
RTVSPost2010Prop56
140
1.0
102
RTVSPost2010PropOp56
 70
     1
102
RTVSPost2010Prop57
140
1.0
102
RTVSPost2010PropOp57
 70
     1
  0
ENDSEC
  0
EOF
