  0
SECTION
  2
HEADER
  9
$ACADVER
  1
AC1024
  9
$ACADMAINTVER
 70
   205
  9
$DWGCODEPAGE
  3
ANSI_1251
  9
$INSBASE
 10
0.0
 20
0.0
 30
0.0
  9
$EXTMIN
 10
1.000000000000000E+20
 20
1.000000000000000E+20
 30
1.000000000000000E+20
  9
$EXTMAX
 10
-1.000000000000000E+20
 20
-1.000000000000000E+20
 30
-1.000000000000000E+20
  9
$LIMMIN
 10
0.0
 20
0.0
  9
$LIMMAX
 10
12.0
 20
9.0
  9
$ORTHOMODE
 70
     0
  9
$REGENMODE
 70
     1
  9
$FILLMODE
 70
     1
  9
$QTEXTMODE
 70
     0
  9
$MIRRTEXT
 70
     1
  9
$LTSCALE
 40
1.0
  9
$ATTMODE
 70
     1
  9
$TEXTSIZE
 40
0.2
  9
$TRACEWID
 40
0.05
  9
$TEXTSTYLE
  7
Standard
  9
$CLAYER
  8
OracDecor_cornice_mouldings
  9
$CELTYPE
  6
ByLayer
  9
$CECOLOR
 62
   256
  9
$CELTSCALE
 40
1.0
  9
$DISPSILH
 70
     0
  9
$DIMSCALE
 40
1.0
  9
$DIMASZ
 40
0.18
  9
$DIMEXO
 40
0.0625
  9
$DIMDLI
 40
0.38
  9
$DIMRND
 40
0.0
  9
$DIMDLE
 40
0.0
  9
$DIMEXE
 40
0.18
  9
$DIMTP
 40
0.0
  9
$DIMTM
 40
0.0
  9
$DIMTXT
 40
0.18
  9
$DIMCEN
 40
0.09
  9
$DIMTSZ
 40
0.0
  9
$DIMTOL
 70
     0
  9
$DIMLIM
 70
     0
  9
$DIMTIH
 70
     1
  9
$DIMTOH
 70
     1
  9
$DIMSE1
 70
     0
  9
$DIMSE2
 70
     0
  9
$DIMTAD
 70
     0
  9
$DIMZIN
 70
     0
  9
$DIMBLK
  1

  9
$DIMASO
 70
     1
  9
$DIMSHO
 70
     1
  9
$DIMPOST
  1

  9
$DIMAPOST
  1

  9
$DIMALT
 70
     0
  9
$DIMALTD
 70
     2
  9
$DIMALTF
 40
25.4
  9
$DIMLFAC
 40
1.0
  9
$DIMTOFL
 70
     0
  9
$DIMTVP
 40
0.0
  9
$DIMTIX
 70
     0
  9
$DIMSOXD
 70
     0
  9
$DIMSAH
 70
     0
  9
$DIMBLK1
  1

  9
$DIMBLK2
  1

  9
$DIMSTYLE
  2
Standard
  9
$DIMCLRD
 70
     0
  9
$DIMCLRE
 70
     0
  9
$DIMCLRT
 70
     0
  9
$DIMTFAC
 40
1.0
  9
$DIMGAP
 40
0.09
  9
$DIMJUST
 70
     0
  9
$DIMSD1
 70
     0
  9
$DIMSD2
 70
     0
  9
$DIMTOLJ
 70
     1
  9
$DIMTZIN
 70
     0
  9
$DIMALTZ
 70
     0
  9
$DIMALTTZ
 70
     0
  9
$DIMUPT
 70
     0
  9
$DIMDEC
 70
     4
  9
$DIMTDEC
 70
     4
  9
$DIMALTU
 70
     2
  9
$DIMALTTD
 70
     2
  9
$DIMTXSTY
  7
Standard
  9
$DIMAUNIT
 70
     0
  9
$DIMADEC
 70
     0
  9
$DIMALTRND
 40
0.0
  9
$DIMAZIN
 70
     0
  9
$DIMDSEP
 70
    46
  9
$DIMATFIT
 70
     3
  9
$DIMFRAC
 70
     0
  9
$DIMLDRBLK
  1

  9
$DIMLUNIT
 70
     2
  9
$DIMLWD
 70
    -2
  9
$DIMLWE
 70
    -2
  9
$DIMTMOVE
 70
     0
  9
$DIMFXL
 40
1.0
  9
$DIMFXLON
 70
     0
  9
$DIMJOGANG
 40
0.7853981633974483
  9
$DIMTFILL
 70
     0
  9
$DIMTFILLCLR
 70
     0
  9
$DIMARCSYM
 70
     0
  9
$DIMLTYPE
  6

  9
$DIMLTEX1
  6

  9
$DIMLTEX2
  6

  9
$DIMTXTDIRECTION
 70
     0
  9
$LUNITS
 70
     2
  9
$LUPREC
 70
     4
  9
$SKETCHINC
 40
0.1
  9
$FILLETRAD
 40
0.5
  9
$AUNITS
 70
     0
  9
$AUPREC
 70
     0
  9
$MENU
  1
.
  9
$ELEVATION
 40
0.0
  9
$PELEVATION
 40
0.0
  9
$THICKNESS
 40
0.0
  9
$LIMCHECK
 70
     0
  9
$CHAMFERA
 40
0.5
  9
$CHAMFERB
 40
0.5
  9
$CHAMFERC
 40
1.0
  9
$CHAMFERD
 40
0.0
  9
$SKPOLY
 70
     0
  9
$TDCREATE
 40
2451380.930432396
  9
$TDUCREATE
 40
2451380.805432396
  9
$TDUPDATE
 40
2451380.966180555
  9
$TDUUPDATE
 40
2451380.841180556
  9
$TDINDWG
 40
0.0075617824
  9
$TDUSRTIMER
 40
0.0075527431
  9
$USRTIMER
 70
     1
  9
$ANGBASE
 50
0.0
  9
$ANGDIR
 70
     0
  9
$PDMODE
 70
     0
  9
$PDSIZE
 40
0.0
  9
$PLINEWID
 40
0.0
  9
$SPLFRAME
 70
     0
  9
$SPLINETYPE
 70
     6
  9
$SPLINESEGS
 70
     8
  9
$HANDSEED
  5
1AB
  9
$SURFTAB1
 70
     6
  9
$SURFTAB2
 70
     6
  9
$SURFTYPE
 70
     6
  9
$SURFU
 70
     6
  9
$SURFV
 70
     6
  9
$UCSBASE
  2

  9
$UCSNAME
  2

  9
$UCSORG
 10
0.0
 20
0.0
 30
0.0
  9
$UCSXDIR
 10
1.0
 20
0.0
 30
0.0
  9
$UCSYDIR
 10
0.0
 20
1.0
 30
0.0
  9
$UCSORTHOREF
  2

  9
$UCSORTHOVIEW
 70
     0
  9
$UCSORGTOP
 10
0.0
 20
0.0
 30
0.0
  9
$UCSORGBOTTOM
 10
0.0
 20
0.0
 30
0.0
  9
$UCSORGLEFT
 10
0.0
 20
0.0
 30
0.0
  9
$UCSORGRIGHT
 10
0.0
 20
0.0
 30
0.0
  9
$UCSORGFRONT
 10
0.0
 20
0.0
 30
0.0
  9
$UCSORGBACK
 10
0.0
 20
0.0
 30
0.0
  9
$PUCSBASE
  2

  9
$PUCSNAME
  2

  9
$PUCSORG
 10
0.0
 20
0.0
 30
0.0
  9
$PUCSXDIR
 10
1.0
 20
0.0
 30
0.0
  9
$PUCSYDIR
 10
0.0
 20
1.0
 30
0.0
  9
$PUCSORTHOREF
  2

  9
$PUCSORTHOVIEW
 70
     0
  9
$PUCSORGTOP
 10
0.0
 20
0.0
 30
0.0
  9
$PUCSORGBOTTOM
 10
0.0
 20
0.0
 30
0.0
  9
$PUCSORGLEFT
 10
0.0
 20
0.0
 30
0.0
  9
$PUCSORGRIGHT
 10
0.0
 20
0.0
 30
0.0
  9
$PUCSORGFRONT
 10
0.0
 20
0.0
 30
0.0
  9
$PUCSORGBACK
 10
0.0
 20
0.0
 30
0.0
  9
$USERI1
 70
     0
  9
$USERI2
 70
     0
  9
$USERI3
 70
     0
  9
$USERI4
 70
     0
  9
$USERI5
 70
     0
  9
$USERR1
 40
0.0
  9
$USERR2
 40
0.0
  9
$USERR3
 40
0.0
  9
$USERR4
 40
0.0
  9
$USERR5
 40
0.0
  9
$WORLDVIEW
 70
     1
  9
$SHADEDGE
 70
     3
  9
$SHADEDIF
 70
    70
  9
$TILEMODE
 70
     1
  9
$MAXACTVP
 70
    64
  9
$PINSBASE
 10
0.0
 20
0.0
 30
0.0
  9
$PLIMCHECK
 70
     0
  9
$PEXTMIN
 10
1.000000000000000E+20
 20
1.000000000000000E+20
 30
1.000000000000000E+20
  9
$PEXTMAX
 10
-1.000000000000000E+20
 20
-1.000000000000000E+20
 30
-1.000000000000000E+20
  9
$PLIMMIN
 10
0.0
 20
0.0
  9
$PLIMMAX
 10
12.0
 20
9.0
  9
$UNITMODE
 70
     0
  9
$VISRETAIN
 70
     1
  9
$PLINEGEN
 70
     0
  9
$PSLTSCALE
 70
     1
  9
$TREEDEPTH
 70
  3020
  9
$CMLSTYLE
  2
Standard
  9
$CMLJUST
 70
     0
  9
$CMLSCALE
 40
1.0
  9
$PROXYGRAPHICS
 70
     1
  9
$MEASUREMENT
 70
     1
  9
$CELWEIGHT
370
    -1
  9
$ENDCAPS
280
     0
  9
$JOINSTYLE
280
     0
  9
$LWDISPLAY
290
     0
  9
$INSUNITS
 70
     4
  9
$HYPERLINKBASE
  1

  9
$STYLESHEET
  1

  9
$XEDIT
290
     1
  9
$CEPSNTYPE
380
     0
  9
$PSTYLEMODE
290
     1
  9
$FINGERPRINTGUID
  2
{12F50282-3ED8-11D3-A8B7-0060B0F84BC6}
  9
$VERSIONGUID
  2
{12F50293-3ED8-11D3-A8B7-0060B0F84BC6}
  9
$EXTNAMES
290
     1
  9
$PSVPSCALE
 40
0.0
  9
$OLESTARTUP
290
     0
  9
$SORTENTS
280
   127
  9
$INDEXCTL
280
     0
  9
$HIDETEXT
280
     0
  9
$XCLIPFRAME
280
     2
  9
$HALOGAP
280
     0
  9
$OBSCOLOR
 70
   257
  9
$OBSLTYPE
280
     0
  9
$INTERSECTIONDISPLAY
280
     0
  9
$INTERSECTIONCOLOR
 70
   257
  9
$DIMASSOC
280
     1
  9
$PROJECTNAME
  1

  9
$CAMERADISPLAY
290
     0
  9
$LENSLENGTH
 40
50.0
  9
$CAMERAHEIGHT
 40
0.0
  9
$STEPSPERSEC
 40
2.0
  9
$STEPSIZE
 40
6.0
  9
$3DDWFPREC
 40
2.0
  9
$PSOLWIDTH
 40
0.25
  9
$PSOLHEIGHT
 40
4.0
  9
$LOFTANG1
 40
1.570796326794896
  9
$LOFTANG2
 40
1.570796326794896
  9
$LOFTMAG1
 40
0.0
  9
$LOFTMAG2
 40
0.0
  9
$LOFTPARAM
 70
     7
  9
$LOFTNORMALS
280
     1
  9
$LATITUDE
 40
37.795
  9
$LONGITUDE
 40
-122.394
  9
$NORTHDIRECTION
 40
0.0
  9
$TIMEZONE
 70
 -8000
  9
$LIGHTGLYPHDISPLAY
280
     1
  9
$TILEMODELIGHTSYNCH
280
     1
  9
$CMATERIAL
347
AB
  9
$SOLIDHIST
280
     0
  9
$SHOWHIST
280
     1
  9
$DWFFRAME
280
     2
  9
$DGNFRAME
280
     0
  9
$REALWORLDSCALE
290
     1
  9
$INTERFERECOLOR
 62
     1
  9
$INTERFEREOBJVS
345
CD
  9
$INTERFEREVPVS
346
CA
  9
$CSHADOW
280
     0
  9
$SHADOWPLANELOCATION
 40
0.0
  0
ENDSEC
  0
SECTION
  2
CLASSES
  0
CLASS
  1
ACDBDICTIONARYWDFLT
  2
AcDbDictionaryWithDefault
  3
ObjectDBX Classes
 90
        0
 91
        1
280
     0
281
     0
  0
CLASS
  1
ACDBPLACEHOLDER
  2
AcDbPlaceHolder
  3
ObjectDBX Classes
 90
        0
 91
        2
280
     0
281
     0
  0
CLASS
  1
LAYOUT
  2
AcDbLayout
  3
ObjectDBX Classes
 90
        0
 91
        3
280
     0
281
     0
  0
CLASS
  1
MATERIAL
  2
AcDbMaterial
  3
ObjectDBX Classes
 90
     1153
 91
        3
280
     0
281
     0
  0
CLASS
  1
VISUALSTYLE
  2
AcDbVisualStyle
  3
ObjectDBX Classes
 90
     4095
 91
       24
280
     0
281
     0
  0
CLASS
  1
TABLESTYLE
  2
AcDbTableStyle
  3
ObjectDBX Classes
 90
     4095
 91
        1
280
     0
281
     0
  0
CLASS
  1
SCALE
  2
AcDbScale
  3
ObjectDBX Classes
 90
     1153
 91
       17
280
     0
281
     0
  0
CLASS
  1
MLEADERSTYLE
  2
AcDbMLeaderStyle
  3
ACDB_MLEADERSTYLE_CLASS
 90
     4095
 91
        1
280
     0
281
     0
  0
CLASS
  1
ACDBSECTIONVIEWSTYLE
  2
AcDbSectionViewStyle
  3
ObjectDBX Classes
 90
     1025
 91
        1
280
     0
281
     0
  0
CLASS
  1
ACDBDETAILVIEWSTYLE
  2
AcDbDetailViewStyle
  3
ObjectDBX Classes
 90
     1025
 91
        1
280
     0
281
     0
  0
CLASS
  1
MESH
  2
AcDbSubDMesh
  3
ObjectDBX Classes
 90
        0
 91
        1
280
     0
281
     1
  0
CLASS
  1
DICTIONARYVAR
  2
AcDbDictionaryVar
  3
ObjectDBX Classes
 90
        0
 91
        9
280
     0
281
     0
  0
CLASS
  1
CELLSTYLEMAP
  2
AcDbCellStyleMap
  3
ObjectDBX Classes
 90
     1152
 91
        1
280
     0
281
     0
  0
ENDSEC
  0
SECTION
  2
TABLES
  0
TABLE
  2
VPORT
  5
8
330
0
100
AcDbSymbolTable
 70
     1
  0
VPORT
  5
A8
330
8
100
AcDbSymbolTableRecord
100
AcDbViewportTableRecord
  2
*Active
 70
     0
 10
0.0
 20
0.0
 11
1.0
 21
1.0
 12
0.0000323687818309
 22
-19.18815994262695
 13
0.0
 23
0.0
 14
0.5
 24
0.5
 15
0.5
 25
0.5
 16
-1.0
 26
-1.0
 36
1.0
 17
0.0
 27
0.0
 37
0.0
 40
1202.0536622919
 41
1.664326273905037
 42
50.0
 43
0.0
 44
0.0
 50
0.0
 51
0.0
 71
     0
 72
   100
 73
     1
 74
     3
 75
     0
 76
     0
 77
     0
 78
     0
281
     0
 65
     1
110
0.0
120
0.0
130
0.0
111
1.0
121
0.0
131
0.0
112
0.0
122
1.0
132
0.0
 79
     0
146
0.0
348
C9
 60
     3
 61
     5
292
     1
282
     1
141
0.0
142
0.0
 63
   250
421
  3355443
  0
ENDTAB
  0
TABLE
  2
LTYPE
  5
5
330
0
100
AcDbSymbolTable
 70
     1
  0
LTYPE
  5
14
330
5
100
AcDbSymbolTableRecord
100
AcDbLinetypeTableRecord
  2
ByBlock
 70
     0
  3

 72
    65
 73
     0
 40
0.0
  0
LTYPE
  5
15
330
5
100
AcDbSymbolTableRecord
100
AcDbLinetypeTableRecord
  2
ByLayer
 70
     0
  3

 72
    65
 73
     0
 40
0.0
  0
LTYPE
  5
16
330
5
100
AcDbSymbolTableRecord
100
AcDbLinetypeTableRecord
  2
Continuous
 70
     0
  3
Solid line
 72
    65
 73
     0
 40
0.0
  0
ENDTAB
  0
TABLE
  2
LAYER
  5
2
330
0
100
AcDbSymbolTable
 70
     3
  0
LAYER
  5
10
330
2
100
AcDbSymbolTableRecord
100
AcDbLayerTableRecord
  2
0
 70
     0
 62
     7
  6
Continuous
370
    -3
390
F
347
BB
  0
LAYER
  5
2B
330
2
100
AcDbSymbolTableRecord
100
AcDbLayerTableRecord
  2
ASHADE
 70
     4
 62
     7
  6
Continuous
370
    -3
390
2D
347
BB
  0
LAYER
  5
F8
330
2
100
AcDbSymbolTableRecord
100
AcDbLayerTableRecord
  2
OracDecor_cornice_mouldings
 70
     0
 62
    76
420
  4032262
  6
Continuous
370
    -3
390
F
347
BB
  0
ENDTAB
  0
TABLE
  2
STYLE
  5
3
330
0
100
AcDbSymbolTable
 70
     2
  0
STYLE
  5
11
330
3
100
AcDbSymbolTableRecord
100
AcDbTextStyleTableRecord
  2
Standard
 70
     0
 40
0.0
 41
1.0
 50
0.0
 71
     0
 42
0.2
  3
txt
  4

  0
STYLE
  5
2C
330
3
100
AcDbSymbolTableRecord
100
AcDbTextStyleTableRecord
  2
ASHADE
 70
     0
 40
0.2
 41
1.0
 50
0.0
 71
     0
 42
0.2
  3
simplex
  4

  0
ENDTAB
  0
TABLE
  2
VIEW
  5
6
330
0
100
AcDbSymbolTable
 70
     0
  0
ENDTAB
  0
TABLE
  2
UCS
  5
7
330
0
100
AcDbSymbolTable
 70
     0
  0
ENDTAB
  0
TABLE
  2
APPID
  5
9
330
0
100
AcDbSymbolTable
 70
     6
  0
APPID
  5
12
330
9
100
AcDbSymbolTableRecord
100
AcDbRegAppTableRecord
  2
ACAD
 70
     0
  0
APPID
  5
8F
330
9
100
AcDbSymbolTableRecord
100
AcDbRegAppTableRecord
  2
AVE_RENDER
 70
     0
  0
APPID
  5
90
330
9
100
AcDbSymbolTableRecord
100
AcDbRegAppTableRecord
  2
AVE_ENTITY_MATERIAL
 70
     0
  0
APPID
  5
9C
330
9
100
AcDbSymbolTableRecord
100
AcDbRegAppTableRecord
  2
AVE_FINISH
 70
     0
  0
APPID
  5
9D
330
9
100
AcDbSymbolTableRecord
100
AcDbRegAppTableRecord
  2
AVE_MATERIAL
 70
     0
  0
APPID
  5
9E
330
9
100
AcDbSymbolTableRecord
100
AcDbRegAppTableRecord
  2
AVE_GLOBAL
 70
     0
  0
ENDTAB
  0
TABLE
  2
DIMSTYLE
  5
A
330
0
100
AcDbSymbolTable
 70
     1
100
AcDbDimStyleTable
 71
     0
  0
DIMSTYLE
105
27
330
A
100
AcDbSymbolTableRecord
100
AcDbDimStyleTableRecord
  2
Standard
 70
     0
340
11
  0
ENDTAB
  0
TABLE
  2
BLOCK_RECORD
  5
1
330
0
100
AcDbSymbolTable
 70
     6
  0
BLOCK_RECORD
  5
1F
330
1
100
AcDbSymbolTableRecord
100
AcDbBlockTableRecord
  2
*Model_Space
340
22
 70
     0
280
     1
281
     0
  0
BLOCK_RECORD
  5
1B
330
1
100
AcDbSymbolTableRecord
100
AcDbBlockTableRecord
  2
*Paper_Space
340
1E
 70
     0
280
     1
281
     0
  0
BLOCK_RECORD
  5
23
330
1
100
AcDbSymbolTableRecord
100
AcDbBlockTableRecord
  2
*Paper_Space0
340
26
 70
     0
280
     1
281
     0
  0
BLOCK_RECORD
  5
2E
330
1
100
AcDbSymbolTableRecord
100
AcDbBlockTableRecord
  2
direct
340
0
 70
     0
280
     1
281
     0
  0
BLOCK_RECORD
  5
42
330
1
100
AcDbSymbolTableRecord
100
AcDbBlockTableRecord
  2
overhead
340
0
 70
     0
280
     1
281
     0
  0
BLOCK_RECORD
  5
5F
330
1
100
AcDbSymbolTableRecord
100
AcDbBlockTableRecord
  2
sh_spot
340
0
 70
     0
280
     1
281
     0
  0
BLOCK_RECORD
  5
91
330
1
100
AcDbSymbolTableRecord
100
AcDbBlockTableRecord
  2
AVE_RENDER
340
0
102
{BLKREFS
331
94
331
95
331
96
331
97
331
98
331
99
331
9A
331
9B
102
}
 70
     0
280
     1
281
     0
  0
BLOCK_RECORD
  5
9F
330
1
100
AcDbSymbolTableRecord
100
AcDbBlockTableRecord
  2
AVE_GLOBAL
340
0
102
{BLKREFS
331
A2
102
}
 70
     0
280
     1
281
     0
  0
ENDTAB
  0
ENDSEC
  0
SECTION
  2
BLOCKS
  0
BLOCK
  5
20
330
1F
100
AcDbEntity
  8
0
100
AcDbBlockBegin
  2
*Model_Space
 70
     0
 10
0.0
 20
0.0
 30
0.0
  3
*Model_Space
  1

  0
ENDBLK
  5
21
330
1F
100
AcDbEntity
  8
0
100
AcDbBlockEnd
  0
BLOCK
  5
1C
330
1B
100
AcDbEntity
 67
     1
  8
0
100
AcDbBlockBegin
  2
*Paper_Space
 70
     0
 10
0.0
 20
0.0
 30
0.0
  3
*Paper_Space
  1

  0
ENDBLK
  5
1D
330
1B
100
AcDbEntity
 67
     1
  8
0
100
AcDbBlockEnd
  0
BLOCK
  5
24
330
23
100
AcDbEntity
 67
     1
  8
0
100
AcDbBlockBegin
  2
*Paper_Space0
 70
     0
 10
0.0
 20
0.0
 30
0.0
  3
*Paper_Space0
  1

  0
ENDBLK
  5
25
330
23
100
AcDbEntity
 67
     1
  8
0
100
AcDbBlockEnd
  0
BLOCK
  5
40
330
2E
100
AcDbEntity
  8
0
100
AcDbBlockBegin
  2
direct
 70
     2
 10
0.0
 20
0.0
 30
0.0
  3
direct
  1

  0
ATTDEF
  5
2F
330
2E
100
AcDbEntity
  8
ASHADE
  6
Continuous
 62
     1
100
AcDbText
 10
0.0
 20
-0.1
 30
0.0
 40
0.2
  1

  7
ASHADE
 72
     1
 11
0.0
 21
-0.1
 31
0.0
100
AcDbAttributeDefinition
280
     0
  3
Light Name
  2
SNAME
 70
     0
280
     0
  0
ARC
  5
30
330
2E
100
AcDbEntity
  8
ASHADE
  6
Continuous
 62
     7
100
AcDbCircle
 10
0.0
 20
0.0
 30
0.0
 40
0.3
100
AcDbArc
 50
205.6792886194569
 51
334.3207113805431
  0
ARC
  5
31
330
2E
100
AcDbEntity
  8
ASHADE
  6
Continuous
 62
     7
100
AcDbCircle
 10
0.0
 20
0.0
 30
0.0
 40
0.3
100
AcDbArc
 50
25.67928861945685
 51
154.3207113805431
  0
LINE
  5
32
330
2E
100
AcDbEntity
  8
ASHADE
  6
Continuous
 62
     7
100
AcDbLine
 10
-0.21
 20
0.2142428528562855
 30
0.0
 11
-0.21
 21
0.5
 31
0.0
  0
LINE
  5
33
330
2E
100
AcDbEntity
  8
ASHADE
  6
Continuous
 62
     7
100
AcDbLine
 10
-0.11
 20
0.2791057147390572
 30
0.0
 11
-0.11
 21
0.5
 31
0.0
  0
LINE
  5
34
330
2E
100
AcDbEntity
  8
ASHADE
  6
Continuous
 62
     7
100
AcDbLine
 10
0.21
 20
0.2142428528562855
 30
0.0
 11
0.21
 21
0.5
 31
0.0
  0
ATTDEF
  5
35
330
2E
100
AcDbEntity
  8
ASHADE
  6
Continuous
 62
     7
100
AcDbText
 10
0.0
 20
0.25
 30
0.0
 40
0.01
  1

100
AcDbAttributeDefinition
280
     0
  3
Look-at Y
  2
LAY
 70
     1
280
     0
  0
ATTDEF
  5
36
330
2E
100
AcDbEntity
  8
ASHADE
  6
Continuous
 62
     7
100
AcDbText
 10
0.0
 20
0.22
 30
0.0
 40
0.01
  1
1
100
AcDbAttributeDefinition
280
     0
  3
Light Intensity
  2
INTENSITY
 70
     1
280
     0
  0
ATTDEF
  5
37
330
2E
100
AcDbEntity
  8
ASHADE
  6
Continuous
 62
     7
100
AcDbText
 10
0.0
 20
0.16
 30
0.0
 40
0.01
  1
-1
100
AcDbAttributeDefinition
280
     0
  3
*not used*
  2
BEAMD
 70
     1
280
     0
  0
ATTDEF
  5
38
330
2E
100
AcDbEntity
  8
ASHADE
  6
Continuous
 62
     7
100
AcDbText
 10
0.0
 20
0.175
 30
0.0
 40
0.01
  1
-1
100
AcDbAttributeDefinition
280
     0
  3
*not used*
  2
CONED
 70
     1
280
     0
  0
ATTDEF
  5
39
330
2E
100
AcDbEntity
  8
ASHADE
  6
Continuous
 62
     7
100
AcDbText
 10
0.0
 20
0.19
 30
0.0
 40
0.01
  1
0
100
AcDbAttributeDefinition
280
     0
  3
Depth Map Size
  2
CONEA
 70
     1
280
     0
  0
ATTDEF
  5
3A
330
2E
100
AcDbEntity
  8
ASHADE
  6
Continuous
 62
     7
100
AcDbText
 10
0.0
 20
0.2050000000000001
 30
0.0
 40
0.01
  1
1,1,1
100
AcDbAttributeDefinition
280
     0
  3
Light Color (RGB)
  2
COLOR
 70
     1
280
     0
  0
ATTDEF
  5
3B
330
2E
100
AcDbEntity
  8
ASHADE
  6
Continuous
 62
     7
100
AcDbText
 10
0.0
 20
0.235
 30
0.0
 40
0.01
  1

100
AcDbAttributeDefinition
280
     0
  3
Look-at Z
  2
LAZ
 70
     1
280
     0
  0
LINE
  5
3C
330
2E
100
AcDbEntity
  8
ASHADE
  6
Continuous
 62
     7
100
AcDbLine
 10
0.0
 20
0.3
 30
0.0
 11
0.0
 21
0.5
 31
0.0
  0
LINE
  5
3D
330
2E
100
AcDbEntity
  8
ASHADE
  6
Continuous
 62
     7
100
AcDbLine
 10
0.11
 20
0.2791057147390572
 30
0.0
 11
0.11
 21
0.5
 31
0.0
  0
ATTDEF
  5
3E
330
2E
100
AcDbEntity
  8
ASHADE
  6
Continuous
 62
     7
100
AcDbText
 10
0.0
 20
0.265
 30
0.0
 40
0.01
  1

100
AcDbAttributeDefinition
280
     0
  3
Look-at X
  2
LAX
 70
     1
280
     0
  0
ATTDEF
  5
3F
330
2E
100
AcDbEntity
  8
ASHADE
  6
Continuous
 62
     7
100
AcDbText
 10
0.0
 20
0.28
 30
0.0
 40
0.01
  1

100
AcDbAttributeDefinition
280
     0
  3

  2
GNAME
 70
     1
280
     0
  0
ENDBLK
  5
41
330
2E
100
AcDbEntity
  8
0
100
AcDbBlockEnd
  0
BLOCK
  5
5D
330
42
100
AcDbEntity
  8
0
100
AcDbBlockBegin
  2
overhead
 70
     2
 10
0.0
 20
0.0
 30
0.0
  3
overhead
  1

  0
ATTDEF
  5
43
330
42
100
AcDbEntity
  8
ASHADE
  6
Continuous
 62
     1
100
AcDbText
 10
0.0
 20
-0.1
 30
0.0
 40
0.2
  1

  7
ASHADE
 72
     1
 11
0.0
 21
-0.1
 31
0.0
100
AcDbAttributeDefinition
280
     0
  3
Light Name
  2
SNAME
 70
     0
280
     0
  0
ARC
  5
44
330
42
100
AcDbEntity
  8
ASHADE
  6
Continuous
 62
     7
100
AcDbCircle
 10
0.0
 20
0.0
 30
0.0
 40
0.3
100
AcDbArc
 50
205.6792886194569
 51
334.3207113805431
  0
LINE
  5
45
330
42
100
AcDbEntity
  8
ASHADE
  6
Continuous
 62
     7
100
AcDbLine
 10
-0.2041413561583015
 20
-0.2198324514393848
 30
0.0
 11
-0.2721884748777353
 21
-0.2931099352525131
 31
0.0
  0
LINE
  5
46
330
42
100
AcDbEntity
  8
ASHADE
  6
Continuous
 62
     7
100
AcDbLine
 10
-0.1096591641591904
 20
-0.2792398032442862
 30
0.0
 11
-0.1279356915190555
 21
-0.3257797704516673
 31
0.0
  0
LINE
  5
47
330
42
100
AcDbEntity
  8
ASHADE
  6
Continuous
 62
     7
100
AcDbLine
 10
0.0
 20
-0.2999999999999999
 30
0.0
 11
0.0
 21
-0.4
 31
0.0
  0
LINE
  5
48
330
42
100
AcDbEntity
  8
ASHADE
  6
Continuous
 62
     7
100
AcDbLine
 10
0.1096591641591904
 20
-0.2792398032442862
 30
0.0
 11
0.1279356915190555
 21
-0.3257797704516673
 31
0.0
  0
LINE
  5
49
330
42
100
AcDbEntity
  8
ASHADE
  6
Continuous
 62
     7
100
AcDbLine
 10
0.2041413561583015
 20
-0.2198324514393848
 30
0.0
 11
0.2721884748777353
 21
-0.2931099352525131
 31
0.0
  0
ARC
  5
4A
330
42
100
AcDbEntity
  8
ASHADE
  6
Continuous
 62
     7
100
AcDbCircle
 10
0.0
 20
0.0
 30
0.0
 40
0.3
100
AcDbArc
 50
25.67928861945685
 51
154.3207113805431
  0
LINE
  5
4B
330
42
100
AcDbEntity
  8
ASHADE
  6
Continuous
 62
     7
100
AcDbLine
 10
-0.2703701166919155
 20
0.13
 30
0.0
 11
-0.3154318028072347
 21
0.1516666666666666
 31
0.0
  0
LINE
  5
4C
330
42
100
AcDbEntity
  8
ASHADE
  6
Continuous
 62
     7
100
AcDbLine
 10
-0.2703701166919155
 20
-0.13
 30
0.0
 11
-0.3154318028072347
 21
-0.1516666666666666
 31
0.0
  0
LINE
  5
4D
330
42
100
AcDbEntity
  8
ASHADE
  6
Continuous
 62
     7
100
AcDbLine
 10
-0.2041413561583015
 20
0.2198324514393849
 30
0.0
 11
-0.2721884748777353
 21
0.2931099352525131
 31
0.0
  0
LINE
  5
4E
330
42
100
AcDbEntity
  8
ASHADE
  6
Continuous
 62
     7
100
AcDbLine
 10
-0.1096591641591904
 20
0.2792398032442862
 30
0.0
 11
-0.1279356915190555
 21
0.3257797704516674
 31
0.0
  0
LINE
  5
4F
330
42
100
AcDbEntity
  8
ASHADE
  6
Continuous
 62
     7
100
AcDbLine
 10
0.2703701166919155
 20
-0.13
 30
0.0
 11
0.3154318028072347
 21
-0.1516666666666666
 31
0.0
  0
LINE
  5
50
330
42
100
AcDbEntity
  8
ASHADE
  6
Continuous
 62
     7
100
AcDbLine
 10
0.2703701166919155
 20
0.13
 30
0.0
 11
0.3154318028072347
 21
0.1516666666666666
 31
0.0
  0
LINE
  5
51
330
42
100
AcDbEntity
  8
ASHADE
  6
Continuous
 62
     7
100
AcDbLine
 10
0.0
 20
0.3
 30
0.0
 11
0.0
 21
0.4
 31
0.0
  0
ATTDEF
  5
52
330
42
100
AcDbEntity
  8
ASHADE
  6
Continuous
 62
     7
100
AcDbText
 10
0.0
 20
0.22
 30
0.0
 40
0.01
  1
1
100
AcDbAttributeDefinition
280
     0
  3
Light Intensity
  2
INTENSITY
 70
     1
280
     0
  0
ATTDEF
  5
53
330
42
100
AcDbEntity
  8
ASHADE
  6
Continuous
 62
     7
100
AcDbText
 10
0.0
 20
0.16
 30
0.0
 40
0.01
  1
-1
100
AcDbAttributeDefinition
280
     0
  3
*not used*
  2
BEAMD
 70
     1
280
     0
  0
ATTDEF
  5
54
330
42
100
AcDbEntity
  8
ASHADE
  6
Continuous
 62
     7
100
AcDbText
 10
0.0
 20
0.175
 30
0.0
 40
0.01
  1
-1
100
AcDbAttributeDefinition
280
     0
  3
*not used*
  2
CONED
 70
     1
280
     0
  0
ATTDEF
  5
55
330
42
100
AcDbEntity
  8
ASHADE
  6
Continuous
 62
     7
100
AcDbText
 10
0.0
 20
0.19
 30
0.0
 40
0.01
  1
0
100
AcDbAttributeDefinition
280
     0
  3
Depth Map Size
  2
CONEA
 70
     1
280
     0
  0
ATTDEF
  5
56
330
42
100
AcDbEntity
  8
ASHADE
  6
Continuous
 62
     7
100
AcDbText
 10
0.0
 20
0.2050000000000001
 30
0.0
 40
0.01
  1
1,1,1
100
AcDbAttributeDefinition
280
     0
  3
Light Color (RGB)
  2
COLOR
 70
     1
280
     0
  0
ATTDEF
  5
57
330
42
100
AcDbEntity
  8
ASHADE
  6
Continuous
 62
     7
100
AcDbText
 10
0.0
 20
0.235
 30
0.0
 40
0.01
  1

100
AcDbAttributeDefinition
280
     0
  3
Look-at Z
  2
LAZ
 70
     1
280
     0
  0
ATTDEF
  5
58
330
42
100
AcDbEntity
  8
ASHADE
  6
Continuous
 62
     7
100
AcDbText
 10
0.0
 20
0.25
 30
0.0
 40
0.01
  1

100
AcDbAttributeDefinition
280
     0
  3
Look-at Y
  2
LAY
 70
     1
280
     0
  0
ATTDEF
  5
59
330
42
100
AcDbEntity
  8
ASHADE
  6
Continuous
 62
     7
100
AcDbText
 10
0.0
 20
0.265
 30
0.0
 40
0.01
  1

100
AcDbAttributeDefinition
280
     0
  3
Look-at X
  2
LAX
 70
     1
280
     0
  0
ATTDEF
  5
5A
330
42
100
AcDbEntity
  8
ASHADE
  6
Continuous
 62
     7
100
AcDbText
 10
0.0
 20
0.28
 30
0.0
 40
0.01
  1

100
AcDbAttributeDefinition
280
     0
  3

  2
GNAME
 70
     1
280
     0
  0
LINE
  5
5B
330
42
100
AcDbEntity
  8
ASHADE
  6
Continuous
 62
     7
100
AcDbLine
 10
0.1096591641591904
 20
0.2792398032442862
 30
0.0
 11
0.1279356915190555
 21
0.3257797704516674
 31
0.0
  0
LINE
  5
5C
330
42
100
AcDbEntity
  8
ASHADE
  6
Continuous
 62
     7
100
AcDbLine
 10
0.2041413561583015
 20
0.2198324514393849
 30
0.0
 11
0.2721884748777353
 21
0.2931099352525131
 31
0.0
  0
ENDBLK
  5
5E
330
42
100
AcDbEntity
  8
0
100
AcDbBlockEnd
  0
BLOCK
  5
85
330
5F
100
AcDbEntity
  8
0
100
AcDbBlockBegin
  2
sh_spot
 70
     2
 10
0.0
 20
0.0
 30
0.0
  3
sh_spot
  1

  0
LINE
  5
60
330
5F
100
AcDbEntity
  8
ASHADE
  6
Continuous
 62
     7
100
AcDbLine
 10
0.25
 20
0.26
 30
0.0
 11
-0.25
 21
0.26
 31
0.0
  0
LINE
  5
61
330
5F
100
AcDbEntity
  8
ASHADE
  6
Continuous
 62
     7
100
AcDbLine
 10
-0.25
 20
-0.3399999999999999
 30
0.0
 11
0.25
 21
-0.3399999999999999
 31
0.0
  0
ATTDEF
  5
62
330
5F
100
AcDbEntity
  8
ASHADE
  6
Continuous
 62
     1
100
AcDbText
 10
0.0
 20
-0.1
 30
0.0
 40
0.2
  1

  7
ASHADE
 72
     1
 11
0.0
 21
-0.1
 31
0.0
100
AcDbAttributeDefinition
280
     0
  3
Light Name
  2
SNAME
 70
     0
280
     0
  0
LINE
  5
63
330
5F
100
AcDbEntity
  8
ASHADE
  6
Continuous
 62
     7
100
AcDbLine
 10
-0.25
 20
-0.13
 30
0.0
 11
-0.25
 21
-0.3399999999999999
 31
0.0
  0
LINE
  5
64
330
5F
100
AcDbEntity
  8
ASHADE
  6
Continuous
 62
     7
100
AcDbLine
 10
-0.25
 20
-0.18
 30
0.0
 11
-0.29
 21
-0.18
 31
0.0
  0
LINE
  5
65
330
5F
100
AcDbEntity
  8
ASHADE
  6
Continuous
 62
     7
100
AcDbLine
 10
-0.29
 20
-0.22
 30
0.0
 11
-0.25
 21
-0.22
 31
0.0
  0
LINE
  5
66
330
5F
100
AcDbEntity
  8
ASHADE
  6
Continuous
 62
     7
100
AcDbLine
 10
-0.29
 20
-0.18
 30
0.0
 11
-0.29
 21
-0.22
 31
0.0
  0
LINE
  5
67
330
5F
100
AcDbEntity
  8
ASHADE
  6
Continuous
 62
     7
100
AcDbLine
 10
-0.1045454545454545
 20
0.26
 30
0.0
 11
-0.15
 21
0.46
 31
0.0
  0
LINE
  5
68
330
5F
100
AcDbEntity
  8
ASHADE
  6
Continuous
 62
     7
100
AcDbLine
 10
-0.21
 20
0.26
 30
0.0
 11
-0.301304347826087
 21
0.46
 31
0.0
  0
LINE
  5
69
330
5F
100
AcDbEntity
  8
ASHADE
  6
Continuous
 62
     7
100
AcDbLine
 10
-0.25
 20
0.26
 30
0.0
 11
-0.25
 21
0.13
 31
0.0
  0
LINE
  5
6A
330
5F
100
AcDbEntity
  8
ASHADE
  6
Continuous
 62
     7
100
AcDbLine
 10
-0.25
 20
0.22
 30
0.0
 11
-0.29
 21
0.22
 31
0.0
  0
LINE
  5
6B
330
5F
100
AcDbEntity
  8
ASHADE
  6
Continuous
 62
     7
100
AcDbLine
 10
-0.29
 20
0.1799999999999999
 30
0.0
 11
-0.25
 21
0.1799999999999999
 31
0.0
  0
LINE
  5
6C
330
5F
100
AcDbEntity
  8
ASHADE
  6
Continuous
 62
     7
100
AcDbLine
 10
-0.29
 20
0.22
 30
0.0
 11
-0.29
 21
0.1799999999999999
 31
0.0
  0
ATTDEF
  5
6D
330
5F
100
AcDbEntity
  8
ASHADE
  6
Continuous
 62
     7
100
AcDbText
 10
0.0
 20
-0.24
 30
0.0
 40
0.01
  1
0
100
AcDbAttributeDefinition
280
     0
  3
Depth Map Size
  2
ZSIZE
 70
     1
280
     0
  0
ATTDEF
  5
6E
330
5F
100
AcDbEntity
  8
ASHADE
  6
Continuous
 62
     7
100
AcDbText
 10
0.0
 20
-0.3300000000000001
 30
0.0
 40
0.01
  1
0,0,0
100
AcDbAttributeDefinition
280
     0
  3
Look-from XYZ
  2
LFXYZ
 70
     1
280
     0
  0
ATTDEF
  5
6F
330
5F
100
AcDbEntity
  8
ASHADE
  6
Continuous
 62
     7
100
AcDbText
 10
0.0
 20
-0.315
 30
0.0
 40
0.01
  1
0.0
100
AcDbAttributeDefinition
280
     0
  3
Beam Distribution
  2
BEAMDI
 70
     1
280
     0
  0
ATTDEF
  5
70
330
5F
100
AcDbEntity
  8
ASHADE
  6
Continuous
 62
     7
100
AcDbText
 10
0.0
 20
-0.3
 30
0.0
 40
0.01
  1
0.0
100
AcDbAttributeDefinition
280
     0
  3
Cone Delta
  2
CONEDE
 70
     1
280
     0
  0
ATTDEF
  5
71
330
5F
100
AcDbEntity
  8
ASHADE
  6
Continuous
 62
     7
100
AcDbText
 10
0.0
 20
-0.2850000000000001
 30
0.0
 40
0.01
  1
10.0
100
AcDbAttributeDefinition
280
     0
  3
Cone Angle
  2
CONEAN
 70
     1
280
     0
  0
ATTDEF
  5
72
330
5F
100
AcDbEntity
  8
ASHADE
  6
Continuous
 62
     7
100
AcDbText
 10
0.0
 20
-0.27
 30
0.0
 40
0.01
  1
-1
100
AcDbAttributeDefinition
280
     0
  3
*not used*
  2
BIASMAX
 70
     1
280
     0
  0
ATTDEF
  5
73
330
5F
100
AcDbEntity
  8
ASHADE
  6
Continuous
 62
     7
100
AcDbText
 10
0.0
 20
-0.255
 30
0.0
 40
0.01
  1
-1
100
AcDbAttributeDefinition
280
     0
  3
*not used*
  2
BIASMIN
 70
     1
280
     0
  0
ATTDEF
  5
74
330
5F
100
AcDbEntity
  8
ASHADE
  6
Continuous
 62
     7
100
AcDbText
 10
0.0
 20
-0.225
 30
0.0
 40
0.01
  1
1,1,1
100
AcDbAttributeDefinition
280
     0
  3
Light Color (RGB)
  2
COLOR
 70
     1
280
     0
  0
ATTDEF
  5
75
330
5F
100
AcDbEntity
  8
ASHADE
  6
Continuous
 62
     7
100
AcDbText
 10
0.0
 20
-0.21
 30
0.0
 40
0.01
  1
1
100
AcDbAttributeDefinition
280
     0
  3
Light Intensity
  2
INTENSITY
 70
     1
280
     0
  0
ATTDEF
  5
76
330
5F
100
AcDbEntity
  8
ASHADE
  6
Continuous
 62
     7
100
AcDbText
 10
0.0
 20
-0.15
 30
0.0
 40
0.01
  1

100
AcDbAttributeDefinition
280
     0
  3

  2
GNAME
 70
     1
280
     0
  0
ATTDEF
  5
77
330
5F
100
AcDbEntity
  8
ASHADE
  6
Continuous
 62
     7
100
AcDbText
 10
0.0
 20
-0.195
 30
0.0
 40
0.01
  1

100
AcDbAttributeDefinition
280
     0
  3
Look-at Z
  2
LAZ
 70
     1
280
     0
  0
ATTDEF
  5
78
330
5F
100
AcDbEntity
  8
ASHADE
  6
Continuous
 62
     7
100
AcDbText
 10
0.0
 20
-0.18
 30
0.0
 40
0.01
  1

100
AcDbAttributeDefinition
280
     0
  3
Look-at Y
  2
LAY
 70
     1
280
     0
  0
ATTDEF
  5
79
330
5F
100
AcDbEntity
  8
ASHADE
  6
Continuous
 62
     7
100
AcDbText
 10
0.0
 20
-0.165
 30
0.0
 40
0.01
  1

100
AcDbAttributeDefinition
280
     0
  3
Look-at X
  2
LAX
 70
     1
280
     0
  0
LINE
  5
7A
330
5F
100
AcDbEntity
  8
ASHADE
  6
Continuous
 62
     7
100
AcDbLine
 10
0.25
 20
-0.3399999999999999
 30
0.0
 11
0.25
 21
-0.13
 31
0.0
  0
LINE
  5
7B
330
5F
100
AcDbEntity
  8
ASHADE
  6
Continuous
 62
     7
100
AcDbLine
 10
0.25
 20
-0.18
 30
0.0
 11
0.29
 21
-0.18
 31
0.0
  0
LINE
  5
7C
330
5F
100
AcDbEntity
  8
ASHADE
  6
Continuous
 62
     7
100
AcDbLine
 10
0.29
 20
-0.22
 30
0.0
 11
0.25
 21
-0.22
 31
0.0
  0
LINE
  5
7D
330
5F
100
AcDbEntity
  8
ASHADE
  6
Continuous
 62
     7
100
AcDbLine
 10
0.29
 20
-0.18
 30
0.0
 11
0.29
 21
-0.22
 31
0.0
  0
LINE
  5
7E
330
5F
100
AcDbEntity
  8
ASHADE
  6
Continuous
 62
     7
100
AcDbLine
 10
0.21
 20
0.26
 30
0.0
 11
0.301304347826087
 21
0.46
 31
0.0
  0
LINE
  5
7F
330
5F
100
AcDbEntity
  8
ASHADE
  6
Continuous
 62
     7
100
AcDbLine
 10
0.1045454545454545
 20
0.26
 30
0.0
 11
0.15
 21
0.46
 31
0.0
  0
LINE
  5
80
330
5F
100
AcDbEntity
  8
ASHADE
  6
Continuous
 62
     7
100
AcDbLine
 10
0.0
 20
0.26
 30
0.0
 11
0.0
 21
0.46
 31
0.0
  0
LINE
  5
81
330
5F
100
AcDbEntity
  8
ASHADE
  6
Continuous
 62
     7
100
AcDbLine
 10
0.25
 20
0.13
 30
0.0
 11
0.25
 21
0.26
 31
0.0
  0
LINE
  5
82
330
5F
100
AcDbEntity
  8
ASHADE
  6
Continuous
 62
     7
100
AcDbLine
 10
0.25
 20
0.22
 30
0.0
 11
0.29
 21
0.22
 31
0.0
  0
LINE
  5
83
330
5F
100
AcDbEntity
  8
ASHADE
  6
Continuous
 62
     7
100
AcDbLine
 10
0.29
 20
0.1799999999999999
 30
0.0
 11
0.25
 21
0.1799999999999999
 31
0.0
  0
LINE
  5
84
330
5F
100
AcDbEntity
  8
ASHADE
  6
Continuous
 62
     7
100
AcDbLine
 10
0.29
 20
0.22
 30
0.0
 11
0.29
 21
0.1799999999999999
 31
0.0
  0
ENDBLK
  5
86
330
5F
100
AcDbEntity
  8
0
100
AcDbBlockEnd
  0
BLOCK
  5
92
330
91
100
AcDbEntity
  8
ASHADE
100
AcDbBlockBegin
  2
AVE_RENDER
 70
     0
 10
0.0
 20
0.0
 30
0.0
  3
AVE_RENDER
  1
AVE_RENDER
  0
ENDBLK
  5
93
330
91
100
AcDbEntity
  8
0
100
AcDbBlockEnd
  0
BLOCK
  5
A0
330
9F
100
AcDbEntity
  8
ASHADE
100
AcDbBlockBegin
  2
AVE_GLOBAL
 70
     0
 10
0.0
 20
0.0
 30
0.0
  3
AVE_GLOBAL
  1
AVE_GLOBAL
  0
ENDBLK
  5
A1
330
9F
100
AcDbEntity
  8
0
100
AcDbBlockEnd
  0
ENDSEC
  0
SECTION
  2
ENTITIES
  0
INSERT
  5
94
330
1F
100
AcDbEntity
  8
ASHADE
 62
     1
100
AcDbBlockReference
  2
AVE_RENDER
 10
0.0
 20
0.0
 30
0.0
1001
AVE_RENDER
1002
{
1070
     7
1000
Pref
1070
    30
1070
    20
1070
     1
1070
     0
1000

1070
    10
1070
     1
1070
    10
1040
1.0
1070
     1
1040
0.3
1040
0.7
1040
0.0
1040
10.0
1010
-1.0
1020
-1.0
1030
-1.0
1040
0.3
1070
    49
1070
     0
1070
     0
1010
1.0
1020
1.0
1030
1.0
1040
45.0
1070
     1
1070
     0
1000
WCS
1040
0.0
1070
     0
1040
10.0
1002
}
  0
INSERT
  5
95
330
1F
100
AcDbEntity
  8
ASHADE
 62
     3
100
AcDbBlockReference
  2
AVE_RENDER
 10
0.0
 20
0.0
 30
0.0
1001
AVE_RENDER
1002
{
1070
     0
1000
Full Opt
1070
     0
1070
     1
1070
     1
1070
     1
1070
     0
1070
     0
1070
     0
1070
     1
1070
     1
1040
0.0001
1040
0.0001
1002
}
  0
INSERT
  5
96
330
1F
100
AcDbEntity
  8
ASHADE
 62
     4
100
AcDbBlockReference
  2
AVE_RENDER
 10
0.0
 20
0.0
 30
0.0
1001
AVE_RENDER
1002
{
1070
     0
1000
Quick Opt
1070
     0
1070
     1
1070
     1
1070
     1
1070
     0
1070
     0
1070
     1
1002
}
  0
INSERT
  5
97
330
1F
100
AcDbEntity
  8
ASHADE
 62
     5
100
AcDbBlockReference
  2
AVE_RENDER
 10
0.0
 20
0.0
 30
0.0
1001
AVE_RENDER
1002
{
1070
     1
1000
Scanl Opt
1070
     2
1070
     0
1070
     2
1040
2.0
1040
4.0
1070
     0
1070
     1
1070
     0
1040
0.03
1002
}
  0
INSERT
  5
98
330
1F
100
AcDbEntity
  8
ASHADE
 62
     6
100
AcDbBlockReference
  2
AVE_RENDER
 10
0.0
 20
0.0
 30
0.0
1001
AVE_RENDER
1002
{
1070
     2
1000
Raytr Opt
1070
     2
1070
     0
1070
     2
1040
2.0
1040
4.0
1070
     0
1070
     1
1070
     1
1040
0.03
1070
     3
1040
0.03
1002
}
  0
INSERT
  5
99
330
1F
100
AcDbEntity
  8
ASHADE
 62
     7
100
AcDbBlockReference
  2
AVE_RENDER
 10
0.0
 20
0.0
 30
0.0
1001
AVE_RENDER
1002
{
1070
     0
1000
RFile Opt
1070
     1
1070
   640
1070
   480
1070
 10000
1070
     1
1070
     8
1070
     8
1070
     0
1070
     0
1070
     0
1070
     0
1070
     0
1070
     0
1070
     0
1002
}
  0
INSERT
  5
9A
330
1F
100
AcDbEntity
  8
ASHADE
 62
     8
100
AcDbBlockReference
  2
AVE_RENDER
 10
0.0
 20
0.0
 30
0.0
1001
AVE_RENDER
1002
{
1070
     0
1000
Fog Opt
1070
     0
1070
     0
1040
0.0
1040
1.0
1040
0.0
1040
1.0
1010
0.5
1020
0.5
1030
0.5
1002
}
  0
INSERT
  5
9B
330
1F
100
AcDbEntity
  8
ASHADE
 62
     9
100
AcDbBlockReference
  2
AVE_RENDER
 10
0.0
 20
0.0
 30
0.0
1001
AVE_RENDER
1002
{
1070
     0
1000
BG Opt
1070
     0
1070
     1
1010
0.0
1020
0.0
1030
0.0
1010
1.0
1020
0.0
1030
0.0
1010
0.0
1020
1.0
1030
0.0
1010
0.0
1020
0.0
1030
1.0
1040
0.5
1040
0.33
1040
0.0
1000

1070
     1
1000

1070
     1
1070
     1
1040
1.0
1040
1.0
1040
0.0
1040
0.0
1070
     0
1002
}
  0
INSERT
  5
A2
330
1F
100
AcDbEntity
  8
ASHADE
 62
     1
100
AcDbBlockReference
  2
AVE_GLOBAL
 10
0.0
 20
0.0
 30
0.0
1001
AVE_MATERIAL
1002
{
1000
*GLOBAL*
1000
2
1000
Global finish.
1002
{
1002
}
1002
{
1070
    63
1002
{
1002
{
1010
-1.0
1020
-1.0
1030
-1.0
1002
}
1040
0.1000000014901161
1000

1040
0.0
1002
{
1002
}
1040
0.0
1002
{
1002
}
1040
0.0
1002
}
1002
{
1002
{
1010
-1.0
1020
-1.0
1030
-1.0
1002
}
1040
0.6999999880790711
1000

1040
0.0
1002
{
1002
}
1040
0.0
1002
{
1002
}
1040
0.0
1002
}
1002
{
1002
{
1010
-1.0
1020
-1.0
1030
-1.0
1002
}
1040
0.2000000029802322
1000

1040
0.0
1002
{
1002
}
1040
0.0
1002
{
1002
}
1040
0.0
1002
}
1002
{
1070
     0
1002
{
1070
     1
1002
{
1040
1.0
1040
1.0
1000

1040
0.0
1002
{
1002
}
1040
0.0
1002
{
1002
}
1040
0.0
1002
}
1002
}
1040
1.0
1040
0.0
1040
0.0
1002
}
1002
{
1040
1.0
1040
1.0
1000

1040
0.0
1002
{
1002
}
1040
0.0
1002
{
1002
}
1040
0.0
1002
}
1002
{
1040
0.5
1040
1.0
1000

1040
0.0
1002
{
1002
}
1040
0.0
1002
{
1002
}
1040
0.0
1002
}
1002
{
1070
     0
1040
0.0
1002
{
1002
}
1040
1.0
1002
{
1002
}
1040
0.0
1002
}
1002
{
1040
0.0
1002
{
1002
{
1010
0.0
1020
0.0
1030
0.0
1002
}
1040
1.0
1000

1040
0.0
1002
{
1002
}
1040
0.0
1002
{
1002
}
1040
0.0
1002
}
1002
}
1002
{
1002
{
1070
     1
1002
{
1040
0.0
1040
1.0
1000

1040
0.0
1002
{
1002
}
1040
0.0
1002
{
1002
}
1040
0.0
1002
}
1002
}
1040
0.0
1002
{
1002
}
1010
1.0
1020
0.0
1030
0.0
1010
0.0
1020
1.0
1030
0.0
1010
0.0
1020
0.0
1030
1.0
1070
     0
1002
}
1002
{
1002
{
1040
1.0
1040
1.0
1002
{
1070
     1
1002
{
1040
1.0
1040
1.0
1000

1040
0.0
1002
{
1002
}
1040
0.0
1002
{
1002
}
1040
0.0
1002
}
1002
}
1002
}
1070
     0
1040
0.0
1002
{
1002
}
1002
}
1002
{
1002
}
1002
}
1002
{
1071
        3
1070
     3
1070
     0
1002
{
1070
     2
1070
     0
1070
     0
1040
0.0
1002
}
1070
     0
1070
     2
1002
{
1002
}
1002
}
1002
{
1040
8030.0
1040
190.3000030517578
1040
0.3050000071525574
1040
228.0
1040
545.0
1040
14.0
1040
17.39999961853027
1040
0.4560000002384186
1002
}
1002
}
  0
MESH
  5
F9
330
1F
100
AcDbEntity
  8
OracDecor_cornice_mouldings
 62
    71
420
 12117145
160
             32120
310
787D00007C0300000C00000013000000020000003C0000000600000002000000000000E0FF3F8FC000000080C1F0063F00000000290043C00000002000408F40000000807127D7BE00000000290043C00C000000130000000A0000003C0000000600000002000000000000E0FF3F8FC000000080C1F0063F00000000290043
310
C0000000E0FF3F8FC000000080C1F0063F000000207E1D40C00C00000013000000120000003C00000006000000020000000000002000408F40000000807127D7BE000000207E1D40C0000000E0FF3F8FC000000080C1F0063F000000207E1D40C00C000000130000001A0000003C0000000600000002000000000000200040
310
8F40000000807127D7BE00000000290043C00000002000408F40000000807127D7BE000000207E1D40C00C00000013000000220000003C0000000600000002000000000000E0FF3F8FC000000080C1F0063F000000207E1D40C0000000E0FF3F8FC000000040B422E3BF0000004073ED3FC00C000000130000002A0000003C
310
00000006000000020000000000002000408F40000000801B23E3BF0000004073ED3FC0000000E0FF3F8FC000000040B422E3BF0000004073ED3FC00C00000013000000320000003C00000006000000020000000000002000408F40000000801B23E3BF0000004073ED3FC00000002000408F40000000807127D7BE00000020
310
7E1D40C00C000000130000003A0000003C0000000600000002000000000000E0FF3F8FC000000040B422E3BF0000004073ED3FC0000000E0FF3F8FC000000020CAB2F0BF000000204E6D3FC00C00000013000000420000003C00000006000000020000000000002000408F40000000E0FDB2F0BF000000204E6D3FC0000000
310
E0FF3F8FC000000020CAB2F0BF000000204E6D3FC00C000000130000004A0000003C00000006000000020000000000002000408F40000000E0FDB2F0BF000000204E6D3FC00000002000408F40000000801B23E3BF0000004073ED3FC00C00000013000000520000003C0000000600000002000000000000E0FF3F8FC00000
310
0020CAB2F0BF000000204E6D3FC0000000E0FF3F8FC000000020AA67F4BF000000A04ECC3EC00C000000130000005A0000003C00000006000000020000000000002000408F40000000E0D567F4BF000000A04ECC3EC0000000E0FF3F8FC000000020AA67F4BF000000A04ECC3EC00C00000013000000620000003C00000006
310
000000020000000000002000408F40000000E0D567F4BF000000A04ECC3EC00000002000408F40000000E0FDB2F0BF000000204E6D3FC00C000000130000006A0000003C0000000600000002000000000000E0FF3F8FC000000020AA67F4BF000000A04ECC3EC0000000E0FF3F8FC000000020422CF4BF000000C0BC203EC0
310
0C00000013000000720000003C00000006000000020000000000002000408F40000000E0752CF4BF000000C0BC203EC0000000E0FF3F8FC000000020422CF4BF000000C0BC203EC00C000000130000007A0000003C00000006000000020000000000002000408F40000000E0752CF4BF000000C0BC203EC00000002000408F
310
40000000E0D567F4BF000000A04ECC3EC00C00000013000000820000003C0000000600000002000000000000E0FF3F8FC000000020422CF4BF000000C0BC203EC0000000E0FF3F8FC000000080C1F0063F000000C07D2E38C00C000000130000008A0000003C00000006000000020000000000002000408F40000000807127
310
D7BE000000C07D2E38C0000000E0FF3F8FC000000080C1F0063F000000C07D2E38C00C00000013000000920000003C00000006000000020000000000002000408F40000000E0752CF4BF000000C0BC203EC00000002000408F40000000807127D7BE000000C07D2E38C00C000000130000009A0000003C0000000600000002
310
000000000000E0FF3F8FC000000080C1F0063F000000C07D2E38C0000000E0FF3F8FC000000080C1F0063F00000040592937C00C00000013000000A20000003C00000006000000020000000000002000408F40000000807127D7BE00000040592937C0000000E0FF3F8FC000000080C1F0063F00000040592937C00C000000
310
13000000AA0000003C00000006000000020000000000002000408F40000000807127D7BE000000C07D2E38C00000002000408F40000000807127D7BE00000040592937C00C00000013000000B20000003C0000000600000002000000000000E0FF3F8FC000000080C1F0063F00000040592937C0000000E0FF3F8FC0000000
310
00D154C5BF000000E0060B37C00C00000013000000BA0000003C00000006000000020000000000002000408F40000000402E56C5BF000000E0060B37C0000000E0FF3F8FC000000000D154C5BF000000E0060B37C00C00000013000000C20000003C00000006000000020000000000002000408F40000000402E56C5BF0000
310
00E0060B37C00000002000408F40000000807127D7BE00000040592937C00C00000013000000CA0000003C0000000600000002000000000000E0FF3F8FC000000080E879D7BF00000000520037C0000000E0FF3F8FC000000000D154C5BF000000E0060B37C00C00000013000000D20000003C000000060000000200000000
310
00002000408F4000000040977AD7BF00000000520037C0000000E0FF3F8FC000000080E879D7BF00000000520037C00C00000013000000DA0000003C00000006000000020000000000002000408F4000000040977AD7BF00000000520037C00000002000408F40000000402E56C5BF000000E0060B37C00C00000013000000
310
E20000003C0000000600000002000000000000E0FF3F8FC000000080E879D7BF00000000520037C0000000E0FF3F8FC000000020C17D0AC000000000520037C00C00000013000000EA0000003C0000000600000002000000000000E0FF3F8FC000000020C17D0AC000000000520037C00000002000408F40000000E0DA7D0A
310
C000000000520037C00C00000013000000F20000003C00000006000000020000000000002000408F4000000040977AD7BF00000000520037C00000002000408F40000000E0DA7D0AC000000000520037C00C00000013000000FA0000003C0000000600000002000000000000E0FF3F8FC000000020C17D0AC0000000005200
310
37C0000000E0FF3F8FC000000080FAAF10C000000000972037C00C00000013000000020100003C0000000600000002000000000000E0FF3F8FC000000080FAAF10C000000000972037C00000002000408F400000008007B010C000000000972037C00C000000130000000A0100003C00000006000000020000000000002000
310
408F40000000E0DA7D0AC000000000520037C00000002000408F400000008007B010C000000000972037C00C00000013000000120100003C0000000600000002000000000000E0FF3F8FC000000080FAAF10C000000000972037C0000000E0FF3F8FC000000080ECD613C000000020A97E37C00C000000130000001A010000
310
3C0000000600000002000000000000E0FF3F8FC000000080ECD613C000000020A97E37C00000002000408F4000000080F9D613C000000020A97E37C00C00000013000000220100003C00000006000000020000000000002000408F4000000080F9D613C000000020A97E37C00000002000408F400000008007B010C0000000
310
00972037C00C000000130000002A0100003C0000000600000002000000000000E0FF3F8FC0000000802A7016C0000000C0A81238C0000000E0FF3F8FC000000080ECD613C000000020A97E37C00C00000013000000320100003C00000006000000020000000000002000408F4000000080357016C0000000C0A81238C00000
310
00E0FF3F8FC0000000802A7016C0000000C0A81238C00C000000130000003A0100003C00000006000000020000000000002000408F4000000080357016C0000000C0A81238C00000002000408F4000000080F9D613C000000020A97E37C00C00000013000000420100003C0000000600000002000000000000E0FF3F8FC000
310
0000802A7016C0000000C0A81238C0000000E0FF3F8FC000000040137E20C0000000A016373BC00C000000130000004A0100003C00000006000000020000000000002000408F40000000C0187E20C0000000A016373BC0000000E0FF3F8FC000000040137E20C0000000A016373BC00C00000013000000520100003C000000
310
06000000020000000000002000408F40000000C0187E20C0000000A016373BC00000002000408F4000000080357016C0000000C0A81238C00C000000130000005A0100003C0000000600000002000000000000E0FF3F8FC000000040137E20C0000000A016373BC0000000E0FF3F8FC00000004067A822C0000000A0BE2D3C
310
C00C00000013000000620100003C0000000600000002000000000000E0FF3F8FC00000004067A822C0000000A0BE2D3CC00000002000408F40000000C06DA822C0000000A0BE2D3CC00C000000130000006A0100003C00000006000000020000000000002000408F40000000C0187E20C0000000A016373BC0000000200040
310
8F40000000C06DA822C0000000A0BE2D3CC00C00000013000000720100003C0000000600000002000000000000E0FF3F8FC00000004067A822C0000000A0BE2D3CC0000000E0FF3F8FC000000040ED4825C0000000008CCA3CC00C000000130000007A0100003C0000000600000002000000000000E0FF3F8FC000000040ED
310
4825C0000000008CCA3CC00000002000408F40000000C0F44825C0000000008CCA3CC00C00000013000000820100003C00000006000000020000000000002000408F40000000C0F44825C0000000008CCA3CC00000002000408F40000000C06DA822C0000000A0BE2D3CC00C000000130000008A0100003C00000006000000
310
02000000000000E0FF3F8FC000000040252728C00000000052003DC0000000E0FF3F8FC000000040ED4825C0000000008CCA3CC00C00000013000000920100003C00000006000000020000000000002000408F40000000C02B2728C00000000052003DC0000000E0FF3F8FC000000040252728C00000000052003DC00C0000
310
00130000009A0100003C00000006000000020000000000002000408F40000000C02B2728C00000000052003DC00000002000408F40000000C0F44825C0000000008CCA3CC00C00000013000000A20100003C0000000600000002000000000000E0FF3F8FC000000040252728C00000000052003DC0000000E0FF3F8FC00000
310
0040C3352AC00000000052003DC00C00000013000000AA0100003C00000006000000020000000000002000408F40000000C0C9352AC00000000052003DC0000000E0FF3F8FC000000040C3352AC00000000052003DC00C00000013000000B20100003C00000006000000020000000000002000408F40000000C0C9352AC000
310
00000052003DC00000002000408F40000000C02B2728C00000000052003DC00C00000013000000BA0100003C0000000600000002000000000000E0FF3F8FC000000040C3352AC00000000052003DC0000000E0FF3F8FC000000040E7E72CC0000000006DC43CC00C00000013000000C20100003C0000000600000002000000
310
000000E0FF3F8FC000000040E7E72CC0000000006DC43CC00000002000408F40000000C0EEE72CC0000000006DC43CC00C00000013000000CA0100003C00000006000000020000000000002000408F40000000C0C9352AC00000000052003DC00000002000408F40000000C0EEE72CC0000000006DC43CC00C000000130000
310
00D20100003C0000000600000002000000000000E0FF3F8FC000000040E7E72CC0000000006DC43CC0000000E0FF3F8FC0000000405B492FC000000060BB173CC00C00000013000000DA0100003C0000000600000002000000000000E0FF3F8FC0000000405B492FC000000060BB173CC00000002000408F40000000C06249
310
2FC000000060BB173CC00C00000013000000E20100003C00000006000000020000000000002000408F40000000C062492FC000000060BB173CC00000002000408F40000000C0EEE72CC0000000006DC43CC00C00000013000000EA0100003C0000000600000002000000000000E0FF3F8FC0000000405B492FC000000060BB
310
173CC0000000E0FF3F8FC0000000A0638930C0000000C06F0E3BC00C00000013000000F20100003C0000000600000002000000000000E0FF3F8FC0000000A0638930C0000000C06F0E3BC00000002000408F4000000060668930C0000000C06F0E3BC00C00000013000000FA0100003C000000060000000200000000000020
310
00408F4000000060668930C0000000C06F0E3BC00000002000408F40000000C062492FC000000060BB173CC00C00000013000000020200003C0000000600000002000000000000E0FF3F8FC0000000A0638930C0000000C06F0E3BC0000000E0FF3F8FC0000000A04D0731C0000000C097C739C00C000000130000000A0200
310
003C0000000600000002000000000000E0FF3F8FC0000000A04D0731C0000000C097C739C00000002000408F40000000E0500731C0000000C097C739C00C00000013000000120200003C00000006000000020000000000002000408F40000000E0500731C0000000C097C739C00000002000408F4000000060668930C00000
310
00C06F0E3BC00C000000130000001A0200003C0000000600000002000000000000E0FF3F8FC0000000A0B50F31C0000000A0766938C0000000E0FF3F8FC0000000A04D0731C0000000C097C739C00C00000013000000220200003C00000006000000020000000000002000408F40000000E0B80F31C0000000A0766938C000
310
0000E0FF3F8FC0000000A0B50F31C0000000A0766938C00C000000130000002A0200003C00000006000000020000000000002000408F40000000E0B80F31C0000000A0766938C00000002000408F40000000E0500731C0000000C097C739C00C00000013000000320200003C0000000600000002000000000000E0FF3F8FC0
310
00000040C1D92AC0000000000080F7BE000000E0FF3F8FC0000000A0B50F31C0000000A0766938C00C000000130000003A0200003C0000000600000002000000000000E0FF3F8FC000000040C1D92AC0000000000080F7BE0000002000408F40000000C0C7D92AC0000000000080F7BE0C00000013000000420200003C0000
310
0006000000020000000000002000408F40000000C0C7D92AC0000000000080F7BE0000002000408F40000000E0B80F31C0000000A0766938C00C000000130000004A0200003C0000000600000002000000000000E0FF3F8FC000000040C1D92AC0000000000080F7BE000000E0FF3F8FC0000000A052D530C0000000000080
310
F7BE0C00000013000000520200003C00000006000000020000000000002000408F400000006056D530C0000000000080F7BE000000E0FF3F8FC0000000A052D530C0000000000080F7BE0C000000130000005A0200003C00000006000000020000000000002000408F40000000C0C7D92AC0000000000080F7BE0000002000
310
408F400000006056D530C0000000000080F7BE0C00000013000000620200003C0000000600000002000000000000E0FF3F8FC0000000A0E63231C0000000006398E5BF000000E0FF3F8FC0000000A052D530C0000000000080F7BE0C000000130000006A0200003C00000006000000020000000000002000408F4000000060
310
EC3231C000000000CB98E5BF000000E0FF3F8FC0000000A0E63231C0000000006398E5BF0C00000013000000720200003C00000006000000020000000000002000408F400000006056D530C0000000000080F7BE0000002000408F4000000060EC3231C000000000CB98E5BF0C000000130000007A0200003C000000060000
310
0002000000000000E0FF3F8FC0000000A0FFCF31C000000080D92DF2BF000000E0FF3F8FC0000000A0E63231C0000000006398E5BF0C00000013000000820200003C00000006000000020000000000002000408F400000006002D031C000000080D32DF2BF000000E0FF3F8FC0000000A0FFCF31C000000080D92DF2BF0C00
310
0000130000008A0200003C00000006000000020000000000002000408F4000000060EC3231C000000000CB98E5BF0000002000408F400000006002D031C000000080D32DF2BF0C00000013000000920200003C0000000600000002000000000000E0FF3F8FC0000000A0F98F32C0000000800DCCF4BF000000E0FF3F8FC000
310
0000A0FFCF31C000000080D92DF2BF0C000000130000009A0200003C00000006000000020000000000002000408F4000000060FD8F32C0000000801DCCF4BF000000E0FF3F8FC0000000A0F98F32C0000000800DCCF4BF0C00000013000000A20200003C00000006000000020000000000002000408F400000006002D031C0
310
00000080D32DF2BF0000002000408F4000000060FD8F32C0000000801DCCF4BF0C00000013000000AA0200003C0000000600000002000000000000E0FF3F8FC0000000A0F44F33C000000080D92DF2BF000000E0FF3F8FC0000000A0F98F32C0000000800DCCF4BF0C00000013000000B20200003C00000006000000020000
310
000000002000408F4000000060F84F33C000000080D32DF2BF000000E0FF3F8FC0000000A0F44F33C000000080D92DF2BF0C00000013000000BA0200003C00000006000000020000000000002000408F4000000060FD8F32C0000000801DCCF4BF0000002000408F4000000060F84F33C000000080D32DF2BF0C0000001300
310
0000C20200003C0000000600000002000000000000E0FF3F8FC0000000200DED33C0000000006398E5BF000000E0FF3F8FC0000000A0F44F33C000000080D92DF2BF0C00000013000000CA0200003C00000006000000020000000000002000408F40000000600EED33C000000000CB98E5BF000000E0FF3F8FC0000000200D
310
ED33C0000000006398E5BF0C00000013000000D20200003C00000006000000020000000000002000408F4000000060F84F33C000000080D32DF2BF0000002000408F40000000600EED33C000000000CB98E5BF0C00000013000000DA0200003C0000000600000002000000000000E0FF3F8FC0000000A0A04A34C000000000
310
0080F7BE000000E0FF3F8FC0000000200DED33C0000000006398E5BF0C00000013000000E20200003C00000006000000020000000000002000408F4000000060A44A34C0000000000080F7BE000000E0FF3F8FC0000000A0A04A34C0000000000080F7BE0C00000013000000EA0200003C0000000600000002000000000000
310
2000408F40000000600EED33C000000000CB98E5BF0000002000408F4000000060A44A34C0000000000080F7BE0C00000013000000F20200003C0000000600000002000000000000E0FF3F8FC0000000E01F5537C0000000000080F7BE000000E0FF3F8FC0000000A0A04A34C0000000000080F7BE0C00000013000000FA02
310
00003C00000006000000020000000000002000408F40000000E0225537C0000000000080F7BE000000E0FF3F8FC0000000E01F5537C0000000000080F7BE0C00000013000000020300003C00000006000000020000000000002000408F40000000E0225537C0000000000080F7BE0000002000408F4000000060A44A34C000
310
0000000080F7BE0C000000130000000A0300003C0000000600000002000000000000E0FF3F8FC0000000E01F5537C0000000000080F7BE000000E0FF3F8FC00000006015E13FC0000000E0DE9539C00C00000013000000120300003C00000006000000020000000000002000408F400000006018E13FC0000000E0DE9539C0
310
000000E0FF3F8FC00000006015E13FC0000000E0DE9539C00C000000130000001A0300003C00000006000000020000000000002000408F400000006018E13FC0000000E0DE9539C00000002000408F40000000E0225537C0000000000080F7BE0C00000013000000220300003C0000000600000002000000000000E0FF3F8F
310
C00000006015E13FC0000000E0DE9539C0000000E0FF3F8FC0000000A0214C40C0000000A010F73AC00C000000130000002A0300003C00000006000000020000000000002000408F4000000000234C40C0000000A010F73AC0000000E0FF3F8FC0000000A0214C40C0000000A010F73AC00C00000013000000320300003C00
310
000006000000020000000000002000408F400000006018E13FC0000000E0DE9539C00000002000408F4000000000234C40C0000000A010F73AC00C000000130000003A0300003C0000000600000002000000000000E0FF3F8FC0000000A0214C40C0000000A010F73AC0000000E0FF3F8FC00000008085D940C000000040F3
310
0E3CC00C00000013000000420300003C00000006000000020000000000002000408F40000000E086D940C000000040F30E3CC0000000E0FF3F8FC00000008085D940C000000040F30E3CC00C000000130000004A0300003C00000006000000020000000000002000408F40000000E086D940C000000040F30E3CC000000020
310
00408F4000000000234C40C0000000A010F73AC00C00000013000000520300003C0000000600000002000000000000E0FF3F8FC00000008085D940C000000040F30E3CC0000000E0FF3F8FC0000000400D8B41C0000000007CC23CC00C000000130000005A0300003C00000006000000020000000000002000408F40000000
310
A00E8B41C0000000007CC23CC0000000E0FF3F8FC0000000400D8B41C0000000007CC23CC00C00000013000000620300003C00000006000000020000000000002000408F40000000A00E8B41C0000000007CC23CC00000002000408F40000000E086D940C000000040F30E3CC00C000000130000006A0300003C0000000600
310
000002000000000000E0FF3F8FC0000000C0914F42C00000000052003DC0000000E0FF3F8FC0000000400D8B41C0000000007CC23CC00C00000013000000720300003C00000006000000020000000000002000408F4000000020934F42C00000000052003DC0000000E0FF3F8FC0000000C0914F42C00000000052003DC00C
310
000000130000007A0300003C00000006000000020000000000002000408F4000000020934F42C00000000052003DC00000002000408F40000000A00E8B41C0000000007CC23CC00C00000013000000820300003C0000000600000002000000000000E0FF3F8FC000000040FF7F56C00000000052003DC0000000E0FF3F8FC0
310
000000C0914F42C00000000052003DC00C000000130000008A0300003C00000006000000020000000000000000408F4000000020008056C00000000052003DC0000000E0FF3F8FC000000040FF7F56C00000000052003DC00C00000013000000920300003C00000006000000020000000000000000408F4000000020008056
310
C00000000052003DC00000002000408F4000000020934F42C00000000052003DC00C000000130000009A0300003C0000000600000002000000000000E0FF3F8FC000000040FF7F56C00000000052003DC0000000E0FF3F8FC0000000A0393557C0000000E091243DC00C00000013000000A20300003C000000060000000200
310
0000000000E0FF3F8FC0000000A0393557C0000000E091243DC00000000000408F40000000603A3557C0000000E091243DC00C00000013000000AA0300003C00000006000000020000000000000000408F4000000020008056C00000000052003DC00000000000408F40000000603A3557C0000000E091243DC00C00000013
310
000000B20300003C0000000600000002000000000000E0FF3F8FC0000000A0393557C0000000E091243DC0000000E0FF3F8FC0000000808DD457C0000000C0AC883DC00C00000013000000BA0300003C0000000600000002000000000000E0FF3F8FC0000000808DD457C0000000C0AC883DC00000000000408F4000000060
310
8ED457C0000000C0AC883DC00C00000013000000C20300003C00000006000000020000000000000000408F40000000608ED457C0000000C0AC883DC00000000000408F40000000603A3557C0000000E091243DC00C00000013000000CA0300003C0000000600000002000000000000E0FF3F8FC0000000808DD457C0000000
310
C0AC883DC0000000E0FF3F8FC0000000408BEB58C00000002085F83EC00C00000013000000D20300003C0000000600000002000000000000E0FF3F8FC0000000408BEB58C00000002085F83EC00000000000408F40000000208CEB58C00000002085F83EC00C00000013000000DA0300003C00000006000000020000000000
310
000000408F40000000208CEB58C00000002085F83EC00000000000408F40000000608ED457C0000000C0AC883DC00C00000013000000E20300003C0000000600000002000000000000E0FF3F8FC0000000408BEB58C00000002085F83EC0000000E0FF3F8FC00000004062D759C000000020219740C00C00000013000000EA
310
0300003C0000000600000002000000000000E0FF3F8FC00000004062D759C000000020219740C00000000000408F400000002063D759C000000020219740C00C00000013000000F20300003C00000006000000020000000000000000408F400000002063D759C000000020219740C00000000000408F40000000208CEB58C0
310
0000002085F83EC00C00000013000000FA0300003C0000000600000002000000000000E0FF3F8FC00000004062D759C000000020219740C0000000E0FF3F8FC0000000801D9D5AC000000000501742C00C00000013000000020400003C0000000600000002000000000000E0FF3F8FC0000000801D9D5AC000000000501742
310
C00000000000408F40000000601E9D5AC000000000501742C00C000000130000000A0400003C00000006000000020000000000000000408F40000000601E9D5AC000000000501742C00000000000408F400000002063D759C000000020219740C00C00000013000000120400003C0000000600000002000000000000E0FF3F
310
8FC0000000801D9D5AC000000000501742C0000000E0FF3F8FC0000000E0A2E25AC0000000E0D89442C00C000000130000001A0400003C0000000600000002000000000000E0FF3F8FC0000000E0A2E25AC0000000E0D89442C00000000000408F40000000A0A3E25AC0000000E0D89442C00C00000013000000220400003C
310
00000006000000020000000000000000408F40000000601E9D5AC000000000501742C00000000000408F40000000A0A3E25AC0000000E0D89442C00C000000130000002A0400003C0000000600000002000000000000E0FF3F8FC0000000E0A2E25AC0000000E0D89442C0000000E0FF3F8FC0000000A05A375BC0000000A0
310
BEE442C00C00000013000000320400003C0000000600000002000000000000E0FF3F8FC0000000A05A375BC0000000A0BEE442C00000000000408F40000000605B375BC0000000A0BEE442C00C000000130000003A0400003C00000006000000020000000000000000408F40000000605B375BC0000000A0BEE442C0000000
310
0000408F40000000A0A3E25AC0000000E0D89442C00C00000013000000420400003C0000000600000002000000000000E0FF3F8FC00000006002945BC000000000290043C0000000E0FF3F8FC0000000A05A375BC0000000A0BEE442C00C000000130000004A0400003C00000006000000020000000000000000408F400000
310
002003945BC000000000290043C0000000E0FF3F8FC00000006002945BC000000000290043C00C00000013000000520400003C00000006000000020000000000000000408F400000002003945BC000000000290043C00000000000408F40000000605B375BC0000000A0BEE442C00C000000130000005A0400003C00000006
310
00000002000000000000E0FF3F8FC00000006002945BC000000000290043C0000000E0FF3F8FC000000060E65A5CC000000000290043C00C00000013000000620400003C00000006000000020000000000000000408F4000000020E75A5CC000000000290043C0000000E0FF3F8FC000000060E65A5CC000000000290043C0
310
0C000000130000006A0400003C00000006000000020000000000000000408F4000000020E75A5CC000000000290043C00000000000408F400000002003945BC000000000290043C00C00000013000000720400003C0000000600000002000000000000E0FF3F8FC000000060E65A5CC000000000290043C0000000E0FF3F8F
310
C0000000C04A895CC000000020C1EE42C00C000000130000007A0400003C0000000600000002000000000000E0FF3F8FC0000000C04A895CC000000020C1EE42C00000000000408F40000000A04B895CC000000020C1EE42C00C00000013000000820400003C00000006000000020000000000000000408F4000000020E75A
310
5CC000000000290043C00000000000408F40000000A04B895CC000000020C1EE42C00C000000130000008A0400003C0000000600000002000000000000E0FF3F8FC0000000C04A895CC000000020C1EE42C0000000E0FF3F8FC00000002060B15CC000000040E7BC42C00C00000013000000920400003C0000000600000002
310
000000000000E0FF3F8FC00000002060B15CC000000040E7BC42C00000000000408F40000000E060B15CC000000040E7BC42C00C000000130000009A0400003C00000006000000020000000000000000408F40000000E060B15CC000000040E7BC42C00000000000408F40000000A04B895CC000000020C1EE42C00C000000
310
13000000A20400003C0000000600000002000000000000E0FF3F8FC00000002060B15CC000000040E7BC42C0000000E0FF3F8FC000000020B3CD5CC0000000E0627142C00C00000013000000AA0400003C0000000600000002000000000000E0FF3F8FC000000020B3CD5CC0000000E0627142C00000000000408F40000000
310
E0B3CD5CC0000000E0627142C00C00000013000000B20400003C00000006000000020000000000000000408F40000000E0B3CD5CC0000000E0627142C00000000000408F40000000E060B15CC000000040E7BC42C00C00000013000000BA0400003C0000000600000002000000000000E0FF3F8FC0000000A069DA5CC00000
310
00E0781642C0000000E0FF3F8FC000000020B3CD5CC0000000E0627142C00C00000013000000C20400003C00000006000000020000000000000000408F40000000606ADA5CC0000000E0781642C0000000E0FF3F8FC0000000A069DA5CC0000000E0781642C00C00000013000000CA0400003C000000060000000200000000
310
00000000408F40000000606ADA5CC0000000E0781642C00000000000408F40000000E0B3CD5CC0000000E0627142C00C00000013000000D20400003C0000000600000002000000000000E0FF3F8FC0000000A069DA5CC0000000E0781642C0000000E0FF3F8FC0000000E0F4195DC000000060B2D338C00C00000013000000
310
DA0400003C00000006000000020000000000000000408F40000000C0F5195DC000000060B2D338C0000000E0FF3F8FC0000000E0F4195DC000000060B2D338C00C00000013000000E20400003C00000006000000020000000000000000408F40000000C0F5195DC000000060B2D338C00000000000408F40000000606ADA5C
310
C0000000E0781642C00C00000013000000EA0400003C0000000600000002000000000000E0FF3F8FC0000000E0F4195DC000000060B2D338C0000000E0FF3F8FC000000060AB265DC000000060DE1D38C00C00000013000000F20400003C0000000600000002000000000000E0FF3F8FC000000060AB265DC000000060DE1D
310
38C00000000000408F4000000040AC265DC000000060DE1D38C00C00000013000000FA0400003C00000006000000020000000000000000408F40000000C0F5195DC000000060B2D338C00000000000408F4000000040AC265DC000000060DE1D38C00C00000013000000020500003C0000000600000002000000000000E0FF
310
3F8FC000000060AB265DC000000060DE1D38C0000000E0FF3F8FC000000080FE425DC0000000A0D58637C00C000000130000000A0500003C0000000600000002000000000000E0FF3F8FC000000080FE425DC0000000A0D58637C00000000000408F4000000060FF425DC0000000A0D58637C00C0000001300000012050000
310
3C00000006000000020000000000000000408F4000000060FF425DC0000000A0D58637C00000000000408F4000000040AC265DC000000060DE1D38C00C000000130000001A0500003C0000000600000002000000000000E0FF3F8FC000000080FE425DC0000000A0D58637C0000000E0FF3F8FC000000000146B5DC0000000
310
E0212337C00C00000013000000220500003C0000000600000002000000000000E0FF3F8FC000000000146B5DC0000000E0212337C00000000000408F40000000C0146B5DC0000000E0212337C00C000000130000002A0500003C00000006000000020000000000000000408F40000000C0146B5DC0000000E0212337C00000
310
000000408F4000000060FF425DC0000000A0D58637C00C00000013000000320500003C0000000600000002000000000000E0FF3F8FC00000004078995DC000000000520037C0000000E0FF3F8FC000000000146B5DC0000000E0212337C00C000000130000003A0500003C00000006000000020000000000000000408F4000
310
0000E078995DC000000000520037C0000000E0FF3F8FC00000004078995DC000000000520037C00C00000013000000420500003C00000006000000020000000000000000408F40000000E078995DC000000000520037C00000000000408F40000000C0146B5DC0000000E0212337C00C000000130000004A0500003C000000
310
0600000002000000000000E0FF3F8FC00000004078995DC000000000520037C0000000E0FF3F8FC000000080E67A5EC000000000520037C00C00000013000000520500003C00000006000000020000000000000000408F4000000020E77A5EC000000000520037C0000000E0FF3F8FC000000080E67A5EC000000000520037
310
C00C000000130000005A0500003C00000006000000020000000000000000408F4000000020E77A5EC000000000520037C00000000000408F40000000E078995DC000000000520037C00C00000013000000620500003C0000000600000002000000000000E0FF3F8FC000000080E67A5EC000000000520037C0000000E0FF3F
310
8FC0000000C04AA95EC00000002082DD36C00C000000130000006A0500003C0000000600000002000000000000E0FF3F8FC0000000C04AA95EC00000002082DD36C00000000000408F40000000604BA95EC00000002082DD36C00C00000013000000720500003C00000006000000020000000000000000408F4000000020E7
310
7A5EC000000000520037C00000000000408F40000000604BA95EC00000002082DD36C00C000000130000007A0500003C0000000600000002000000000000E0FF3F8FC0000000C04AA95EC00000002082DD36C0000000E0FF3F8FC00000004060D15EC000000060CE7936C00C00000013000000820500003C00000006000000
310
02000000000000E0FF3F8FC00000004060D15EC000000060CE7936C00000000000408F40000000E060D15EC000000060CE7936C00C000000130000008A0500003C00000006000000020000000000000000408F40000000E060D15EC000000060CE7936C00000000000408F40000000604BA95EC00000002082DD36C00C0000
310
0013000000920500003C0000000600000002000000000000E0FF3F8FC00000004060D15EC000000060CE7936C0000000E0FF3F8FC000000040B3ED5EC0000000A0C5E235C00C000000130000009A0500003C0000000600000002000000000000E0FF3F8FC000000040B3ED5EC0000000A0C5E235C00000000000408F400000
310
00E0B3ED5EC0000000A0C5E235C00C00000013000000A20500003C00000006000000020000000000000000408F40000000E0B3ED5EC0000000A0C5E235C00000000000408F40000000E060D15EC000000060CE7936C00C00000013000000AA0500003C0000000600000002000000000000E0FF3F8FC0000000C069FA5EC000
310
0000A0F12C35C0000000E0FF3F8FC000000040B3ED5EC0000000A0C5E235C00C00000013000000B20500003C00000006000000020000000000000000408F40000000606AFA5EC0000000A0F12C35C0000000E0FF3F8FC0000000C069FA5EC0000000A0F12C35C00C00000013000000BA0500003C0000000600000002000000
310
0000000000408F40000000606AFA5EC0000000A0F12C35C00000000000408F40000000E0B3ED5EC0000000A0C5E235C00C00000013000000C20500003C0000000600000002000000000000E0FF3F8FC0000000C069FA5EC0000000A0F12C35C0000000E0FF3F8FC00000008019155FC0000000C0D16830C00C000000130000
310
00CA0500003C00000006000000020000000000000000408F40000000201A155FC0000000C0D16830C0000000E0FF3F8FC00000008019155FC0000000C0D16830C00C00000013000000D20500003C00000006000000020000000000000000408F40000000201A155FC0000000C0D16830C00000000000408F40000000606AFA
310
5EC0000000A0F12C35C00C00000013000000DA0500003C0000000600000002000000000000E0FF3F8FC00000008019155FC0000000C0D16830C0000000E0FF3F8FC0000000807D245FC000000080EC3C2FC00C00000013000000E20500003C0000000600000002000000000000E0FF3F8FC0000000807D245FC000000080EC
310
3C2FC00000000000408F40000000207E245FC000000080EC3C2FC00C00000013000000EA0500003C00000006000000020000000000000000408F40000000201A155FC0000000C0D16830C00000000000408F40000000207E245FC000000080EC3C2FC00C00000013000000F20500003C0000000600000002000000000000E0
310
FF3F8FC0000000807D245FC000000080EC3C2FC0000000E0FF3F8FC00000000006475FC00000008077FC2DC00C00000013000000FA0500003C0000000600000002000000000000E0FF3F8FC00000000006475FC00000008077FC2DC00000000000408F40000000A006475FC00000008077FC2DC00C00000013000000020600
310
003C00000006000000020000000000000000408F40000000A006475FC00000008077FC2DC00000000000408F40000000207E245FC000000080EC3C2FC00C000000130000000A0600003C0000000600000002000000000000E0FF3F8FC000000000CB765FC0000000800F472DC0000000E0FF3F8FC00000000006475FC00000
310
008077FC2DC00C00000013000000120600003C00000006000000020000000000000000408F40000000A0CB765FC0000000800F472DC0000000E0FF3F8FC000000000CB765FC0000000800F472DC00C000000130000001A0600003C00000006000000020000000000000000408F40000000A0CB765FC0000000800F472DC000
310
00000000408F40000000A006475FC00000008077FC2DC00C00000013000000220600003C0000000600000002000000000000E0FF3F8FC000000000CB765FC0000000800F472DC0000000E0FF3F8FC0000000E0109260C00000000041102AC00C000000130000002A0600003C00000006000000020000000000000000408F40
310
00000020119260C00000000041102AC0000000E0FF3F8FC0000000E0109260C00000000041102AC00C00000013000000320600003C00000006000000020000000000000000408F4000000020119260C00000000041102AC00000000000408F40000000A0CB765FC0000000800F472DC00C000000130000003A0600003C0000
310
000600000002000000000000E0FF3F8FC0000000E0109260C00000000041102AC0000000E0FF3F8FC000000060F3A960C000000080D95A29C00C00000013000000420600003C0000000600000002000000000000E0FF3F8FC000000060F3A960C000000080D95A29C00000000000408F40000000A0F3A960C000000080D95A
310
29C00C000000130000004A0600003C00000006000000020000000000000000408F4000000020119260C00000000041102AC00000000000408F40000000A0F3A960C000000080D95A29C00C00000013000000520600003C0000000600000002000000000000E0FF3F8FC000000060F3A960C000000080D95A29C0000000E0FF
310
3F8FC0000000A037BB60C000000040641A28C00C000000130000005A0600003C0000000600000002000000000000E0FF3F8FC0000000A037BB60C000000040641A28C00000000000408F40000000E037BB60C000000040641A28C00C00000013000000620600003C00000006000000020000000000000000408F40000000E0
310
37BB60C000000040641A28C00000000000408F40000000A0F3A960C000000080D95A29C00C000000130000006A0600003C0000000600000002000000000000E0FF3F8FC0000000A0E9C260C000000080AD8526C0000000E0FF3F8FC0000000A037BB60C000000040641A28C00C00000013000000720600003C000000060000
310
00020000000000000000408F40000000E0E9C260C000000080AD8526C0000000E0FF3F8FC0000000A0E9C260C000000080AD8526C00C000000130000007A0600003C00000006000000020000000000000000408F40000000E0E9C260C000000080AD8526C00000000000408F40000000E037BB60C000000040641A28C00C00
310
000013000000820600003C0000000600000002000000000000E0FF3F8FC00000008070E260C0000000000080F7BE000000E0FF3F8FC0000000A0E9C260C000000080AD8526C00C000000130000008A0600003C0000000600000002000000000000E0FF3F8FC00000008070E260C0000000000080F7BE0000000000408F4000
310
0000E070E260C0000000000080F7BE0C00000013000000920600003C00000006000000020000000000000000408F40000000E070E260C0000000000080F7BE0000000000408F40000000E0E9C260C000000080AD8526C00C000000130000009A0600003C0000000600000002000000000000E0FF3F8FC00000008070E260C0
310
000000000080F7BE000000E0FF3F8FC0000000A0F7E861C0000000000080F7BE0C00000013000000A20600003C00000006000000020000000000000000408F40000000E0F7E861C0000000000080F7BE000000E0FF3F8FC0000000A0F7E861C0000000000080F7BE0C00000013000000AA0600003C00000006000000020000
310
000000000000408F40000000E070E260C0000000000080F7BE0000000000408F40000000E0F7E861C0000000000080F7BE0C00000013000000B20600003C0000000600000002000000000000E0FF3F8FC000000020AAF461C0000000006398E5BF000000E0FF3F8FC0000000A0F7E861C0000000000080F7BE0C0000001300
310
0000BA0600003C00000006000000020000000000000000408F40000000E0AAF461C000000000CB98E5BF000000E0FF3F8FC000000020AAF461C0000000006398E5BF0C00000013000000C20600003C00000006000000020000000000000000408F40000000E0F7E861C0000000000080F7BE0000000000408F40000000E0AA
310
F461C000000000CB98E5BF0C00000013000000CA0600003C0000000600000002000000000000E0FF3F8FC0000000204D0862C000000080D92DF2BF000000E0FF3F8FC000000020AAF461C0000000006398E5BF0C00000013000000D20600003C00000006000000020000000000000000408F40000000604D0862C000000080
310
D32DF2BF000000E0FF3F8FC0000000204D0862C000000080D92DF2BF0C00000013000000DA0600003C00000006000000020000000000000000408F40000000E0AAF461C000000000CB98E5BF0000000000408F40000000604D0862C000000080D32DF2BF0C00000013000000E20600003C0000000600000002000000000000
310
E0FF3F8FC0000000804C2062C0000000800DCCF4BF000000E0FF3F8FC0000000204D0862C000000080D92DF2BF0C00000013000000EA0600003C00000006000000020000000000000000408F40000000E04C2062C0000000801DCCF4BF000000E0FF3F8FC0000000804C2062C0000000800DCCF4BF0C00000013000000F206
310
00003C00000006000000020000000000000000408F40000000604D0862C000000080D32DF2BF0000000000408F40000000E04C2062C0000000801DCCF4BF0C00000013000000FA0600003C0000000600000002000000000000E0FF3F8FC0000000E04B3862C000000080D92DF2BF000000E0FF3F8FC0000000804C2062C000
310
0000800DCCF4BF0C00000013000000020700003C00000006000000020000000000000000408F40000000604C3862C000000080D32DF2BF000000E0FF3F8FC0000000E04B3862C000000080D92DF2BF0C000000130000000A0700003C00000006000000020000000000000000408F40000000E04C2062C0000000801DCCF4BF
310
0000000000408F40000000604C3862C000000080D32DF2BF0C00000013000000120700003C0000000600000002000000000000E0FF3F8FC0000000E0EE4B62C0000000006398E5BF000000E0FF3F8FC0000000E04B3862C000000080D92DF2BF0C000000130000001A0700003C00000006000000020000000000000000408F
310
40000000E0EE4B62C000000000CB98E5BF000000E0FF3F8FC0000000E0EE4B62C0000000006398E5BF0C00000013000000220700003C00000006000000020000000000000000408F40000000604C3862C000000080D32DF2BF0000000000408F40000000E0EE4B62C000000000CB98E5BF0C000000130000002A0700003C00
310
00000600000002000000000000E0FF3F8FC000000060A15762C0000000000080F7BE000000E0FF3F8FC0000000E0EE4B62C0000000006398E5BF0C00000013000000320700003C00000006000000020000000000000000408F40000000A0A15762C0000000000080F7BE000000E0FF3F8FC000000060A15762C00000000000
310
80F7BE0C000000130000003A0700003C00000006000000020000000000000000408F40000000E0EE4B62C000000000CB98E5BF0000000000408F40000000A0A15762C0000000000080F7BE0C00000013000000420700003C0000000600000002000000000000E0FF3F8FC0000000E0AC6163C0000000000080F7BE000000E0
310
FF3F8FC000000060A15762C0000000000080F7BE0C000000130000004A0700003C00000006000000020000000000000000408F4000000060AD6163C0000000000080F7BE000000E0FF3F8FC0000000E0AC6163C0000000000080F7BE0C00000013000000520700003C00000006000000020000000000000000408F40000000
310
60AD6163C0000000000080F7BE0000000000408F40000000A0A15762C0000000000080F7BE0C000000130000005A0700003C0000000600000002000000000000E0FF3F8FC0000000E0AC6163C0000000000080F7BE000000E0FF3F8FC0000000A0B65963C000000000A40023C00C00000013000000620700003C0000000600
310
0000020000000000000000408F4000000020B75963C000000000A40023C0000000E0FF3F8FC0000000A0B65963C000000000A40023C00C000000130000006A0700003C00000006000000020000000000000000408F4000000020B75963C000000000A40023C00000000000408F4000000060AD6163C0000000000080F7BE0C
310
00000013000000720700003C0000000600000002000000000000E0FF3F8FC0000000A0B65963C000000000A40023C0000000E0FF3F8FC0000000E0C50863C000000000EB8D23C00C000000130000007A0700003C0000000600000002000000000000E0FF3F8FC0000000E0C50863C000000000EB8D23C00000000000408F40
310
00000060C60863C000000000EB8D23C00C00000013000000820700003C00000006000000020000000000000000408F4000000020B75963C000000000A40023C00000000000408F4000000060C60863C000000000EB8D23C00C000000130000008A0700003C0000000600000002000000000000E0FF3F8FC0000000E0C50863
310
C000000000EB8D23C0000000E0FF3F8FC0000000A075B962C000000000694C25C00C00000013000000920700003C0000000600000002000000000000E0FF3F8FC0000000A075B962C000000000694C25C00000000000408F400000002076B962C000000000694C25C00C000000130000009A0700003C000000060000000200
310
00000000000000408F400000002076B962C000000000694C25C00000000000408F4000000060C60863C000000000EB8D23C00C00000013000000A20700003C0000000600000002000000000000E0FF3F8FC0000000A075B962C000000000694C25C0000000E0FF3F8FC0000000C0579262C00000000042A726C00C00000013
310
000000AA0700003C0000000600000002000000000000E0FF3F8FC0000000C0579262C00000000042A726C00000000000408F4000000020589262C00000000042A726C00C00000013000000B20700003C00000006000000020000000000000000408F4000000020589262C00000000042A726C00000000000408F4000000020
310
76B962C000000000694C25C00C00000013000000BA0700003C0000000600000002000000000000E0FF3F8FC0000000C0579262C00000000042A726C0000000E0FF3F8FC0000000C0086B62C000000000406128C00C00000013000000C20700003C0000000600000002000000000000E0FF3F8FC0000000C0086B62C0000000
310
00406128C00000000000408F4000000020096B62C000000000406128C00C00000013000000CA0700003C00000006000000020000000000000000408F4000000020096B62C000000000406128C00000000000408F4000000020589262C00000000042A726C00C00000013000000D20700003C00000006000000020000000000
310
00E0FF3F8FC0000000C0086B62C000000000406128C0000000E0FF3F8FC000000040AD4362C000000040EB832AC00C00000013000000DA0700003C0000000600000002000000000000E0FF3F8FC000000040AD4362C000000040EB832AC00000000000408F40000000A0AD4362C000000040EB832AC00C00000013000000E2
310
0700003C00000006000000020000000000000000408F40000000A0AD4362C000000040EB832AC00000000000408F4000000020096B62C000000000406128C00C00000013000000EA0700003C0000000600000002000000000000E0FF3F8FC000000040AD4362C000000040EB832AC0000000E0FF3F8FC000000040A91C62C0
310
000000C094192DC00C00000013000000F20700003C0000000600000002000000000000E0FF3F8FC000000040A91C62C0000000C094192DC00000000000408F40000000A0A91C62C0000000C094192DC00C00000013000000FA0700003C00000006000000020000000000000000408F40000000A0A91C62C0000000C094192D
310
C00000000000408F40000000A0AD4362C000000040EB832AC00C00000013000000020800003C0000000600000002000000000000E0FF3F8FC000000040A91C62C0000000C094192DC0000000E0FF3F8FC00000006078F761C000000040C90A30C00C000000130000000A0800003C0000000600000002000000000000E0FF3F
310
8FC00000006078F761C000000040C90A30C00000000000408F40000000A078F761C000000040C90A30C00C00000013000000120800003C00000006000000020000000000000000408F40000000A078F761C000000040C90A30C00000000000408F40000000A0A91C62C0000000C094192DC00C000000130000001A0800003C
310
0000000600000002000000000000E0FF3F8FC00000006078F761C000000040C90A30C0000000E0FF3F8FC0000000C01AD561C000000060B09D31C00C00000013000000220800003C0000000600000002000000000000E0FF3F8FC0000000C01AD561C000000060B09D31C00000000000408F40000000201BD561C000000060
310
B09D31C00C000000130000002A0800003C00000006000000020000000000000000408F40000000201BD561C000000060B09D31C00000000000408F40000000A078F761C000000040C90A30C00C00000013000000320800003C0000000600000002000000000000E0FF3F8FC0000000C01AD561C000000060B09D31C0000000
310
E0FF3F8FC00000006020B561C000000040271F33C00C000000130000003A0800003C0000000600000002000000000000E0FF3F8FC00000006020B561C000000040271F33C00000000000408F40000000A020B561C000000040271F33C00C00000013000000420800003C00000006000000020000000000000000408F400000
310
00A020B561C000000040271F33C00000000000408F40000000201BD561C000000060B09D31C00C000000130000004A0800003C0000000600000002000000000000E0FF3F8FC00000006020B561C000000040271F33C0000000E0FF3F8FC000000080439661C000000060507934C00C00000013000000520800003C00000006
310
00000002000000000000E0FF3F8FC000000080439661C000000060507934C00000000000408F40000000E0439661C000000060507934C00C000000130000005A0800003C00000006000000020000000000000000408F40000000E0439661C000000060507934C00000000000408F40000000A020B561C000000040271F33C0
310
0C00000013000000620800003C0000000600000002000000000000E0FF3F8FC000000080439661C000000060507934C0000000E0FF3F8FC0000000A0487861C0000000E0929A35C00C000000130000006A0800003C0000000600000002000000000000E0FF3F8FC0000000A0487861C0000000E0929A35C00000000000408F
310
40000000E0487861C0000000E0929A35C00C00000013000000720800003C00000006000000020000000000000000408F40000000E0487861C0000000E0929A35C00000000000408F40000000E0439661C000000060507934C00C000000130000007A0800003C0000000600000002000000000000E0FF3F8FC0000000A04878
310
61C0000000E0929A35C0000000E0FF3F8FC000000060835A61C0000000E0BC8636C00C00000013000000820800003C0000000600000002000000000000E0FF3F8FC000000060835A61C0000000E0BC8636C00000000000408F40000000A0835A61C0000000E0BC8636C00C000000130000008A0800003C0000000600000002
310
0000000000000000408F40000000A0835A61C0000000E0BC8636C00000000000408F40000000E0487861C0000000E0929A35C00C00000013000000920800003C0000000600000002000000000000E0FF3F8FC000000060835A61C0000000E0BC8636C0000000E0FF3F8FC000000000321F61C0000000C027D537C00C000000
310
130000009A0800003C0000000600000002000000000000E0FF3F8FC000000000321F61C0000000C027D537C00000000000408F4000000060321F61C0000000C027D537C00C00000013000000A20800003C00000006000000020000000000000000408F4000000060321F61C0000000C027D537C00000000000408F40000000
310
A0835A61C0000000E0BC8636C00C00000013000000AA0800003C0000000600000002000000000000E0FF3F8FC000000000321F61C0000000C027D537C0000000E0FF3F8FC00000006057E060C0000000204F9E38C00C00000013000000B20800003C0000000600000002000000000000E0FF3F8FC00000006057E060C00000
310
00204F9E38C00000000000408F40000000A057E060C0000000204F9E38C00C00000013000000BA0800003C00000006000000020000000000000000408F40000000A057E060C0000000204F9E38C00000000000408F4000000060321F61C0000000C027D537C00C00000013000000C20800003C000000060000000200000000
310
0000E0FF3F8FC00000006057E060C0000000204F9E38C0000000E0FF3F8FC0000000A0989360C000000000520039C00C00000013000000CA0800003C0000000600000002000000000000E0FF3F8FC0000000A0989360C000000000520039C00000000000408F40000000E0989360C000000000520039C00C00000013000000
310
D20800003C00000006000000020000000000000000408F40000000E0989360C000000000520039C00000000000408F40000000A057E060C0000000204F9E38C00C00000013000000DA0800003C0000000600000002000000000000E0FF3F8FC0000000A0989360C000000000520039C0000000E0FF3F8FC0000000A0FF7F60
310
C000000000290040C00C00000013000000E20800003C0000000600000002000000000000E0FF3F8FC0000000A0FF7F60C000000000290040C00000000000408F40000000E0FF7F60C000000000290040C00C00000013000000EA0800003C00000006000000020000000000000000408F40000000E0989360C0000000005200
310
39C00000000000408F40000000E0FF7F60C000000000290040C00C00000013000000F20800003C0000000600000002000000000000E0FF3F8FC0000000A0FF7F60C000000000290040C0000000E0FF3F8FC000000080FC335FC000000000290040C00C00000013000000FA0800003C0000000600000002000000000000E0FF
310
3F8FC000000080FC335FC000000000290040C00000000000408F4000000020FD335FC000000000290040C00C00000013000000020900003C00000006000000020000000000000000408F40000000E0FF7F60C000000000290040C00000000000408F4000000020FD335FC000000000290040C00C000000130000000A090000
310
3C0000000600000002000000000000E0FF3F8FC000000080FC335FC000000000290040C0000000E0FF3F8FC000000040FFDF5EC000000000298047C00C00000013000000120900003C0000000600000002000000000000E0FF3F8FC000000040FFDF5EC000000000298047C00000000000408F40000000E0FFDF5EC0000000
310
00298047C00C000000130000001A0900003C00000006000000020000000000000000408F4000000020FD335FC000000000290040C00000000000408F40000000E0FFDF5EC000000000298047C00C00000013000000220900003C0000000600000002000000000000E0FF3F8FC000000040FFDF5EC000000000298047C00000
310
00E0FF3F8FC000000040FF7F59C000000000298047C00C000000130000002A0900003C0000000600000002000000000000E0FF3F8FC000000040FF7F59C000000000298047C00000000000408F4000000020008059C000000000298047C00C00000013000000320900003C00000006000000020000000000000000408F4000
310
0000E0FFDF5EC000000000298047C00000000000408F4000000020008059C000000000298047C00C000000130000003A0900003C0000000600000002000000000000E0FF3F8FC000000040FF7F59C000000000298047C0000000E0FF3F8FC0000000805E5E59C000000020BAAE46C00C00000013000000420900003C000000
310
0600000002000000000000E0FF3F8FC0000000805E5E59C000000020BAAE46C00000000000408F40000000605F5E59C000000020BAAE46C00C000000130000004A0900003C00000006000000020000000000000000408F4000000020008059C000000000298047C00000000000408F40000000605F5E59C000000020BAAE46
310
C00C00000013000000520900003C0000000600000002000000000000E0FF3F8FC0000000805E5E59C000000020BAAE46C0000000E0FF3F8FC000000000B43859C000000060280346C00C000000130000005A0900003C0000000600000002000000000000E0FF3F8FC000000000B43859C000000060280346C0000000000040
310
8F40000000E0B43859C000000060280346C00C00000013000000620900003C00000006000000020000000000000000408F40000000E0B43859C000000060280346C00000000000408F40000000605F5E59C000000020BAAE46C00C000000130000006A0900003C0000000600000002000000000000E0FF3F8FC000000000B4
310
3859C000000060280346C0000000E0FF3F8FC0000000E0740B59C0000000A0ED6645C00C00000013000000720900003C0000000600000002000000000000E0FF3F8FC0000000E0740B59C0000000A0ED6645C00000000000408F40000000A0750B59C0000000A0ED6645C00C000000130000007A0900003C00000006000000
310
020000000000000000408F40000000A0750B59C0000000A0ED6645C00000000000408F40000000E0B43859C000000060280346C00C00000013000000820900003C0000000600000002000000000000E0FF3F8FC0000000E0740B59C0000000A0ED6645C0000000E0FF3F8FC00000008029DA58C0000000602EE344C00C0000
310
00130000008A0900003C0000000600000002000000000000E0FF3F8FC00000008029DA58C0000000602EE344C00000000000408F40000000602ADA58C0000000602EE344C00C00000013000000920900003C00000006000000020000000000000000408F40000000602ADA58C0000000602EE344C00000000000408F400000
310
00A0750B59C0000000A0ED6645C00C000000130000009A0900003C0000000600000002000000000000E0FF3F8FC00000008029DA58C0000000602EE344C0000000E0FF3F8FC0000000C0816B58C000000020581544C00C00000013000000A20900003C0000000600000002000000000000E0FF3F8FC0000000C0816B58C000
310
000020581544C00000000000408F40000000A0826B58C000000020581544C00C00000013000000AA0900003C00000006000000020000000000000000408F40000000A0826B58C000000020581544C00000000000408F40000000602ADA58C0000000602EE344C00C00000013000000B20900003C0000000600000002000000
310
000000E0FF3F8FC0000000C0816B58C000000020581544C0000000E0FF3F8FC0000000A08CEA57C0000000A0E28343C00C00000013000000BA0900003C0000000600000002000000000000E0FF3F8FC0000000A08CEA57C0000000A0E28343C00000000000408F40000000608DEA57C0000000A0E28343C00C000000130000
310
00C20900003C00000006000000020000000000000000408F40000000608DEA57C0000000A0E28343C00000000000408F40000000A0826B58C000000020581544C00C00000013000000CA0900003C0000000600000002000000000000E0FF3F8FC0000000A08CEA57C0000000A0E28343C0000000E0FF3F8FC000000080CA4A
310
57C0000000A0232443C00C00000013000000D20900003C0000000600000002000000000000E0FF3F8FC000000080CA4A57C0000000A0232443C00000000000408F4000000060CB4A57C0000000A0232443C00C00000013000000DA0900003C00000006000000020000000000000000408F4000000060CB4A57C0000000A023
310
2443C00000000000408F40000000608DEA57C0000000A0E28343C00C00000013000000E20900003C0000000600000002000000000000E0FF3F8FC000000080CA4A57C0000000A0232443C0000000E0FF3F8FC00000008017EF56C0000000803F0A43C00C00000013000000EA0900003C0000000600000002000000000000E0
310
FF3F8FC00000008017EF56C0000000803F0A43C00000000000408F400000006018EF56C0000000803F0A43C00C00000013000000F20900003C00000006000000020000000000000000408F400000006018EF56C0000000803F0A43C00000000000408F4000000060CB4A57C0000000A0232443C00C00000013000000FA0900
310
003C0000000600000002000000000000E0FF3F8FC00000008017EF56C0000000803F0A43C0000000E0FF3F8FC000000040FF7F56C000000000290043C00C00000013000000020A00003C0000000600000002000000000000E0FF3F8FC000000040FF7F56C000000000290043C00000000000408F4000000020008056C00000
310
0000290043C00C000000130000000A0A00003C00000006000000020000000000000000408F4000000020008056C000000000290043C00000000000408F400000006018EF56C0000000803F0A43C00C00000013000000120A00003C0000000600000002000000000000E0FF3F8FC000000040FF7F56C000000000290043C000
310
0000E0FF3F8FC000000080C1F0063F00000000290043C00C000000130000001A0A00003C00000006000000020000000000000000408F4000000020008056C000000000290043C00000002000408F40000000807127D7BE00000000290043C00C00000013000000220A00003C0000000600000002000000000000E0FF3F8FC0
310
000000E0AC6163C0000000000080F7BE000000E0FF3F8FC0000000E0EE4B62C0000000006398E5BF0C000000130000002A0A00003C0000000600000002000000000000E0FF3F8FC0000000E0C50863C000000000EB8D23C0000000E0FF3F8FC0000000E04B3862C000000080D92DF2BF0C00000013000000320A00003C0000
310
000600000002000000000000E0FF3F8FC0000000A0B50F31C0000000A0766938C0000000E0FF3F8FC00000006015E13FC0000000E0DE9539C00C000000130000003A0A00003C0000000600000002000000000000E0FF3F8FC00000006015E13FC0000000E0DE9539C0000000E0FF3F8FC0000000A0F98F32C0000000800DCC
310
F4BF0C00000013000000420A00003C0000000600000002000000000000E0FF3F8FC0000000A0B50F31C0000000A0766938C0000000E0FF3F8FC0000000A0F98F32C0000000800DCCF4BF0C000000130000004A0A00003C0000000600000002000000000000E0FF3F8FC0000000E01F5537C0000000000080F7BE000000E0FF
310
3F8FC0000000200DED33C0000000006398E5BF0C00000013000000520A00003C0000000600000002000000000000E0FF3F8FC000000040C1D92AC0000000000080F7BE000000E0FF3F8FC0000000A0E63231C0000000006398E5BF0C000000130000005A0A00003C0000000600000002000000000000E0FF3F8FC0000000A0
310
B50F31C0000000A0766938C0000000E0FF3F8FC0000000A0FFCF31C000000080D92DF2BF0C00000013000000620A00003C0000000600000002000000000000E0FF3F8FC00000006015E13FC0000000E0DE9539C0000000E0FF3F8FC0000000A0F44F33C000000080D92DF2BF0C000000130000006A0A00003C000000060000
310
0002000000000000E0FF3F8FC0000000A0214C40C0000000A010F73AC0000000E0FF3F8FC0000000A04D0731C0000000C097C739C00C00000013000000720A00003C0000000600000002000000000000E0FF3F8FC00000008085D940C000000040F30E3CC0000000E0FF3F8FC0000000A0638930C0000000C06F0E3BC00C00
310
0000130000007A0A00003C0000000600000002000000000000E0FF3F8FC0000000400D8B41C0000000007CC23CC0000000E0FF3F8FC0000000405B492FC000000060BB173CC00C00000013000000820A00003C0000000600000002000000000000E0FF3F8FC000000020422CF4BF000000C0BC203EC0000000E0FF3F8FC000
310
000040137E20C0000000A016373BC00C000000130000008A0A00003C0000000600000002000000000000E0FF3F8FC000000080C1F0063F000000C07D2E38C0000000E0FF3F8FC0000000802A7016C0000000C0A81238C00C00000013000000920A00003C0000000600000002000000000000E0FF3F8FC000000020AA67F4BF
310
000000A04ECC3EC0000000E0FF3F8FC00000004067A822C0000000A0BE2D3CC00C000000130000009A0A00003C0000000600000002000000000000E0FF3F8FC000000020CAB2F0BF000000204E6D3FC0000000E0FF3F8FC000000040ED4825C0000000008CCA3CC00C00000013000000A20A00003C00000006000000020000
310
00000000E0FF3F8FC000000040B422E3BF0000004073ED3FC0000000E0FF3F8FC000000040252728C00000000052003DC00C00000013000000AA0A00003C0000000600000002000000000000E0FF3F8FC000000080C1F0063F00000000290043C0000000E0FF3F8FC000000040C3352AC00000000052003DC00C0000001300
310
0000B20A00003C0000000600000002000000000000E0FF3F8FC0000000C0914F42C00000000052003DC0000000E0FF3F8FC000000040E7E72CC0000000006DC43CC00C00000013000000BA0A00003C0000000600000002000000000000E0FF3F8FC000000080C1F0063F00000040592937C0000000E0FF3F8FC000000080EC
310
D613C000000020A97E37C00C00000013000000C20A00003C0000000600000002000000000000E0FF3F8FC000000000D154C5BF000000E0060B37C0000000E0FF3F8FC000000080FAAF10C000000000972037C00C00000013000000CA0A00003C0000000600000002000000000000E0FF3F8FC000000040FF7F56C000000000
310
290043C0000000E0FF3F8FC0000000C0914F42C00000000052003DC00C00000013000000D20A00003C0000000600000002000000000000E0FF3F8FC000000080C1F0063F00000000290043C0000000E0FF3F8FC000000040E7E72CC0000000006DC43CC00C00000013000000DA0A00003C0000000600000002000000000000
310
E0FF3F8FC000000040FF7F56C000000000290043C0000000E0FF3F8FC000000040FF7F56C00000000052003DC00C00000013000000E20A00003C0000000600000002000000000000E0FF3F8FC00000008017EF56C0000000803F0A43C0000000E0FF3F8FC0000000A0393557C0000000E091243DC00C00000013000000EA0A
310
00003C0000000600000002000000000000E0FF3F8FC000000080CA4A57C0000000A0232443C0000000E0FF3F8FC0000000808DD457C0000000C0AC883DC00C00000013000000F20A00003C0000000600000002000000000000E0FF3F8FC0000000A08CEA57C0000000A0E28343C0000000E0FF3F8FC0000000408BEB58C000
310
00002085F83EC00C00000013000000FA0A00003C0000000600000002000000000000E0FF3F8FC0000000C0816B58C000000020581544C0000000E0FF3F8FC00000004062D759C000000020219740C00C00000013000000020B00003C0000000600000002000000000000E0FF3F8FC00000008029DA58C0000000602EE344C0
310
000000E0FF3F8FC0000000801D9D5AC000000000501742C00C000000130000000A0B00003C0000000600000002000000000000E0FF3F8FC0000000E0740B59C0000000A0ED6645C0000000E0FF3F8FC0000000E0A2E25AC0000000E0D89442C00C00000013000000120B00003C0000000600000002000000000000E0FF3F8F
310
C000000000B43859C000000060280346C0000000E0FF3F8FC0000000A05A375BC0000000A0BEE442C00C000000130000001A0B00003C0000000600000002000000000000E0FF3F8FC0000000805E5E59C000000020BAAE46C0000000E0FF3F8FC00000006002945BC000000000290043C00C00000013000000220B00003C00
310
00000600000002000000000000E0FF3F8FC000000040FF7F59C000000000298047C0000000E0FF3F8FC000000060E65A5CC000000000290043C00C000000130000002A0B00003C0000000600000002000000000000E0FF3F8FC000000040FFDF5EC000000000298047C0000000E0FF3F8FC0000000C04A895CC000000020C1
310
EE42C00C00000013000000320B00003C0000000600000002000000000000E0FF3F8FC000000040FFDF5EC000000000298047C0000000E0FF3F8FC00000002060B15CC000000040E7BC42C00C000000130000003A0B00003C0000000600000002000000000000E0FF3F8FC000000040FFDF5EC000000000298047C0000000E0
310
FF3F8FC000000020B3CD5CC0000000E0627142C00C00000013000000420B00003C0000000600000002000000000000E0FF3F8FC000000080FC335FC000000000290040C0000000E0FF3F8FC0000000A069DA5CC0000000E0781642C00C000000130000004A0B00003C0000000600000002000000000000E0FF3F8FC0000000
310
80FC335FC000000000290040C0000000E0FF3F8FC0000000E0F4195DC000000060B2D338C00C00000013000000520B00003C0000000600000002000000000000E0FF3F8FC0000000A0FF7F60C000000000290040C0000000E0FF3F8FC000000080E67A5EC000000000520037C00C000000130000005A0B00003C0000000600
310
000002000000000000E0FF3F8FC000000080FC335FC000000000290040C0000000E0FF3F8FC00000004078995DC000000000520037C00C00000013000000620B00003C0000000600000002000000000000E0FF3F8FC000000080FC335FC000000000290040C0000000E0FF3F8FC000000060AB265DC000000060DE1D38C00C
310
000000130000006A0B00003C0000000600000002000000000000E0FF3F8FC000000080FC335FC000000000290040C0000000E0FF3F8FC000000080FE425DC0000000A0D58637C00C00000013000000720B00003C0000000600000002000000000000E0FF3F8FC000000080FC335FC000000000290040C0000000E0FF3F8FC0
310
00000000146B5DC0000000E0212337C00C000000130000007A0B00003C0000000600000002000000000000E0FF3F8FC0000000A0989360C000000000520039C0000000E0FF3F8FC0000000C069FA5EC0000000A0F12C35C00C00000013000000820B00003C0000000600000002000000000000E0FF3F8FC0000000A0989360
310
C000000000520039C0000000E0FF3F8FC000000040B3ED5EC0000000A0C5E235C00C000000130000008A0B00003C0000000600000002000000000000E0FF3F8FC0000000A0FF7F60C000000000290040C0000000E0FF3F8FC00000004060D15EC000000060CE7936C00C00000013000000920B00003C000000060000000200
310
0000000000E0FF3F8FC0000000A0FF7F60C000000000290040C0000000E0FF3F8FC0000000C04AA95EC00000002082DD36C00C000000130000009A0B00003C0000000600000002000000000000E0FF3F8FC00000008070E260C0000000000080F7BE000000E0FF3F8FC000000020AAF461C0000000006398E5BF0C00000013
310
000000A20B00003C0000000600000002000000000000E0FF3F8FC0000000A075B962C000000000694C25C0000000E0FF3F8FC0000000804C2062C0000000800DCCF4BF0C00000013000000AA0B00003C0000000600000002000000000000E0FF3F8FC0000000C0579262C00000000042A726C0000000E0FF3F8FC000000020
310
4D0862C000000080D92DF2BF0C00000013000000B20B00003C0000000600000002000000000000E0FF3F8FC0000000C0086B62C000000000406128C0000000E0FF3F8FC00000008070E260C0000000000080F7BE0C00000013000000BA0B00003C0000000600000002000000000000E0FF3F8FC000000040AD4362C0000000
310
40EB832AC0000000E0FF3F8FC0000000A0E9C260C000000080AD8526C00C00000013000000C20B00003C0000000600000002000000000000E0FF3F8FC000000040A91C62C0000000C094192DC0000000E0FF3F8FC0000000A037BB60C000000040641A28C00C00000013000000CA0B00003C00000006000000020000000000
310
00E0FF3F8FC00000006078F761C000000040C90A30C0000000E0FF3F8FC000000060F3A960C000000080D95A29C00C00000013000000D20B00003C0000000600000002000000000000E0FF3F8FC0000000C01AD561C000000060B09D31C0000000E0FF3F8FC0000000E0109260C00000000041102AC00C00000013000000DA
310
0B00003C0000000600000002000000000000E0FF3F8FC00000006020B561C000000040271F33C0000000E0FF3F8FC0000000E0109260C00000000041102AC00C00000013000000E20B00003C0000000600000002000000000000E0FF3F8FC000000000321F61C0000000C027D537C0000000E0FF3F8FC0000000807D245FC0
310
00000080EC3C2FC00C00000013000000EA0B00003C0000000600000002000000000000E0FF3F8FC00000006057E060C0000000204F9E38C0000000E0FF3F8FC00000008019155FC0000000C0D16830C00C00000013000000F20B00003C0000000600000002000000000000E0FF3F8FC000000060835A61C0000000E0BC8636
310
C0000000E0FF3F8FC00000000006475FC00000008077FC2DC00C00000013000000FA0B00003C0000000600000002000000000000E0FF3F8FC0000000A0487861C0000000E0929A35C0000000E0FF3F8FC000000000CB765FC0000000800F472DC00C00000013000000020C00003C0000000600000002000000000000E0FF3F
310
8FC000000080439661C000000060507934C0000000E0FF3F8FC000000000CB765FC0000000800F472DC00C000000130000000A0C00003C00000006000000020000000000000000408F4000000060C60863C000000000EB8D23C00000000000408F40000000604C3862C000000080D32DF2BF0C00000013000000120C00003C
310
00000006000000020000000000000000408F4000000060AD6163C0000000000080F7BE0000000000408F40000000E0EE4B62C000000000CB98E5BF0C000000130000001A0C00003C00000006000000020000000000002000408F40000000E0B80F31C0000000A0766938C00000002000408F4000000060FD8F32C000000080
310
1DCCF4BF0C00000013000000220C00003C00000006000000020000000000002000408F400000006018E13FC0000000E0DE9539C00000002000408F4000000060FD8F32C0000000801DCCF4BF0C000000130000002A0C00003C00000006000000020000000000002000408F40000000E0B80F31C0000000A0766938C0000000
310
2000408F400000006018E13FC0000000E0DE9539C00C00000013000000320C00003C00000006000000020000000000002000408F40000000E0225537C0000000000080F7BE0000002000408F40000000600EED33C000000000CB98E5BF0C000000130000003A0C00003C00000006000000020000000000002000408F400000
310
00C0C7D92AC0000000000080F7BE0000002000408F4000000060EC3231C000000000CB98E5BF0C00000013000000420C00003C00000006000000020000000000002000408F40000000E0B80F31C0000000A0766938C00000002000408F400000006002D031C000000080D32DF2BF0C000000130000004A0C00003C00000006
310
000000020000000000002000408F400000006018E13FC0000000E0DE9539C00000002000408F4000000060F84F33C000000080D32DF2BF0C00000013000000520C00003C00000006000000020000000000002000408F4000000000234C40C0000000A010F73AC00000002000408F40000000E0500731C0000000C097C739C0
310
0C000000130000005A0C00003C00000006000000020000000000002000408F40000000E086D940C000000040F30E3CC00000002000408F4000000060668930C0000000C06F0E3BC00C00000013000000620C00003C00000006000000020000000000002000408F40000000A00E8B41C0000000007CC23CC00000002000408F
310
40000000C062492FC000000060BB173CC00C000000130000006A0C00003C00000006000000020000000000002000408F40000000807127D7BE000000C07D2E38C00000002000408F4000000080357016C0000000C0A81238C00C00000013000000720C00003C00000006000000020000000000002000408F40000000E0752C
310
F4BF000000C0BC203EC00000002000408F40000000C0187E20C0000000A016373BC00C000000130000007A0C00003C00000006000000020000000000002000408F40000000E0D567F4BF000000A04ECC3EC00000002000408F40000000C06DA822C0000000A0BE2D3CC00C00000013000000820C00003C0000000600000002
310
0000000000002000408F40000000E0FDB2F0BF000000204E6D3FC00000002000408F40000000C0F44825C0000000008CCA3CC00C000000130000008A0C00003C00000006000000020000000000002000408F40000000801B23E3BF0000004073ED3FC00000002000408F40000000C02B2728C00000000052003DC00C000000
310
13000000920C00003C00000006000000020000000000002000408F40000000807127D7BE00000000290043C00000002000408F40000000C0C9352AC00000000052003DC00C000000130000009A0C00003C00000006000000020000000000002000408F4000000020934F42C00000000052003DC00000002000408F40000000
310
C0EEE72CC0000000006DC43CC00C00000013000000A20C00003C00000006000000020000000000002000408F40000000807127D7BE00000040592937C00000002000408F4000000080F9D613C000000020A97E37C00C00000013000000AA0C00003C00000006000000020000000000002000408F40000000402E56C5BF0000
310
00E0060B37C00000002000408F400000008007B010C000000000972037C00C00000013000000B20C00003C00000006000000020000000000002000408F40000000807127D7BE00000000290043C00000002000408F40000000C0EEE72CC0000000006DC43CC00C00000013000000BA0C00003C000000060000000200000000
310
00000000408F4000000020008056C000000000290043C00000002000408F4000000020934F42C00000000052003DC00C00000013000000C20C00003C00000006000000020000000000000000408F4000000020008056C000000000290043C00000000000408F4000000020008056C00000000052003DC00C00000013000000
310
CA0C00003C00000006000000020000000000000000408F400000006018EF56C0000000803F0A43C00000000000408F40000000603A3557C0000000E091243DC00C00000013000000D20C00003C00000006000000020000000000000000408F4000000060CB4A57C0000000A0232443C00000000000408F40000000608ED457
310
C0000000C0AC883DC00C00000013000000DA0C00003C00000006000000020000000000000000408F40000000608DEA57C0000000A0E28343C00000000000408F40000000208CEB58C00000002085F83EC00C00000013000000E20C00003C00000006000000020000000000000000408F40000000A0826B58C0000000205815
310
44C00000000000408F400000002063D759C000000020219740C00C00000013000000EA0C00003C00000006000000020000000000000000408F40000000602ADA58C0000000602EE344C00000000000408F40000000601E9D5AC000000000501742C00C00000013000000F20C00003C00000006000000020000000000000000
310
408F40000000A0750B59C0000000A0ED6645C00000000000408F40000000A0A3E25AC0000000E0D89442C00C00000013000000FA0C00003C00000006000000020000000000000000408F40000000E0B43859C000000060280346C00000000000408F40000000605B375BC0000000A0BEE442C00C00000013000000020D0000
310
3C00000006000000020000000000000000408F40000000605F5E59C000000020BAAE46C00000000000408F400000002003945BC000000000290043C00C000000130000000A0D00003C00000006000000020000000000000000408F4000000020008059C000000000298047C00000000000408F4000000020E75A5CC0000000
310
00290043C00C00000013000000120D00003C00000006000000020000000000000000408F40000000E0FFDF5EC000000000298047C00000000000408F40000000A04B895CC000000020C1EE42C00C000000130000001A0D00003C00000006000000020000000000000000408F40000000E0FFDF5EC000000000298047C00000
310
000000408F40000000E060B15CC000000040E7BC42C00C00000013000000220D00003C00000006000000020000000000000000408F40000000E0FFDF5EC000000000298047C00000000000408F40000000E0B3CD5CC0000000E0627142C00C000000130000002A0D00003C00000006000000020000000000000000408F4000
310
000020FD335FC000000000290040C00000000000408F40000000606ADA5CC0000000E0781642C00C00000013000000320D00003C00000006000000020000000000000000408F4000000020FD335FC000000000290040C00000000000408F40000000C0F5195DC000000060B2D338C00C000000130000003A0D00003C000000
310
06000000020000000000000000408F4000000020FD335FC000000000290040C00000000000408F40000000E078995DC000000000520037C00C00000013000000420D00003C00000006000000020000000000000000408F40000000E0FF7F60C000000000290040C00000000000408F4000000020E77A5EC000000000520037
310
C00C000000130000004A0D00003C00000006000000020000000000000000408F4000000020FD335FC000000000290040C00000000000408F4000000040AC265DC000000060DE1D38C00C00000013000000520D00003C00000006000000020000000000000000408F4000000020FD335FC000000000290040C0000000000040
310
8F4000000060FF425DC0000000A0D58637C00C000000130000005A0D00003C00000006000000020000000000000000408F4000000020FD335FC000000000290040C00000000000408F40000000C0146B5DC0000000E0212337C00C00000013000000620D00003C00000006000000020000000000000000408F40000000E098
310
9360C000000000520039C00000000000408F40000000E0B3ED5EC0000000A0C5E235C00C000000130000006A0D00003C00000006000000020000000000000000408F40000000E0989360C000000000520039C00000000000408F40000000606AFA5EC0000000A0F12C35C00C00000013000000720D00003C00000006000000
310
020000000000000000408F40000000E0FF7F60C000000000290040C00000000000408F40000000E060D15EC000000060CE7936C00C000000130000007A0D00003C00000006000000020000000000000000408F40000000E0FF7F60C000000000290040C00000000000408F40000000604BA95EC00000002082DD36C00C0000
310
0013000000820D00003C00000006000000020000000000000000408F40000000E070E260C0000000000080F7BE0000000000408F40000000E0AAF461C000000000CB98E5BF0C000000130000008A0D00003C00000006000000020000000000000000408F400000002076B962C000000000694C25C00000000000408F400000
310
00E04C2062C0000000801DCCF4BF0C00000013000000920D00003C00000006000000020000000000000000408F4000000020589262C00000000042A726C00000000000408F40000000604D0862C000000080D32DF2BF0C000000130000009A0D00003C00000006000000020000000000000000408F4000000020096B62C000
310
000000406128C00000000000408F40000000E070E260C0000000000080F7BE0C00000013000000A20D00003C00000006000000020000000000000000408F40000000A0AD4362C000000040EB832AC00000000000408F40000000E0E9C260C000000080AD8526C00C00000013000000AA0D00003C0000000600000002000000
310
0000000000408F40000000A0A91C62C0000000C094192DC00000000000408F40000000E037BB60C000000040641A28C00C00000013000000B20D00003C00000006000000020000000000000000408F40000000A078F761C000000040C90A30C00000000000408F40000000A0F3A960C000000080D95A29C00C000000130000
310
00BA0D00003C00000006000000020000000000000000408F40000000201BD561C000000060B09D31C00000000000408F4000000020119260C00000000041102AC00C00000013000000C20D00003C00000006000000020000000000000000408F40000000A020B561C000000040271F33C00000000000408F40000000201192
310
60C00000000041102AC00C00000013000000CA0D00003C00000006000000020000000000000000408F40000000A057E060C0000000204F9E38C00000000000408F40000000201A155FC0000000C0D16830C00C00000013000000D20D00003C00000006000000020000000000000000408F4000000060321F61C0000000C027
310
D537C00000000000408F40000000207E245FC000000080EC3C2FC00C00000013000000DA0D00003C00000006000000020000000000000000408F40000000A0835A61C0000000E0BC8636C00000000000408F40000000A006475FC00000008077FC2DC00C00000013000000E20D00003C000000060000000200000000000000
310
00408F40000000E0487861C0000000E0929A35C00000000000408F40000000A0CB765FC0000000800F472DC00C00000013000000EA0D00003C00000006000000020000000000000000408F40000000E0439661C000000060507934C00000000000408F40000000A0CB765FC0000000800F472DC0
100
AcDbSubDMesh
 71
     2
 72
     0
 91
        0
 92
      216
 10
1000.0
 20
-154.8036041259765
 30
-9.501251220703125
 10
1000.0
 20
-155.0524139404297
 30
-0.0000224113464355
 10
-999.9999389648436
 20
-155.0523529052734
 30
-0.0000224113464355
 10
-999.9999389648436
 20
-154.8035430908203
 30
-9.501251220703125
 10
-999.9999389648436
 20
-152.2741546630859
 30
-9.777183532714843
 10
-999.9999389648436
 20
-149.7956085205078
 30
-10.64923858642578
 10
-999.9999389648436
 20
-148.5732116699218
 30
-11.32667541503906
 10
-999.9999389648436
 20
-147.3448181152344
 30
-12.18994140625
 10
-999.9999389648436
 20
-146.1148986816406
 30
-13.25765419006347
 10
-999.9999389648436
 20
-144.8956604003906
 30
-14.54996299743652
 10
-999.9999389648436
 20
-143.7334442138672
 30
-16.04213333129883
 10
-999.9999389648436
 20
-142.6595153808593
 30
-17.6159725189209
 10
-999.9999389648436
 20
-141.6602020263672
 30
-19.1216926574707
 10
-999.9999389648436
 20
-140.6957397460937
 30
-20.4738826751709
 10
-999.9999389648436
 20
-139.7588653564453
 30
-21.60380363464355
 10
-999.9999389648436
 20
-138.8285369873047
 30
-22.52631950378418
 10
-999.9999389648436
 20
-136.974853515625
 30
-23.83263778686524
 10
-999.9999389648436
 20
-135.0106658935547
 30
-24.61839485168457
 10
-999.9999389648436
 20
-132.6123809814453
 30
-25.00125122070313
 10
1000.0
 20
-132.6124114990234
 30
-25.00125122070313
 10
1000.0
 20
-135.0106964111328
 30
-24.61839485168457
 10
1000.0
 20
-136.9748992919922
 30
-23.83263778686524
 10
1000.0
 20
-138.8285675048828
 30
-22.52631950378418
 10
1000.0
 20
-139.7588958740234
 30
-21.60380363464355
 10
1000.0
 20
-140.6957855224609
 30
-20.4738826751709
 10
1000.0
 20
-141.6602325439453
 30
-19.1216926574707
 10
1000.0
 20
-142.6595611572265
 30
-17.6159725189209
 10
1000.0
 20
-143.7334747314453
 30
-16.04213333129883
 10
1000.0
 20
-144.8957061767578
 30
-14.54996299743652
 10
1000.0
 20
-146.1149444580078
 30
-13.25765419006347
 10
1000.0
 20
-147.3448638916015
 30
-12.18994140625
 10
1000.0
 20
-148.573257446289
 30
-11.32667541503906
 10
1000.0
 20
-149.795669555664
 30
-10.64923858642578
 10
1000.0
 20
-152.2742156982422
 30
-9.777183532714843
 10
-999.9999389648436
 20
-131.9999542236328
 30
-32.00125122070313
 10
1000.0
 20
-131.9999847412109
 30
-32.00125122070313
 10
-999.9999389648436
 20
-124.8122863769531
 30
-32.00125122070313
 10
1000.0
 20
-124.8123245239258
 30
-32.00125122070313
 10
-999.9999389648436
 20
-123.4999542236328
 30
-47.00125122070312
 10
1000.0
 20
-123.4999923706054
 30
-47.00125122070312
 10
-999.9999389648436
 20
-101.9999542236328
 30
-47.00125122070312
 10
1000.0
 20
-102.0000076293945
 30
-47.00125122070312
 10
-999.9999389648436
 20
-101.4745178222656
 30
-45.36505508422851
 10
-999.9999389648436
 20
-100.885986328125
 30
-44.02466964721679
 10
-999.9999389648436
 20
-100.1790084838867
 30
-42.80412673950195
 10
-999.9999389648436
 20
-99.40878295898437
 30
-41.77485275268554
 10
-999.9999389648436
 20
-97.67979431152344
 30
-40.16675186157226
 10
-999.9999389648436
 20
-95.66483306884766
 30
-39.03035354614258
 10
-999.9999389648436
 20
-93.16860961914063
 30
-38.2823371887207
 10
-999.9999389648436
 20
-91.73580932617188
 30
-38.08006286621094
 10
-999.9999389648436
 20
-89.99995422363282
 30
-38.00125122070312
 10
1000.0
 20
-90.00000762939453
 30
-38.00125122070312
 10
1000.0
 20
-91.73586273193359
 30
-38.08006286621094
 10
1000.0
 20
-93.16866302490234
 30
-38.2823371887207
 10
1000.0
 20
-95.66487884521484
 30
-39.03035354614258
 10
1000.0
 20
-97.67984771728515
 30
-40.16675186157226
 10
1000.0
 20
-99.40883636474609
 30
-41.77485275268554
 10
1000.0
 20
-100.1790542602539
 30
-42.80412673950195
 10
1000.0
 20
-100.8860397338867
 30
-44.02466964721679
 10
1000.0
 20
-101.4745712280273
 30
-45.36505508422851
 10
-999.9999389648436
 20
0.0000437554408563
 30
-38.00125122070312
 10
1000.000061035156
 20
-0.0000055203618103
 30
-38.00125122070312
 10
-999.9999389648436
 20
-135.0762329101562
 30
-0.0000224113464355
 10
1000.0
 20
-135.0762786865234
 30
-0.0000224113464355
 10
1000.0
 20
-134.0910491943359
 30
-11.26108932495117
 10
-999.9999389648436
 20
-134.0910186767578
 30
-11.26108932495117
 10
1000.0
 20
-132.5645904541015
 30
-13.03174591064453
 10
1000.0
 20
-125.8561782836914
 30
-14.63879013061523
 10
-999.9999389648436
 20
-125.8561401367187
 30
-14.63879013061523
 10
-999.9999389648436
 20
-132.5645599365234
 30
-13.03174591064453
 10
1000.0
 20
-124.329719543457
 30
-16.40945053100586
 10
1000.0
 20
-123.9127426147461
 30
-21.17556190490723
 10
-999.9999389648436
 20
-123.9127044677734
 30
-21.17556190490723
 10
-999.9999389648436
 20
-124.3296813964843
 30
-16.40945053100586
 10
1000.0
 20
-121.9203567504883
 30
-23.00125122070312
 10
1000.0
 20
-118.3980026245117
 30
-23.00125122070312
 10
-999.9999389648436
 20
-118.397964477539
 30
-23.00125122070312
 10
-999.9999389648436
 20
-121.9203186035156
 30
-23.00125122070312
 10
1000.0
 20
-116.4056243896484
 30
-24.82694053649903
 10
1000.0
 20
-115.4127426147461
 30
-36.17556381225586
 10
-999.9999389648436
 20
-115.4126968383789
 30
-36.17556381225586
 10
-999.9999389648436
 20
-116.4055709838867
 30
-24.82694053649903
 10
1000.0
 20
-113.4203567504883
 30
-38.00125122070312
 10
1000.0
 20
-110.3126907348633
 30
-38.00125122070312
 10
-999.9999389648436
 20
-110.3126449584961
 30
-38.00125122070312
 10
-999.9999389648436
 20
-113.4203109741211
 30
-38.00125122070312
 10
1000.0
 20
-90.00000762939453
 30
-29.00125122070313
 10
-999.9999389648436
 20
-89.99995422363282
 30
-29.00125122070313
 10
-999.9999389648436
 20
-92.83164215087891
 30
-29.14285087585449
 10
-999.9999389648436
 20
-95.32113647460937
 30
-29.53388595581055
 10
-999.9999389648436
 20
-99.68037414550781
 30
-30.97078132629395
 10
-999.9999389648436
 20
-103.3653717041015
 30
-33.18069839477539
 10
-999.9999389648436
 20
-106.4549255371094
 30
-36.18212890625
 10
1000.0
 20
-106.4549789428711
 30
-36.18212890625
 10
1000.0
 20
-103.3654251098633
 30
-33.18069839477539
 10
1000.0
 20
-99.68042755126953
 30
-30.97078132629395
 10
1000.0
 20
-95.3211898803711
 30
-29.53388595581055
 10
1000.0
 20
-92.83168792724609
 30
-29.14285087585449
 10
1000.000061035156
 20
-36.62167739868164
 30
-29.00125122070313
 10
-999.9999389648436
 20
-36.62163543701172
 30
-29.00125122070313
 10
1000.000061035156
 20
-0.3668573498725891
 30
-23.00125122070312
 10
-999.9999389648436
 20
-0.3668156862258911
 30
-23.00125122070312
 10
-999.9999389648436
 20
-3.311403512954711
 30
-23.00125122070312
 10
1000.000061035156
 20
-3.311452627182006
 30
-23.00125122070312
 10
-999.9999389648436
 20
-13.42530250549316
 30
-0.0000224113464355
 10
1000.000061035156
 20
-13.42535209655762
 30
-0.0000224113464355
 10
1000.000061035156
 20
-17.06141471862793
 30
-24.41196632385254
 10
-999.9999389648436
 20
-17.06136512756347
 30
-24.41196632385254
 10
1000.000061035156
 20
-31.8792781829834
 30
-25.5854320526123
 10
1000.000061035156
 20
-23.33256340026856
 30
-0.0000224113464355
 10
-999.9999389648436
 20
-23.33251762390137
 30
-0.0000224113464355
 10
-999.9999389648436
 20
-31.87923240661621
 30
-25.5854320526123
 10
1000.000061035156
 20
-1.260854601860046
 30
-30.12788009643555
 10
1000.000061035156
 20
-1.275350451469421
 30
-30.79807472229004
 10
1000.000061035156
 20
-1.043699145317077
 30
-31.42697334289551
 10
1000.000061035156
 20
-0.5980355739593506
 30
-31.92753982543945
 10
1000.000061035156
 20
-0.0000055203618103
 30
-32.23041152954102
 10
-999.9999389648436
 20
0.0000437554408563
 30
-32.23041152954102
 10
-999.9999389648436
 20
-0.5979863405227662
 30
-31.92753982543945
 10
-999.9999389648436
 20
-1.043649792671203
 30
-31.42697334289551
 10
-999.9999389648436
 20
-1.275308728218078
 30
-30.79807472229004
 10
-999.9999389648436
 20
-1.260805249214172
 30
-30.12788009643555
 10
1000.000061035156
 20
-0.0000055203618103
 30
-24.18160629272461
 10
-999.9999389648436
 20
0.0000437554408563
 30
-24.18160629272461
 10
1000.000061035156
 20
-13.10505485534668
 30
-29.00125122070313
 10
1000.000061035156
 20
-12.07650566101074
 30
-29.00125122070313
 10
-999.9999389648436
 20
-12.07645606994629
 30
-29.00125122070313
 10
-999.9999389648436
 20
-13.10500526428223
 30
-29.00125122070313
 10
1000.000061035156
 20
-8.246282577514648
 30
-27.21518898010254
 10
1000.000061035156
 20
-5.60957908630371
 30
-24.0728874206543
 10
-999.9999389648436
 20
-5.609537124633789
 30
-24.0728874206543
 10
-999.9999389648436
 20
-8.246240615844726
 30
-27.21518898010254
 10
1000.000061035156
 20
-0.1666925251483917
 30
-23.0430736541748
 10
1000.000061035156
 20
-0.0000055203618103
 30
-23.16151809692383
 10
-999.9999389648436
 20
0.0000437554408563
 30
-23.16151809692383
 10
-999.9999389648436
 20
-0.1666508913040161
 30
-23.0430736541748
 10
-999.9999389648436
 20
-133.3109588623047
 30
-12.67744064331054
 10
-999.9999389648436
 20
-133.8505401611328
 30
-12.05154609680176
 10
1000.0
 20
-133.8505706787109
 30
-12.05154609680176
 10
1000.0
 20
-133.3109893798828
 30
-12.67744064331054
 10
-999.9999389648436
 20
-124.5701599121094
 30
-15.61899185180664
 10
-999.9999389648436
 20
-125.1097412109375
 30
-14.99309921264648
 10
1000.0
 20
-125.1097793579101
 30
-14.99309921264648
 10
1000.0
 20
-124.570198059082
 30
-15.61899185180664
 10
-999.9999389648436
 20
-122.6451873779297
 30
-22.86526679992676
 10
-999.9999389648436
 20
-123.271499633789
 30
-22.47580528259277
 10
-999.9999389648436
 20
-123.7140655517578
 30
-21.88582801818848
 10
1000.0
 20
-123.7141036987305
 30
-21.88582801818848
 10
1000.0
 20
-123.2715377807617
 30
-22.47580528259277
 10
1000.0
 20
-122.6452255249023
 30
-22.86526679992676
 10
-999.9999389648436
 20
-116.6042098999023
 30
-24.11667442321777
 10
-999.9999389648436
 20
-117.0467834472656
 30
-23.52669715881348
 10
-999.9999389648436
 20
-117.673095703125
 30
-23.13723564147949
 10
1000.0
 20
-117.6731414794922
 30
-23.13723564147949
 10
1000.0
 20
-117.0468368530273
 30
-23.52669715881348
 10
1000.0
 20
-116.604263305664
 30
-24.11667442321777
 10
-999.9999389648436
 20
-114.1451873779297
 30
-37.86526870727539
 10
-999.9999389648436
 20
-114.7714920043945
 30
-37.47580718994141
 10
-999.9999389648436
 20
-115.2140579223632
 30
-36.88582992553711
 10
1000.0
 20
-115.2141036987304
 30
-36.88582992553711
 10
1000.0
 20
-114.7715377807617
 30
-37.47580718994141
 10
1000.0
 20
-114.1452407836914
 30
-37.86526870727539
 10
1000.000061035156
 20
-35.08638381958008
 30
-28.75970458984375
 10
1000.000061035156
 20
-33.69942855834961
 30
-28.05839920043946
 10
1000.000061035156
 20
-32.59481811523438
 30
-26.96509742736817
 10
-999.9999389648436
 20
-32.59477615356445
 30
-26.96509742736817
 10
-999.9999389648436
 20
-33.69938659667969
 30
-28.05839920043946
 10
-999.9999389648436
 20
-35.08634185791016
 30
-28.75970458984375
 10
-999.9999389648436
 20
-107.5411911010742
 30
-37.16286849975586
 10
-999.9999389648436
 20
-108.8649063110351
 30
-37.78706741333008
 10
1000.0
 20
-108.8649520874023
 30
-37.78706741333008
 10
1000.0
 20
-107.5412368774414
 30
-37.16286849975586
 10
-999.9999389648436
 20
-9.328912734985351
 30
-28.17868995666504
 10
-999.9999389648436
 20
-10.64243507385254
 30
-28.79119873046875
 10
1000.000061035156
 20
-10.64249229431152
 30
-28.79119873046875
 10
1000.000061035156
 20
-9.328962326049804
 30
-28.17868995666504
 10
-999.9999389648436
 20
-4.171854019165039
 30
-23.12730407714844
 10
-999.9999389648436
 20
-4.95988655090332
 30
-23.49476814270019
 10
1000.000061035156
 20
-4.959936141967773
 30
-23.49476814270019
 10
1000.000061035156
 20
-4.171903610229492
 30
-23.12730407714844
 10
-999.9999389648436
 20
-14.45293617248535
 30
-28.76728820800781
 10
-999.9999389648436
 20
-15.64327430725098
 30
-28.09270286560059
 10
-999.9999389648436
 20
-16.53667640686035
 30
-27.05639266967774
 10
-999.9999389648436
 20
-17.02852821350098
 30
-25.77965927124024
 10
1000.000061035156
 20
-17.02857780456543
 30
-25.77965927124024
 10
1000.000061035156
 20
-16.53671836853027
 30
-27.05639266967774
 10
1000.000061035156
 20
-15.64333152770996
 30
-28.09270286560059
 10
1000.000061035156
 20
-14.45299339294433
 30
-28.76728820800781
 10
1000.000061035156
 20
-16.83334922790527
 30
-0.0000224113464355
 10
1000.000061035156
 20
-17.19891929626465
 30
-0.6749014854431153
 10
1000.000061035156
 20
-17.81253623962402
 30
-1.136188030242919
 10
1000.000061035156
 20
-18.56245994567871
 30
-1.299832820892333
 10
1000.000061035156
 20
-19.3123836517334
 30
-1.136188030242919
 10
1000.000061035156
 20
-19.92600059509277
 30
-0.6749014854431153
 10
1000.000061035156
 20
-20.29157066345215
 30
-0.0000224113464355
 10
1000.0
 20
-143.2802581787109
 30
-0.0000224113464355
 10
1000.0
 20
-143.6458587646484
 30
-0.6749014854431153
 10
1000.0
 20
-144.2594451904296
 30
-1.136188030242919
 10
1000.0
 20
-145.0093841552734
 30
-1.299832820892333
 10
1000.0
 20
-145.7593231201172
 30
-1.136188030242919
 10
1000.0
 20
-146.3729095458984
 30
-0.6749014854431153
 10
1000.0
 20
-146.7384796142578
 30
-0.0000224113464355
 10
-999.9999389648436
 20
-20.29151344299316
 30
-0.0000224113464355
 10
-999.9999389648436
 20
-19.92598152160644
 30
-0.6748518943786621
 10
-999.9999389648436
 20
-19.31232643127441
 30
-1.136193752288818
 10
-999.9999389648436
 20
-18.56240272521972
 30
-1.299817562103271
 10
-999.9999389648436
 20
-17.8124942779541
 30
-1.136193752288818
 10
-999.9999389648436
 20
-17.19883155822754
 30
-0.6748518943786621
 10
-999.9999389648436
 20
-16.83329200744629
 30
-0.0000224113464355
 10
-999.9999389648436
 20
-146.7384490966797
 30
-0.0000224113464355
 10
-999.9999389648436
 20
-146.3729095458984
 30
-0.6748518943786621
 10
-999.9999389648436
 20
-145.7592620849609
 30
-1.136193752288818
 10
-999.9999389648436
 20
-145.0093383789062
 30
-1.299817562103271
 10
-999.9999389648436
 20
-144.2594146728515
 30
-1.136193752288818
 10
-999.9999389648436
 20
-143.645767211914
 30
-0.6748518943786621
 10
-999.9999389648436
 20
-143.2802276611328
 30
-0.0000224113464355
 93
     1124
 90
        4
 90
       61
 90
       60
 90
      117
 90
      116
 90
        4
 90
      116
 90
      117
 90
      118
 90
      115
 90
        4
 90
      115
 90
      118
 90
      119
 90
      114
 90
        4
 90
      114
 90
      119
 90
      120
 90
      113
 90
        4
 90
      113
 90
      120
 90
      121
 90
      112
 90
        4
 90
      112
 90
      121
 90
      123
 90
      122
 90
        4
 90
      122
 90
      123
 90
      134
 90
      133
 90
        4
 90
      133
 90
      134
 90
      135
 90
      132
 90
        4
 90
      132
 90
      135
 90
      101
 90
      100
 90
        4
 90
      100
 90
      101
 90
      102
 90
      103
 90
        4
 90
      103
 90
      102
 90
      176
 90
      179
 90
        4
 90
      179
 90
      176
 90
      177
 90
      178
 90
        4
 90
      178
 90
      177
 90
      130
 90
      129
 90
        4
 90
      129
 90
      130
 90
      131
 90
      128
 90
        4
 90
      128
 90
      131
 90
      172
 90
      175
 90
        4
 90
      175
 90
      172
 90
      173
 90
      174
 90
        4
 90
      174
 90
      173
 90
      126
 90
      125
 90
        4
 90
      125
 90
      126
 90
      127
 90
      124
 90
        4
 90
      124
 90
      127
 90
      180
 90
      187
 90
        4
 90
      187
 90
      180
 90
      181
 90
      186
 90
        4
 90
      186
 90
      181
 90
      182
 90
      185
 90
        4
 90
      185
 90
      182
 90
      183
 90
      184
 90
        4
 90
      184
 90
      183
 90
      107
 90
      106
 90
        4
 90
      106
 90
      107
 90
      104
 90
      105
 90
        4
 90
      105
 90
      104
 90
      208
 90
      188
 90
        4
 90
      188
 90
      208
 90
      207
 90
      189
 90
        4
 90
      189
 90
      207
 90
      206
 90
      190
 90
        4
 90
      190
 90
      206
 90
      205
 90
      191
 90
        4
 90
      191
 90
      205
 90
      204
 90
      192
 90
        4
 90
      192
 90
      204
 90
      203
 90
      193
 90
        4
 90
      193
 90
      203
 90
      202
 90
      194
 90
        4
 90
      194
 90
      202
 90
      110
 90
      109
 90
        4
 90
      109
 90
      110
 90
      111
 90
      108
 90
        4
 90
      108
 90
      111
 90
      165
 90
      164
 90
        4
 90
      164
 90
      165
 90
      166
 90
      163
 90
        4
 90
      163
 90
      166
 90
      167
 90
      162
 90
        4
 90
      162
 90
      167
 90
       99
 90
       98
 90
        4
 90
       98
 90
       99
 90
       87
 90
       86
 90
        4
 90
       86
 90
       87
 90
       88
 90
       97
 90
        4
 90
       97
 90
       88
 90
       89
 90
       96
 90
        4
 90
       96
 90
       89
 90
       90
 90
       95
 90
        4
 90
       95
 90
       90
 90
       91
 90
       94
 90
        4
 90
       94
 90
       91
 90
       92
 90
       93
 90
        4
 90
       93
 90
       92
 90
      168
 90
      171
 90
        4
 90
      171
 90
      168
 90
      169
 90
      170
 90
        4
 90
      170
 90
      169
 90
       84
 90
       83
 90
        4
 90
       83
 90
       84
 90
       85
 90
       82
 90
        4
 90
       82
 90
       85
 90
      156
 90
      161
 90
        4
 90
      161
 90
      156
 90
      157
 90
      160
 90
        4
 90
      160
 90
      157
 90
      158
 90
      159
 90
        4
 90
      159
 90
      158
 90
       80
 90
       79
 90
        4
 90
       79
 90
       80
 90
       81
 90
       78
 90
        4
 90
       78
 90
       81
 90
      150
 90
      155
 90
        4
 90
      155
 90
      150
 90
      151
 90
      154
 90
        4
 90
      154
 90
      151
 90
      152
 90
      153
 90
        4
 90
      153
 90
      152
 90
       76
 90
       75
 90
        4
 90
       75
 90
       76
 90
       77
 90
       74
 90
        4
 90
       74
 90
       77
 90
      144
 90
      149
 90
        4
 90
      149
 90
      144
 90
      145
 90
      148
 90
        4
 90
      148
 90
      145
 90
      146
 90
      147
 90
        4
 90
      147
 90
      146
 90
       72
 90
       71
 90
        4
 90
       71
 90
       72
 90
       73
 90
       70
 90
        4
 90
       70
 90
       73
 90
      140
 90
      143
 90
        4
 90
      143
 90
      140
 90
      141
 90
      142
 90
        4
 90
      142
 90
      141
 90
       68
 90
       67
 90
        4
 90
       67
 90
       68
 90
       69
 90
       66
 90
        4
 90
       66
 90
       69
 90
      136
 90
      139
 90
        4
 90
      139
 90
      136
 90
      137
 90
      138
 90
        4
 90
      138
 90
      137
 90
       65
 90
       64
 90
        4
 90
       64
 90
       65
 90
       62
 90
       63
 90
        4
 90
       63
 90
       62
 90
      215
 90
      195
 90
        4
 90
      195
 90
      215
 90
      214
 90
      196
 90
        4
 90
      196
 90
      214
 90
      213
 90
      197
 90
        4
 90
      197
 90
      213
 90
      212
 90
      198
 90
        4
 90
      198
 90
      212
 90
      211
 90
      199
 90
        4
 90
      199
 90
      211
 90
      210
 90
      200
 90
        4
 90
      200
 90
      210
 90
      209
 90
      201
 90
        4
 90
      201
 90
      209
 90
        2
 90
        1
 90
        4
 90
        1
 90
        2
 90
        3
 90
        0
 90
        4
 90
        0
 90
        3
 90
        4
 90
       33
 90
        4
 90
       33
 90
        4
 90
        5
 90
       32
 90
        4
 90
       32
 90
        5
 90
        6
 90
       31
 90
        4
 90
       31
 90
        6
 90
        7
 90
       30
 90
        4
 90
       30
 90
        7
 90
        8
 90
       29
 90
        4
 90
       29
 90
        8
 90
        9
 90
       28
 90
        4
 90
       28
 90
        9
 90
       10
 90
       27
 90
        4
 90
       27
 90
       10
 90
       11
 90
       26
 90
        4
 90
       26
 90
       11
 90
       12
 90
       25
 90
        4
 90
       25
 90
       12
 90
       13
 90
       24
 90
        4
 90
       24
 90
       13
 90
       14
 90
       23
 90
        4
 90
       23
 90
       14
 90
       15
 90
       22
 90
        4
 90
       22
 90
       15
 90
       16
 90
       21
 90
        4
 90
       21
 90
       16
 90
       17
 90
       20
 90
        4
 90
       20
 90
       17
 90
       18
 90
       19
 90
        4
 90
       19
 90
       18
 90
       34
 90
       35
 90
        4
 90
       35
 90
       34
 90
       36
 90
       37
 90
        4
 90
       37
 90
       36
 90
       38
 90
       39
 90
        4
 90
       39
 90
       38
 90
       40
 90
       41
 90
        4
 90
       41
 90
       40
 90
       42
 90
       59
 90
        4
 90
       59
 90
       42
 90
       43
 90
       58
 90
        4
 90
       58
 90
       43
 90
       44
 90
       57
 90
        4
 90
       57
 90
       44
 90
       45
 90
       56
 90
        4
 90
       56
 90
       45
 90
       46
 90
       55
 90
        4
 90
       55
 90
       46
 90
       47
 90
       54
 90
        4
 90
       54
 90
       47
 90
       48
 90
       53
 90
        4
 90
       53
 90
       48
 90
       49
 90
       52
 90
        4
 90
       52
 90
       49
 90
       50
 90
       51
 90
        4
 90
       51
 90
       50
 90
       60
 90
       61
 90
        5
 90
        3
 90
        2
 90
      210
 90
      211
 90
        4
 90
        3
 90
      107
 90
      111
 90
      205
 90
        3
 90
      203
 90
      110
 90
      202
 90
        3
 90
      104
 90
      207
 90
      208
 90
        4
 90
      107
 90
      206
 90
      207
 90
      104
 90
        4
 90
      204
 90
      111
 90
      110
 90
      203
 90
        3
 90
      107
 90
      205
 90
      206
 90
        3
 90
      205
 90
      111
 90
      204
 90
        4
 90
      183
 90
      165
 90
      111
 90
      107
 90
        4
 90
      182
 90
      166
 90
      165
 90
      183
 90
        4
 90
      181
 90
      167
 90
      166
 90
      182
 90
        4
 90
      121
 90
      131
 90
      130
 90
      123
 90
        4
 90
      120
 90
      172
 90
      131
 90
      121
 90
        4
 90
      119
 90
      173
 90
      172
 90
      120
 90
        4
 90
      118
 90
      126
 90
      173
 90
      119
 90
        5
 90
       60
 90
      127
 90
      126
 90
      118
 90
      117
 90
        4
 90
      180
 90
       99
 90
      167
 90
      181
 90
        4
 90
      123
 90
      130
 90
      177
 90
      134
 90
        4
 90
      134
 90
      177
 90
      176
 90
      135
 90
        4
 90
      135
 90
      176
 90
      102
 90
      101
 90
        4
 90
       50
 90
       99
 90
      180
 90
       60
 90
        3
 90
       60
 90
      180
 90
      127
 90
        3
 90
       50
 90
       87
 90
       99
 90
        4
 90
       49
 90
       88
 90
       87
 90
       50
 90
        4
 90
       48
 90
       89
 90
       88
 90
       49
 90
        4
 90
       47
 90
       90
 90
       89
 90
       48
 90
        4
 90
       46
 90
       91
 90
       90
 90
       47
 90
        4
 90
       45
 90
       92
 90
       91
 90
       46
 90
        4
 90
       44
 90
      168
 90
       92
 90
       45
 90
        4
 90
       43
 90
      169
 90
      168
 90
       44
 90
        4
 90
       42
 90
       84
 90
      169
 90
       43
 90
        4
 90
       40
 90
       85
 90
       84
 90
       42
 90
        4
 90
       38
 90
      156
 90
       85
 90
       40
 90
        3
 90
       38
 90
      157
 90
      156
 90
        3
 90
       38
 90
      158
 90
      157
 90
        4
 90
       36
 90
       80
 90
      158
 90
       38
 90
        3
 90
       36
 90
       81
 90
       80
 90
        4
 90
       34
 90
       77
 90
       76
 90
       36
 90
        3
 90
       36
 90
      150
 90
       81
 90
        3
 90
       36
 90
      151
 90
      150
 90
        3
 90
       36
 90
      152
 90
      151
 90
        3
 90
       36
 90
       76
 90
      152
 90
        3
 90
       18
 90
       72
 90
      146
 90
        4
 90
       18
 90
      146
 90
      145
 90
       34
 90
        3
 90
       34
 90
      144
 90
       77
 90
        3
 90
       34
 90
      145
 90
      144
 90
        3
 90
       62
 90
      214
 90
      215
 90
        3
 90
      210
 90
        2
 90
      209
 90
        4
 90
        4
 90
      211
 90
      212
 90
        5
 90
        4
 90
        5
 90
      212
 90
      213
 90
        6
 90
        5
 90
        6
 90
      213
 90
      214
 90
       62
 90
        7
 90
        4
 90
        7
 90
       62
 90
       65
 90
        8
 90
        4
 90
        8
 90
       65
 90
      137
 90
        9
 90
        4
 90
        9
 90
      137
 90
      136
 90
       10
 90
        4
 90
       10
 90
      136
 90
       69
 90
       11
 90
        3
 90
       11
 90
       69
 90
       12
 90
        4
 90
       16
 90
      140
 90
       73
 90
       17
 90
        4
 90
       17
 90
       73
 90
       72
 90
       18
 90
        4
 90
       15
 90
      141
 90
      140
 90
       16
 90
        4
 90
       14
 90
       68
 90
      141
 90
       15
 90
        4
 90
       12
 90
       69
 90
       68
 90
       13
 90
        3
 90
       13
 90
       68
 90
       14
 90
        5
 90
        0
 90
       33
 90
      199
 90
      200
 90
        1
 90
        3
 90
      106
 90
      191
 90
      108
 90
        3
 90
      193
 90
      194
 90
      109
 90
        3
 90
      105
 90
      188
 90
      189
 90
        4
 90
      106
 90
      105
 90
      189
 90
      190
 90
        4
 90
      192
 90
      193
 90
      109
 90
      108
 90
        3
 90
      106
 90
      190
 90
      191
 90
        3
 90
      191
 90
      192
 90
      108
 90
        4
 90
      184
 90
      106
 90
      108
 90
      164
 90
        4
 90
      185
 90
      184
 90
      164
 90
      163
 90
        4
 90
      186
 90
      185
 90
      163
 90
      162
 90
        4
 90
      112
 90
      122
 90
      129
 90
      128
 90
        4
 90
      113
 90
      112
 90
      128
 90
      175
 90
        4
 90
      114
 90
      113
 90
      175
 90
      174
 90
        4
 90
      115
 90
      114
 90
      174
 90
      125
 90
        5
 90
       61
 90
      116
 90
      115
 90
      125
 90
      124
 90
        4
 90
      187
 90
      186
 90
      162
 90
       98
 90
        4
 90
      122
 90
      133
 90
      178
 90
      129
 90
        4
 90
      133
 90
      132
 90
      179
 90
      178
 90
        4
 90
      132
 90
      100
 90
      103
 90
      179
 90
        4
 90
       51
 90
       61
 90
      187
 90
       98
 90
        3
 90
       61
 90
      124
 90
      187
 90
        3
 90
       51
 90
       98
 90
       86
 90
        4
 90
       52
 90
       51
 90
       86
 90
       97
 90
        4
 90
       53
 90
       52
 90
       97
 90
       96
 90
        4
 90
       54
 90
       53
 90
       96
 90
       95
 90
        4
 90
       55
 90
       54
 90
       95
 90
       94
 90
        4
 90
       56
 90
       55
 90
       94
 90
       93
 90
        4
 90
       57
 90
       56
 90
       93
 90
      171
 90
        4
 90
       58
 90
       57
 90
      171
 90
      170
 90
        4
 90
       59
 90
       58
 90
      170
 90
       83
 90
        4
 90
       41
 90
       59
 90
       83
 90
       82
 90
        4
 90
       39
 90
       41
 90
       82
 90
      161
 90
        3
 90
       39
 90
      161
 90
      160
 90
        3
 90
       39
 90
      160
 90
      159
 90
        4
 90
       37
 90
       39
 90
      159
 90
       79
 90
        3
 90
       37
 90
       79
 90
       78
 90
        4
 90
       35
 90
       37
 90
       75
 90
       74
 90
        3
 90
       37
 90
       78
 90
      155
 90
        3
 90
       37
 90
      155
 90
      154
 90
        3
 90
       37
 90
      154
 90
      153
 90
        3
 90
       37
 90
      153
 90
       75
 90
        3
 90
       19
 90
      147
 90
       71
 90
        4
 90
       19
 90
       35
 90
      148
 90
      147
 90
        3
 90
       35
 90
       74
 90
      149
 90
        3
 90
       35
 90
      149
 90
      148
 90
        3
 90
       63
 90
      195
 90
      196
 90
        3
 90
      200
 90
      201
 90
        1
 90
        4
 90
       33
 90
       32
 90
      198
 90
      199
 90
        4
 90
       32
 90
       31
 90
      197
 90
      198
 90
        5
 90
       31
 90
       30
 90
       63
 90
      196
 90
      197
 90
        4
 90
       30
 90
       29
 90
       64
 90
       63
 90
        4
 90
       29
 90
       28
 90
      138
 90
       64
 90
        4
 90
       28
 90
       27
 90
      139
 90
      138
 90
        4
 90
       27
 90
       26
 90
       66
 90
      139
 90
        3
 90
       26
 90
       25
 90
       66
 90
        4
 90
       21
 90
       20
 90
       70
 90
      143
 90
        4
 90
       20
 90
       19
 90
       71
 90
       70
 90
        4
 90
       22
 90
       21
 90
      143
 90
      142
 90
        4
 90
       23
 90
       22
 90
      142
 90
       67
 90
        4
 90
       25
 90
       24
 90
       67
 90
       66
 90
        3
 90
       24
 90
       23
 90
       67
 94
      446
 90
       60
 90
       61
 90
       60
 90
      117
 90
      116
 90
      117
 90
       61
 90
      116
 90
      117
 90
      118
 90
      115
 90
      118
 90
      115
 90
      116
 90
      118
 90
      119
 90
      114
 90
      119
 90
      114
 90
      115
 90
      119
 90
      120
 90
      113
 90
      120
 90
      113
 90
      114
 90
      120
 90
      121
 90
      112
 90
      121
 90
      112
 90
      113
 90
      121
 90
      123
 90
      122
 90
      123
 90
      112
 90
      122
 90
      123
 90
      134
 90
      133
 90
      134
 90
      122
 90
      133
 90
      134
 90
      135
 90
      132
 90
      135
 90
      132
 90
      133
 90
      101
 90
      135
 90
      100
 90
      101
 90
      100
 90
      132
 90
      101
 90
      102
 90
      102
 90
      103
 90
      100
 90
      103
 90
      102
 90
      176
 90
      176
 90
      179
 90
      103
 90
      179
 90
      176
 90
      177
 90
      177
 90
      178
 90
      178
 90
      179
 90
      130
 90
      177
 90
      129
 90
      130
 90
      129
 90
      178
 90
      130
 90
      131
 90
      128
 90
      131
 90
      128
 90
      129
 90
      131
 90
      172
 90
      172
 90
      175
 90
      128
 90
      175
 90
      172
 90
      173
 90
      173
 90
      174
 90
      174
 90
      175
 90
      126
 90
      173
 90
      125
 90
      126
 90
      125
 90
      174
 90
      126
 90
      127
 90
      124
 90
      127
 90
      124
 90
      125
 90
      127
 90
      180
 90
      180
 90
      187
 90
      124
 90
      187
 90
      180
 90
      181
 90
      181
 90
      186
 90
      186
 90
      187
 90
      181
 90
      182
 90
      182
 90
      185
 90
      185
 90
      186
 90
      182
 90
      183
 90
      183
 90
      184
 90
      184
 90
      185
 90
      107
 90
      183
 90
      106
 90
      107
 90
      106
 90
      184
 90
      104
 90
      107
 90
      104
 90
      105
 90
      105
 90
      106
 90
      104
 90
      208
 90
      188
 90
      208
 90
      105
 90
      188
 90
      207
 90
      208
 90
      189
 90
      207
 90
      188
 90
      189
 90
      206
 90
      207
 90
      190
 90
      206
 90
      189
 90
      190
 90
      205
 90
      206
 90
      191
 90
      205
 90
      190
 90
      191
 90
      204
 90
      205
 90
      192
 90
      204
 90
      191
 90
      192
 90
      203
 90
      204
 90
      193
 90
      203
 90
      192
 90
      193
 90
      202
 90
      203
 90
      194
 90
      202
 90
      193
 90
      194
 90
      110
 90
      202
 90
      109
 90
      110
 90
      109
 90
      194
 90
      110
 90
      111
 90
      108
 90
      111
 90
      108
 90
      109
 90
      111
 90
      165
 90
      164
 90
      165
 90
      108
 90
      164
 90
      165
 90
      166
 90
      163
 90
      166
 90
      163
 90
      164
 90
      166
 90
      167
 90
      162
 90
      167
 90
      162
 90
      163
 90
       99
 90
      167
 90
       98
 90
       99
 90
       98
 90
      162
 90
       87
 90
       99
 90
       86
 90
       87
 90
       86
 90
       98
 90
       87
 90
       88
 90
       88
 90
       97
 90
       86
 90
       97
 90
       88
 90
       89
 90
       89
 90
       96
 90
       96
 90
       97
 90
       89
 90
       90
 90
       90
 90
       95
 90
       95
 90
       96
 90
       90
 90
       91
 90
       91
 90
       94
 90
       94
 90
       95
 90
       91
 90
       92
 90
       92
 90
       93
 90
       93
 90
       94
 90
       92
 90
      168
 90
      168
 90
      171
 90
       93
 90
      171
 90
      168
 90
      169
 90
      169
 90
      170
 90
      170
 90
      171
 90
       84
 90
      169
 90
       83
 90
       84
 90
       83
 90
      170
 90
       84
 90
       85
 90
       82
 90
       85
 90
       82
 90
       83
 90
       85
 90
      156
 90
      156
 90
      161
 90
       82
 90
      161
 90
      156
 90
      157
 90
      157
 90
      160
 90
      160
 90
      161
 90
      157
 90
      158
 90
      158
 90
      159
 90
      159
 90
      160
 90
       80
 90
      158
 90
       79
 90
       80
 90
       79
 90
      159
 90
       80
 90
       81
 90
       78
 90
       81
 90
       78
 90
       79
 90
       81
 90
      150
 90
      150
 90
      155
 90
       78
 90
      155
 90
      150
 90
      151
 90
      151
 90
      154
 90
      154
 90
      155
 90
      151
 90
      152
 90
      152
 90
      153
 90
      153
 90
      154
 90
       76
 90
      152
 90
       75
 90
       76
 90
       75
 90
      153
 90
       76
 90
       77
 90
       74
 90
       77
 90
       74
 90
       75
 90
       77
 90
      144
 90
      144
 90
      149
 90
       74
 90
      149
 90
      144
 90
      145
 90
      145
 90
      148
 90
      148
 90
      149
 90
      145
 90
      146
 90
      146
 90
      147
 90
      147
 90
      148
 90
       72
 90
      146
 90
       71
 90
       72
 90
       71
 90
      147
 90
       72
 90
       73
 90
       70
 90
       73
 90
       70
 90
       71
 90
       73
 90
      140
 90
      140
 90
      143
 90
       70
 90
      143
 90
      140
 90
      141
 90
      141
 90
      142
 90
      142
 90
      143
 90
       68
 90
      141
 90
       67
 90
       68
 90
       67
 90
      142
 90
       68
 90
       69
 90
       66
 90
       69
 90
       66
 90
       67
 90
       69
 90
      136
 90
      136
 90
      139
 90
       66
 90
      139
 90
      136
 90
      137
 90
      137
 90
      138
 90
      138
 90
      139
 90
       65
 90
      137
 90
       64
 90
       65
 90
       64
 90
      138
 90
       62
 90
       65
 90
       62
 90
       63
 90
       63
 90
       64
 90
       62
 90
      215
 90
      195
 90
      215
 90
       63
 90
      195
 90
      214
 90
      215
 90
      196
 90
      214
 90
      195
 90
      196
 90
      213
 90
      214
 90
      197
 90
      213
 90
      196
 90
      197
 90
      212
 90
      213
 90
      198
 90
      212
 90
      197
 90
      198
 90
      211
 90
      212
 90
      199
 90
      211
 90
      198
 90
      199
 90
      210
 90
      211
 90
      200
 90
      210
 90
      199
 90
      200
 90
      209
 90
      210
 90
      201
 90
      209
 90
      200
 90
      201
 90
        2
 90
      209
 90
        1
 90
        2
 90
        1
 90
      201
 90
        2
 90
        3
 90
        0
 90
        3
 90
        0
 90
        1
 90
        3
 90
        4
 90
        4
 90
       33
 90
        0
 90
       33
 90
        4
 90
        5
 90
        5
 90
       32
 90
       32
 90
       33
 90
        5
 90
        6
 90
        6
 90
       31
 90
       31
 90
       32
 90
        6
 90
        7
 90
        7
 90
       30
 90
       30
 90
       31
 90
        7
 90
        8
 90
        8
 90
       29
 90
       29
 90
       30
 90
        8
 90
        9
 90
        9
 90
       28
 90
       28
 90
       29
 90
        9
 90
       10
 90
       10
 90
       27
 90
       27
 90
       28
 90
       10
 90
       11
 90
       11
 90
       26
 90
       26
 90
       27
 90
       11
 90
       12
 90
       12
 90
       25
 90
       25
 90
       26
 90
       12
 90
       13
 90
       13
 90
       24
 90
       24
 90
       25
 90
       13
 90
       14
 90
       14
 90
       23
 90
       23
 90
       24
 90
       14
 90
       15
 90
       15
 90
       22
 90
       22
 90
       23
 90
       15
 90
       16
 90
       16
 90
       21
 90
       21
 90
       22
 90
       16
 90
       17
 90
       17
 90
       20
 90
       20
 90
       21
 90
       17
 90
       18
 90
       18
 90
       19
 90
       19
 90
       20
 90
       18
 90
       34
 90
       34
 90
       35
 90
       19
 90
       35
 90
       34
 90
       36
 90
       36
 90
       37
 90
       35
 90
       37
 90
       36
 90
       38
 90
       38
 90
       39
 90
       37
 90
       39
 90
       38
 90
       40
 90
       40
 90
       41
 90
       39
 90
       41
 90
       40
 90
       42
 90
       42
 90
       59
 90
       41
 90
       59
 90
       42
 90
       43
 90
       43
 90
       58
 90
       58
 90
       59
 90
       43
 90
       44
 90
       44
 90
       57
 90
       57
 90
       58
 90
       44
 90
       45
 90
       45
 90
       56
 90
       56
 90
       57
 90
       45
 90
       46
 90
       46
 90
       55
 90
       55
 90
       56
 90
       46
 90
       47
 90
       47
 90
       54
 90
       54
 90
       55
 90
       47
 90
       48
 90
       48
 90
       53
 90
       53
 90
       54
 90
       48
 90
       49
 90
       49
 90
       52
 90
       52
 90
       53
 90
       49
 90
       50
 90
       50
 90
       51
 90
       51
 90
       52
 90
       50
 90
       60
 90
       51
 90
       61
 90
        2
 90
      210
 90
        4
 90
      211
 90
      107
 90
      111
 90
      111
 90
      205
 90
      107
 90
      205
 90
      110
 90
      203
 90
      104
 90
      207
 90
      107
 90
      206
 90
      111
 90
      204
 90
      165
 90
      183
 90
      166
 90
      182
 90
      167
 90
      181
 90
      121
 90
      131
 90
      123
 90
      130
 90
      120
 90
      172
 90
      119
 90
      173
 90
      118
 90
      126
 90
       60
 90
      127
 90
       99
 90
      180
 90
      134
 90
      177
 90
      135
 90
      176
 90
       50
 90
       99
 90
       60
 90
      180
 90
       50
 90
       87
 90
       49
 90
       88
 90
       48
 90
       89
 90
       47
 90
       90
 90
       46
 90
       91
 90
       45
 90
       92
 90
       44
 90
      168
 90
       43
 90
      169
 90
       42
 90
       84
 90
       40
 90
       85
 90
       38
 90
      156
 90
       38
 90
      157
 90
       38
 90
      158
 90
       36
 90
       80
 90
       36
 90
       81
 90
       34
 90
       77
 90
       36
 90
       76
 90
       36
 90
      150
 90
       36
 90
      151
 90
       36
 90
      152
 90
       18
 90
       72
 90
       18
 90
      146
 90
       34
 90
      145
 90
       34
 90
      144
 90
       62
 90
      214
 90
        5
 90
      212
 90
        6
 90
      213
 90
        7
 90
       62
 90
        8
 90
       65
 90
        9
 90
      137
 90
       10
 90
      136
 90
       11
 90
       69
 90
       12
 90
       69
 90
       16
 90
      140
 90
       17
 90
       73
 90
       15
 90
      141
 90
       14
 90
       68
 90
       13
 90
       68
 90
       33
 90
      199
 90
        1
 90
      200
 90
      106
 90
      191
 90
      108
 90
      191
 90
      106
 90
      108
 90
      109
 90
      193
 90
      105
 90
      189
 90
      106
 90
      190
 90
      108
 90
      192
 90
      164
 90
      184
 90
      163
 90
      185
 90
      162
 90
      186
 90
      122
 90
      129
 90
      112
 90
      128
 90
      113
 90
      175
 90
      114
 90
      174
 90
      115
 90
      125
 90
       61
 90
      124
 90
       98
 90
      187
 90
      133
 90
      178
 90
      132
 90
      179
 90
       61
 90
      187
 90
       51
 90
       98
 90
       51
 90
       86
 90
       52
 90
       97
 90
       53
 90
       96
 90
       54
 90
       95
 90
       55
 90
       94
 90
       56
 90
       93
 90
       57
 90
      171
 90
       58
 90
      170
 90
       59
 90
       83
 90
       41
 90
       82
 90
       39
 90
      161
 90
       39
 90
      160
 90
       39
 90
      159
 90
       37
 90
       79
 90
       37
 90
       78
 90
       37
 90
       75
 90
       35
 90
       74
 90
       37
 90
      155
 90
       37
 90
      154
 90
       37
 90
      153
 90
       19
 90
      147
 90
       19
 90
       71
 90
       35
 90
      148
 90
       35
 90
      149
 90
       63
 90
      196
 90
       32
 90
      198
 90
       31
 90
      197
 90
       30
 90
       63
 90
       29
 90
       64
 90
       28
 90
      138
 90
       27
 90
      139
 90
       26
 90
       66
 90
       25
 90
       66
 90
       20
 90
       70
 90
       21
 90
      143
 90
       22
 90
      142
 90
       23
 90
       67
 90
       24
 90
       67
 95
      446
140
0.0
140
0.0
140
0.0
140
0.0
140
0.0
140
0.0
140
0.0
140
0.0
140
0.0
140
0.0
140
0.0
140
0.0
140
0.0
140
0.0
140
0.0
140
0.0
140
0.0
140
0.0
140
0.0
140
0.0
140
0.0
140
0.0
140
0.0
140
0.0
140
0.0
140
0.0
140
0.0
140
0.0
140
0.0
140
0.0
140
0.0
140
0.0
140
0.0
140
0.0
140
0.0
140
0.0
140
0.0
140
0.0
140
0.0
140
0.0
140
0.0
140
0.0
140
0.0
140
0.0
140
0.0
140
0.0
140
0.0
140
0.0
140
0.0
140
0.0
140
0.0
140
0.0
140
0.0
140
0.0
140
0.0
140
0.0
140
0.0
140
0.0
140
0.0
140
0.0
140
0.0
140
0.0
140
0.0
140
0.0
140
0.0
140
0.0
140
0.0
140
0.0
140
0.0
140
0.0
140
0.0
140
0.0
140
0.0
140
0.0
140
0.0
140
0.0
140
0.0
140
0.0
140
0.0
140
0.0
140
0.0
140
0.0
140
0.0
140
0.0
140
0.0
140
0.0
140
0.0
140
0.0
140
0.0
140
0.0
140
0.0
140
0.0
140
0.0
140
0.0
140
0.0
140
0.0
140
0.0
140
0.0
140
0.0
140
0.0
140
0.0
140
0.0
140
0.0
140
0.0
140
0.0
140
0.0
140
0.0
140
0.0
140
0.0
140
0.0
140
0.0
140
0.0
140
0.0
140
0.0
140
0.0
140
0.0
140
0.0
140
0.0
140
0.0
140
0.0
140
0.0
140
0.0
140
0.0
140
0.0
140
0.0
140
0.0
140
0.0
140
0.0
140
0.0
140
0.0
140
0.0
140
0.0
140
0.0
140
0.0
140
0.0
140
0.0
140
0.0
140
0.0
140
0.0
140
0.0
140
0.0
140
0.0
140
0.0
140
0.0
140
0.0
140
0.0
140
0.0
140
0.0
140
0.0
140
0.0
140
0.0
140
0.0
140
0.0
140
0.0
140
0.0
140
0.0
140
0.0
140
0.0
140
0.0
140
0.0
140
0.0
140
0.0
140
0.0
140
0.0
140
0.0
140
0.0
140
0.0
140
0.0
140
0.0
140
0.0
140
0.0
140
0.0
140
0.0
140
0.0
140
0.0
140
0.0
140
0.0
140
0.0
140
0.0
140
0.0
140
0.0
140
0.0
140
0.0
140
0.0
140
0.0
140
0.0
140
0.0
140
0.0
140
0.0
140
0.0
140
0.0
140
0.0
140
0.0
140
0.0
140
0.0
140
0.0
140
0.0
140
0.0
140
0.0
140
0.0
140
0.0
140
0.0
140
0.0
140
0.0
140
0.0
140
0.0
140
0.0
140
0.0
140
0.0
140
0.0
140
0.0
140
0.0
140
0.0
140
0.0
140
0.0
140
0.0
140
0.0
140
0.0
140
0.0
140
0.0
140
0.0
140
0.0
140
0.0
140
0.0
140
0.0
140
0.0
140
0.0
140
0.0
140
0.0
140
0.0
140
0.0
140
0.0
140
0.0
140
0.0
140
0.0
140
0.0
140
0.0
140
0.0
140
0.0
140
0.0
140
0.0
140
0.0
140
0.0
140
0.0
140
0.0
140
0.0
140
0.0
140
0.0
140
0.0
140
0.0
140
0.0
140
0.0
140
0.0
140
0.0
140
0.0
140
0.0
140
0.0
140
0.0
140
0.0
140
0.0
140
0.0
140
0.0
140
0.0
140
0.0
140
0.0
140
0.0
140
0.0
140
0.0
140
0.0
140
0.0
140
0.0
140
0.0
140
0.0
140
0.0
140
0.0
140
0.0
140
0.0
140
0.0
140
0.0
140
0.0
140
0.0
140
0.0
140
0.0
140
0.0
140
0.0
140
0.0
140
0.0
140
0.0
140
0.0
140
0.0
140
0.0
140
0.0
140
0.0
140
0.0
140
0.0
140
0.0
140
0.0
140
0.0
140
0.0
140
0.0
140
0.0
140
0.0
140
0.0
140
0.0
140
0.0
140
0.0
140
0.0
140
0.0
140
0.0
140
0.0
140
0.0
140
0.0
140
0.0
140
0.0
140
0.0
140
0.0
140
0.0
140
0.0
140
0.0
140
0.0
140
0.0
140
0.0
140
0.0
140
0.0
140
0.0
140
0.0
140
0.0
140
0.0
140
0.0
140
0.0
140
0.0
140
0.0
140
0.0
140
0.0
140
0.0
140
0.0
140
0.0
140
0.0
140
0.0
140
0.0
140
0.0
140
0.0
140
0.0
140
0.0
140
0.0
140
0.0
140
0.0
140
0.0
140
0.0
140
0.0
140
0.0
140
0.0
140
0.0
140
0.0
140
0.0
140
0.0
140
0.0
140
0.0
140
0.0
140
0.0
140
0.0
140
0.0
140
0.0
140
0.0
140
0.0
140
0.0
140
0.0
140
0.0
140
0.0
140
0.0
140
0.0
140
0.0
140
0.0
140
0.0
140
0.0
140
0.0
140
0.0
140
0.0
140
0.0
140
0.0
140
0.0
140
0.0
140
0.0
140
0.0
140
0.0
140
0.0
140
0.0
140
0.0
140
0.0
140
0.0
140
0.0
140
0.0
140
0.0
140
0.0
140
0.0
140
0.0
140
0.0
140
0.0
140
0.0
140
0.0
140
0.0
140
0.0
140
0.0
140
0.0
140
0.0
140
0.0
140
0.0
140
0.0
140
0.0
140
0.0
140
0.0
140
0.0
140
0.0
140
0.0
140
0.0
140
0.0
140
0.0
140
0.0
140
0.0
140
0.0
140
0.0
140
0.0
140
0.0
140
0.0
140
0.0
140
0.0
140
0.0
140
0.0
140
0.0
140
0.0
140
0.0
140
0.0
140
0.0
140
0.0
140
0.0
140
0.0
140
0.0
140
0.0
140
0.0
140
0.0
140
0.0
140
0.0
140
0.0
140
0.0
140
0.0
140
0.0
 90
        0
  0
POLYLINE
  5
FA
330
1F
100
AcDbEntity
  8
OracDecor_cornice_mouldings
 62
   153
420
  5804257
100
AcDb2dPolyline
 66
     1
 10
0.0
 20
0.0
 30
-0.0000092418440545
 70
     1
210
-0.9999999999999769
220
0.0000001788139343
230
-0.0000001192092896
  0
VERTEX
  5
FB
330
FA
100
AcDbEntity
  8
OracDecor_cornice_mouldings
 62
   153
420
  5804257
100
AcDbVertex
100
AcDb2dVertex
 10
-155.0524444580078
 20
-0.0000180980805453
 30
-0.0000092418440545
  0
VERTEX
  5
FC
330
FA
100
AcDbEntity
  8
OracDecor_cornice_mouldings
 62
   153
420
  5804257
100
AcDbVertex
100
AcDb2dVertex
 10
-154.8036346435547
 20
-9.501247406005859
 30
-0.0000092418440545
  0
VERTEX
  5
FD
330
FA
100
AcDbEntity
  8
OracDecor_cornice_mouldings
 62
   153
420
  5804257
100
AcDbVertex
100
AcDb2dVertex
 10
-152.2742462158203
 20
-9.777179718017578
 30
-0.0000092418440545
  0
VERTEX
  5
FE
330
FA
100
AcDbEntity
  8
OracDecor_cornice_mouldings
 62
   153
420
  5804257
100
AcDbVertex
100
AcDb2dVertex
 10
-149.7957000732422
 20
-10.6492338180542
 30
-0.0000092418440545
  0
VERTEX
  5
FF
330
FA
100
AcDbEntity
  8
OracDecor_cornice_mouldings
 62
   153
420
  5804257
100
AcDbVertex
100
AcDb2dVertex
 10
-148.5733032226562
 20
-11.32667160034179
 30
-0.0000092418440545
  0
VERTEX
  5
100
330
FA
100
AcDbEntity
  8
OracDecor_cornice_mouldings
 62
   153
420
  5804257
100
AcDbVertex
100
AcDb2dVertex
 10
-147.3449096679687
 20
-12.18993759155273
 30
-0.0000092418440545
  0
VERTEX
  5
101
330
FA
100
AcDbEntity
  8
OracDecor_cornice_mouldings
 62
   153
420
  5804257
100
AcDbVertex
100
AcDb2dVertex
 10
-146.114990234375
 20
-13.25765037536621
 30
-0.0000092418440545
  0
VERTEX
  5
102
330
FA
100
AcDbEntity
  8
OracDecor_cornice_mouldings
 62
   153
420
  5804257
100
AcDbVertex
100
AcDb2dVertex
 10
-144.895751953125
 20
-14.54995918273926
 30
-0.0000092418440545
  0
VERTEX
  5
103
330
FA
100
AcDbEntity
  8
OracDecor_cornice_mouldings
 62
   153
420
  5804257
100
AcDbVertex
100
AcDb2dVertex
 10
-143.7335357666015
 20
-16.04212760925293
 30
-0.0000092418440545
  0
VERTEX
  5
104
330
FA
100
AcDbEntity
  8
OracDecor_cornice_mouldings
 62
   153
420
  5804257
100
AcDbVertex
100
AcDb2dVertex
 10
-142.6596069335937
 20
-17.61596870422363
 30
-0.0000092418440545
  0
VERTEX
  5
105
330
FA
100
AcDbEntity
  8
OracDecor_cornice_mouldings
 62
   153
420
  5804257
100
AcDbVertex
100
AcDb2dVertex
 10
-141.6602935791015
 20
-19.12168884277344
 30
-0.0000092418440545
  0
VERTEX
  5
106
330
FA
100
AcDbEntity
  8
OracDecor_cornice_mouldings
 62
   153
420
  5804257
100
AcDbVertex
100
AcDb2dVertex
 10
-140.6958312988281
 20
-20.47387886047363
 30
-0.0000092418440545
  0
VERTEX
  5
107
330
FA
100
AcDbEntity
  8
OracDecor_cornice_mouldings
 62
   153
420
  5804257
100
AcDbVertex
100
AcDb2dVertex
 10
-139.7589569091797
 20
-21.60379981994629
 30
-0.0000092418440545
  0
VERTEX
  5
108
330
FA
100
AcDbEntity
  8
OracDecor_cornice_mouldings
 62
   153
420
  5804257
100
AcDbVertex
100
AcDb2dVertex
 10
-138.828628540039
 20
-22.52631568908691
 30
-0.0000092418440545
  0
VERTEX
  5
109
330
FA
100
AcDbEntity
  8
OracDecor_cornice_mouldings
 62
   153
420
  5804257
100
AcDbVertex
100
AcDb2dVertex
 10
-136.9749450683594
 20
-23.83263397216797
 30
-0.0000092418440545
  0
VERTEX
  5
10A
330
FA
100
AcDbEntity
  8
OracDecor_cornice_mouldings
 62
   153
420
  5804257
100
AcDbVertex
100
AcDb2dVertex
 10
-135.010757446289
 20
-24.61839103698731
 30
-0.0000092418440545
  0
VERTEX
  5
10B
330
FA
100
AcDbEntity
  8
OracDecor_cornice_mouldings
 62
   153
420
  5804257
100
AcDbVertex
100
AcDb2dVertex
 10
-132.6124725341797
 20
-25.00124740600586
 30
-0.0000092418440545
  0
VERTEX
  5
10C
330
FA
100
AcDbEntity
  8
OracDecor_cornice_mouldings
 62
   153
420
  5804257
100
AcDbVertex
100
AcDb2dVertex
 10
-132.0000457763672
 20
-32.00124740600586
 30
-0.0000092418440545
  0
VERTEX
  5
10D
330
FA
100
AcDbEntity
  8
OracDecor_cornice_mouldings
 62
   153
420
  5804257
100
AcDbVertex
100
AcDb2dVertex
 10
-124.8123703002929
 20
-32.00124740600586
 30
-0.0000092418440545
  0
VERTEX
  5
10E
330
FA
100
AcDbEntity
  8
OracDecor_cornice_mouldings
 62
   153
420
  5804257
100
AcDbVertex
100
AcDb2dVertex
 10
-123.5000457763672
 20
-47.00124740600585
 30
-0.0000092418440545
  0
VERTEX
  5
10F
330
FA
100
AcDbEntity
  8
OracDecor_cornice_mouldings
 62
   153
420
  5804257
100
AcDbVertex
100
AcDb2dVertex
 10
-102.0000457763672
 20
-47.00124740600585
 30
-0.0000092418440545
  0
VERTEX
  5
110
330
FA
100
AcDbEntity
  8
OracDecor_cornice_mouldings
 62
   153
420
  5804257
100
AcDbVertex
100
AcDb2dVertex
 10
-101.474609375
 20
-45.36505126953125
 30
-0.0000092418440545
  0
VERTEX
  5
111
330
FA
100
AcDbEntity
  8
OracDecor_cornice_mouldings
 62
   153
420
  5804257
100
AcDbVertex
100
AcDb2dVertex
 10
-100.8860778808593
 20
-44.02466583251952
 30
-0.0000092418440545
  0
VERTEX
  5
112
330
FA
100
AcDbEntity
  8
OracDecor_cornice_mouldings
 62
   153
420
  5804257
100
AcDbVertex
100
AcDb2dVertex
 10
-100.1790924072265
 20
-42.80412292480469
 30
-0.0000092418440545
  0
VERTEX
  5
113
330
FA
100
AcDbEntity
  8
OracDecor_cornice_mouldings
 62
   153
420
  5804257
100
AcDbVertex
100
AcDb2dVertex
 10
-99.40886688232422
 20
-41.77484893798828
 30
-0.0000092418440545
  0
VERTEX
  5
114
330
FA
100
AcDbEntity
  8
OracDecor_cornice_mouldings
 62
   153
420
  5804257
100
AcDbVertex
100
AcDb2dVertex
 10
-97.67987823486329
 20
-40.16674804687499
 30
-0.0000092418440545
  0
VERTEX
  5
115
330
FA
100
AcDbEntity
  8
OracDecor_cornice_mouldings
 62
   153
420
  5804257
100
AcDbVertex
100
AcDb2dVertex
 10
-95.66491699218749
 20
-39.03034591674805
 30
-0.0000092418440545
  0
VERTEX
  5
116
330
FA
100
AcDbEntity
  8
OracDecor_cornice_mouldings
 62
   153
420
  5804257
100
AcDbVertex
100
AcDb2dVertex
 10
-93.16869354248046
 20
-38.28232955932617
 30
-0.0000092418440545
  0
VERTEX
  5
117
330
FA
100
AcDbEntity
  8
OracDecor_cornice_mouldings
 62
   153
420
  5804257
100
AcDbVertex
100
AcDb2dVertex
 10
-91.73589324951171
 20
-38.08005523681641
 30
-0.0000092418440545
  0
VERTEX
  5
118
330
FA
100
AcDbEntity
  8
OracDecor_cornice_mouldings
 62
   153
420
  5804257
100
AcDbVertex
100
AcDb2dVertex
 10
-90.00003814697265
 20
-38.0012435913086
 30
-0.0000092418440545
  0
VERTEX
  5
119
330
FA
100
AcDbEntity
  8
OracDecor_cornice_mouldings
 62
   153
420
  5804257
100
AcDbVertex
100
AcDb2dVertex
 10
-0.0000469895167043
 20
-38.00125122070312
 30
-0.0000092418440545
  0
VERTEX
  5
11A
330
FA
100
AcDbEntity
  8
OracDecor_cornice_mouldings
 62
   153
420
  5804257
100
AcDbVertex
100
AcDb2dVertex
 10
-0.0000464850163553
 20
-32.23041152954102
 30
-0.0000092418440545
  0
VERTEX
  5
11B
330
FA
100
AcDbEntity
  8
OracDecor_cornice_mouldings
 62
   153
420
  5804257
100
AcDbVertex
100
AcDb2dVertex
 10
-0.5980765223503113
 20
-31.92753982543945
 30
-0.0000092418440545
  0
VERTEX
  5
11C
330
FA
100
AcDbEntity
  8
OracDecor_cornice_mouldings
 62
   153
420
  5804257
100
AcDbVertex
100
AcDb2dVertex
 10
-1.043740034103393
 20
-31.42697334289551
 30
-0.0000092418440545
  0
VERTEX
  5
11D
330
FA
100
AcDbEntity
  8
OracDecor_cornice_mouldings
 62
   153
420
  5804257
100
AcDbVertex
100
AcDb2dVertex
 10
-1.275398969650268
 20
-30.79807472229004
 30
-0.0000092418440545
  0
VERTEX
  5
11E
330
FA
100
AcDbEntity
  8
OracDecor_cornice_mouldings
 62
   153
420
  5804257
100
AcDbVertex
100
AcDb2dVertex
 10
-1.260895371437072
 20
-30.12788009643555
 30
-0.0000092418440545
  0
VERTEX
  5
11F
330
FA
100
AcDbEntity
  8
OracDecor_cornice_mouldings
 62
   153
420
  5804257
100
AcDbVertex
100
AcDb2dVertex
 10
-0.0000457813657704
 20
-24.18160629272461
 30
-0.0000092418440545
  0
VERTEX
  5
120
330
FA
100
AcDbEntity
  8
OracDecor_cornice_mouldings
 62
   153
420
  5804257
100
AcDbVertex
100
AcDb2dVertex
 10
-0.0000456921843579
 20
-23.16151809692383
 30
-0.0000092418440545
  0
VERTEX
  5
121
330
FA
100
AcDbEntity
  8
OracDecor_cornice_mouldings
 62
   153
420
  5804257
100
AcDbVertex
100
AcDb2dVertex
 10
-0.1667403131723404
 20
-23.0430736541748
 30
-0.0000092418440545
  0
VERTEX
  5
122
330
FA
100
AcDbEntity
  8
OracDecor_cornice_mouldings
 62
   153
420
  5804257
100
AcDbVertex
100
AcDb2dVertex
 10
-0.3669051229953766
 20
-23.00125122070312
 30
-0.0000092418440545
  0
VERTEX
  5
123
330
FA
100
AcDbEntity
  8
OracDecor_cornice_mouldings
 62
   153
420
  5804257
100
AcDbVertex
100
AcDb2dVertex
 10
-3.311492681503295
 20
-23.00125122070312
 30
-0.0000092418440545
  0
VERTEX
  5
124
330
FA
100
AcDbEntity
  8
OracDecor_cornice_mouldings
 62
   153
420
  5804257
100
AcDbVertex
100
AcDb2dVertex
 10
-4.171943664550781
 20
-23.12730407714844
 30
-0.0000092418440545
  0
VERTEX
  5
125
330
FA
100
AcDbEntity
  8
OracDecor_cornice_mouldings
 62
   153
420
  5804257
100
AcDbVertex
100
AcDb2dVertex
 10
-4.959976196289062
 20
-23.49476814270019
 30
-0.0000092418440545
  0
VERTEX
  5
126
330
FA
100
AcDbEntity
  8
OracDecor_cornice_mouldings
 62
   153
420
  5804257
100
AcDbVertex
100
AcDb2dVertex
 10
-5.609626770019531
 20
-24.0728874206543
 30
-0.0000092418440545
  0
VERTEX
  5
127
330
FA
100
AcDbEntity
  8
OracDecor_cornice_mouldings
 62
   153
420
  5804257
100
AcDbVertex
100
AcDb2dVertex
 10
-8.246330261230468
 20
-27.21518898010254
 30
-0.0000092418440545
  0
VERTEX
  5
128
330
FA
100
AcDbEntity
  8
OracDecor_cornice_mouldings
 62
   153
420
  5804257
100
AcDbVertex
100
AcDb2dVertex
 10
-9.32900333404541
 20
-28.17868995666504
 30
-0.0000092418440545
  0
VERTEX
  5
129
330
FA
100
AcDbEntity
  8
OracDecor_cornice_mouldings
 62
   153
420
  5804257
100
AcDbVertex
100
AcDb2dVertex
 10
-10.64252567291259
 20
-28.79119873046875
 30
-0.0000092418440545
  0
VERTEX
  5
12A
330
FA
100
AcDbEntity
  8
OracDecor_cornice_mouldings
 62
   153
420
  5804257
100
AcDbVertex
100
AcDb2dVertex
 10
-12.07654666900635
 20
-29.00125122070313
 30
-0.0000092418440545
  0
VERTEX
  5
12B
330
FA
100
AcDbEntity
  8
OracDecor_cornice_mouldings
 62
   153
420
  5804257
100
AcDbVertex
100
AcDb2dVertex
 10
-13.10509586334228
 20
-29.00124931335449
 30
-0.0000092418440545
  0
VERTEX
  5
12C
330
FA
100
AcDbEntity
  8
OracDecor_cornice_mouldings
 62
   153
420
  5804257
100
AcDbVertex
100
AcDb2dVertex
 10
-14.45302677154541
 20
-28.76728630065918
 30
-0.0000092418440545
  0
VERTEX
  5
12D
330
FA
100
AcDbEntity
  8
OracDecor_cornice_mouldings
 62
   153
420
  5804257
100
AcDbVertex
100
AcDb2dVertex
 10
-15.64336490631103
 20
-28.09270095825196
 30
-0.0000092418440545
  0
VERTEX
  5
12E
330
FA
100
AcDbEntity
  8
OracDecor_cornice_mouldings
 62
   153
420
  5804257
100
AcDbVertex
100
AcDb2dVertex
 10
-16.53676414489746
 20
-27.05639266967774
 30
-0.0000092418440545
  0
VERTEX
  5
12F
330
FA
100
AcDbEntity
  8
OracDecor_cornice_mouldings
 62
   153
420
  5804257
100
AcDbVertex
100
AcDb2dVertex
 10
-17.02861595153808
 20
-25.77965927124024
 30
-0.0000092418440545
  0
VERTEX
  5
130
330
FA
100
AcDbEntity
  8
OracDecor_cornice_mouldings
 62
   153
420
  5804257
100
AcDbVertex
100
AcDb2dVertex
 10
-17.06145286560058
 20
-24.41196632385254
 30
-0.0000092418440545
  0
VERTEX
  5
131
330
FA
100
AcDbEntity
  8
OracDecor_cornice_mouldings
 62
   153
420
  5804257
100
AcDbVertex
100
AcDb2dVertex
 10
-13.42539024353027
 20
-0.0000220378806262
 30
-0.0000092418440545
  0
VERTEX
  5
132
330
FA
100
AcDbEntity
  8
OracDecor_cornice_mouldings
 62
   153
420
  5804257
100
AcDbVertex
100
AcDb2dVertex
 10
-16.83337783813476
 20
-0.0000219430767174
 30
-0.0000092418440545
  0
VERTEX
  5
133
330
FA
100
AcDbEntity
  8
OracDecor_cornice_mouldings
 62
   153
420
  5804257
100
AcDbVertex
100
AcDb2dVertex
 10
-17.19891738891601
 20
-0.6748513579368592
 30
-0.0000092418440545
  0
VERTEX
  5
134
330
FA
100
AcDbEntity
  8
OracDecor_cornice_mouldings
 62
   153
420
  5804257
100
AcDbVertex
100
AcDb2dVertex
 10
-17.81258010864258
 20
-1.13619327545166
 30
-0.0000092418440545
  0
VERTEX
  5
135
330
FA
100
AcDbEntity
  8
OracDecor_cornice_mouldings
 62
   153
420
  5804257
100
AcDbVertex
100
AcDb2dVertex
 10
-18.5624885559082
 20
-1.299817085266113
 30
-0.0000092418440545
  0
VERTEX
  5
136
330
FA
100
AcDbEntity
  8
OracDecor_cornice_mouldings
 62
   153
420
  5804257
100
AcDbVertex
100
AcDb2dVertex
 10
-19.31241226196289
 20
-1.13619327545166
 30
-0.0000092418440545
  0
VERTEX
  5
137
330
FA
100
AcDbEntity
  8
OracDecor_cornice_mouldings
 62
   153
420
  5804257
100
AcDbVertex
100
AcDb2dVertex
 10
-19.92606735229492
 20
-0.6748512983322144
 30
-0.0000092418440545
  0
VERTEX
  5
138
330
FA
100
AcDbEntity
  8
OracDecor_cornice_mouldings
 62
   153
420
  5804257
100
AcDbVertex
100
AcDb2dVertex
 10
-20.29159927368164
 20
-0.0000218468758248
 30
-0.0000092418440545
  0
VERTEX
  5
139
330
FA
100
AcDbEntity
  8
OracDecor_cornice_mouldings
 62
   153
420
  5804257
100
AcDbVertex
100
AcDb2dVertex
 10
-23.33260345458985
 20
-0.0000217622819036
 30
-0.0000092418440545
  0
VERTEX
  5
13A
330
FA
100
AcDbEntity
  8
OracDecor_cornice_mouldings
 62
   153
420
  5804257
100
AcDbVertex
100
AcDb2dVertex
 10
-31.87932014465332
 20
-25.5854320526123
 30
-0.0000092418440545
  0
VERTEX
  5
13B
330
FA
100
AcDbEntity
  8
OracDecor_cornice_mouldings
 62
   153
420
  5804257
100
AcDbVertex
100
AcDb2dVertex
 10
-32.59486770629883
 20
-26.96509742736817
 30
-0.0000092418440545
  0
VERTEX
  5
13C
330
FA
100
AcDbEntity
  8
OracDecor_cornice_mouldings
 62
   153
420
  5804257
100
AcDbVertex
100
AcDb2dVertex
 10
-33.69947814941407
 20
-28.05839920043946
 30
-0.0000092418440545
  0
VERTEX
  5
13D
330
FA
100
AcDbEntity
  8
OracDecor_cornice_mouldings
 62
   153
420
  5804257
100
AcDbVertex
100
AcDb2dVertex
 10
-35.08643341064453
 20
-28.75970268249512
 30
-0.0000092418440545
  0
VERTEX
  5
13E
330
FA
100
AcDbEntity
  8
OracDecor_cornice_mouldings
 62
   153
420
  5804257
100
AcDbVertex
100
AcDb2dVertex
 10
-36.6217269897461
 20
-29.00124931335449
 30
-0.0000092418440545
  0
VERTEX
  5
13F
330
FA
100
AcDbEntity
  8
OracDecor_cornice_mouldings
 62
   153
420
  5804257
100
AcDbVertex
100
AcDb2dVertex
 10
-90.00003814697265
 20
-29.00124931335449
 30
-0.0000092418440545
  0
VERTEX
  5
140
330
FA
100
AcDbEntity
  8
OracDecor_cornice_mouldings
 62
   153
420
  5804257
100
AcDbVertex
100
AcDb2dVertex
 10
-92.83172607421875
 20
-29.14284896850586
 30
-0.0000092418440545
  0
VERTEX
  5
141
330
FA
100
AcDbEntity
  8
OracDecor_cornice_mouldings
 62
   153
420
  5804257
100
AcDbVertex
100
AcDb2dVertex
 10
-95.32122039794922
 20
-29.53388404846192
 30
-0.0000092418440545
  0
VERTEX
  5
142
330
FA
100
AcDbEntity
  8
OracDecor_cornice_mouldings
 62
   153
420
  5804257
100
AcDbVertex
100
AcDb2dVertex
 10
-99.68045806884767
 20
-30.97077941894531
 30
-0.0000092418440545
  0
VERTEX
  5
143
330
FA
100
AcDbEntity
  8
OracDecor_cornice_mouldings
 62
   153
420
  5804257
100
AcDbVertex
100
AcDb2dVertex
 10
-103.3654556274414
 20
-33.18069458007812
 30
-0.0000092418440545
  0
VERTEX
  5
144
330
FA
100
AcDbEntity
  8
OracDecor_cornice_mouldings
 62
   153
420
  5804257
100
AcDbVertex
100
AcDb2dVertex
 10
-106.4550094604492
 20
-36.18212509155274
 30
-0.0000092418440545
  0
VERTEX
  5
145
330
FA
100
AcDbEntity
  8
OracDecor_cornice_mouldings
 62
   153
420
  5804257
100
AcDbVertex
100
AcDb2dVertex
 10
-107.541275024414
 20
-37.1628646850586
 30
-0.0000092418440545
  0
VERTEX
  5
146
330
FA
100
AcDbEntity
  8
OracDecor_cornice_mouldings
 62
   153
420
  5804257
100
AcDbVertex
100
AcDb2dVertex
 10
-108.864990234375
 20
-37.78706359863281
 30
-0.0000092418440545
  0
VERTEX
  5
147
330
FA
100
AcDbEntity
  8
OracDecor_cornice_mouldings
 62
   153
420
  5804257
100
AcDbVertex
100
AcDb2dVertex
 10
-110.3127288818359
 20
-38.00124740600586
 30
-0.0000092418440545
  0
VERTEX
  5
148
330
FA
100
AcDbEntity
  8
OracDecor_cornice_mouldings
 62
   153
420
  5804257
100
AcDbVertex
100
AcDb2dVertex
 10
-113.4203948974609
 20
-38.00124740600586
 30
-0.0000092418440545
  0
VERTEX
  5
149
330
FA
100
AcDbEntity
  8
OracDecor_cornice_mouldings
 62
   153
420
  5804257
100
AcDbVertex
100
AcDb2dVertex
 10
-114.1452713012695
 20
-37.86526489257813
 30
-0.0000092418440545
  0
VERTEX
  5
14A
330
FA
100
AcDbEntity
  8
OracDecor_cornice_mouldings
 62
   153
420
  5804257
100
AcDbVertex
100
AcDb2dVertex
 10
-114.7715759277343
 20
-37.47580337524414
 30
-0.0000092418440545
  0
VERTEX
  5
14B
330
FA
100
AcDbEntity
  8
OracDecor_cornice_mouldings
 62
   153
420
  5804257
100
AcDbVertex
100
AcDb2dVertex
 10
-115.2141418457031
 20
-36.88582611083984
 30
-0.0000092418440545
  0
VERTEX
  5
14C
330
FA
100
AcDbEntity
  8
OracDecor_cornice_mouldings
 62
   153
420
  5804257
100
AcDbVertex
100
AcDb2dVertex
 10
-115.4127807617187
 20
-36.1755599975586
 30
-0.0000092418440545
  0
VERTEX
  5
14D
330
FA
100
AcDbEntity
  8
OracDecor_cornice_mouldings
 62
   153
420
  5804257
100
AcDbVertex
100
AcDb2dVertex
 10
-116.4056549072265
 20
-24.82693862915039
 30
-0.0000092418440545
  0
VERTEX
  5
14E
330
FA
100
AcDbEntity
  8
OracDecor_cornice_mouldings
 62
   153
420
  5804257
100
AcDbVertex
100
AcDb2dVertex
 10
-116.6042938232422
 20
-24.11667251586914
 30
-0.0000092418440545
  0
VERTEX
  5
14F
330
FA
100
AcDbEntity
  8
OracDecor_cornice_mouldings
 62
   153
420
  5804257
100
AcDbVertex
100
AcDb2dVertex
 10
-117.0468673706055
 20
-23.52669525146485
 30
-0.0000092418440545
  0
VERTEX
  5
150
330
FA
100
AcDbEntity
  8
OracDecor_cornice_mouldings
 62
   153
420
  5804257
100
AcDbVertex
100
AcDb2dVertex
 10
-117.6731796264648
 20
-23.13723373413086
 30
-0.0000092418440545
  0
VERTEX
  5
151
330
FA
100
AcDbEntity
  8
OracDecor_cornice_mouldings
 62
   153
420
  5804257
100
AcDbVertex
100
AcDb2dVertex
 10
-118.3980484008789
 20
-23.00124931335449
 30
-0.0000092418440545
  0
VERTEX
  5
152
330
FA
100
AcDbEntity
  8
OracDecor_cornice_mouldings
 62
   153
420
  5804257
100
AcDbVertex
100
AcDb2dVertex
 10
-121.9204025268554
 20
-23.00124740600586
 30
-0.0000092418440545
  0
VERTEX
  5
153
330
FA
100
AcDbEntity
  8
OracDecor_cornice_mouldings
 62
   153
420
  5804257
100
AcDbVertex
100
AcDb2dVertex
 10
-122.6452713012695
 20
-22.86526298522949
 30
-0.0000092418440545
  0
VERTEX
  5
154
330
FA
100
AcDbEntity
  8
OracDecor_cornice_mouldings
 62
   153
420
  5804257
100
AcDbVertex
100
AcDb2dVertex
 10
-123.2715835571289
 20
-22.47580146789551
 30
-0.0000092418440545
  0
VERTEX
  5
155
330
FA
100
AcDbEntity
  8
OracDecor_cornice_mouldings
 62
   153
420
  5804257
100
AcDbVertex
100
AcDb2dVertex
 10
-123.7141494750976
 20
-21.88582420349121
 30
-0.0000092418440545
  0
VERTEX
  5
156
330
FA
100
AcDbEntity
  8
OracDecor_cornice_mouldings
 62
   153
420
  5804257
100
AcDbVertex
100
AcDb2dVertex
 10
-123.9127883911133
 20
-21.17555809020996
 30
-0.0000092418440545
  0
VERTEX
  5
157
330
FA
100
AcDbEntity
  8
OracDecor_cornice_mouldings
 62
   153
420
  5804257
100
AcDbVertex
100
AcDb2dVertex
 10
-124.3297653198242
 20
-16.40944671630859
 30
-0.0000092418440545
  0
VERTEX
  5
158
330
FA
100
AcDbEntity
  8
OracDecor_cornice_mouldings
 62
   153
420
  5804257
100
AcDbVertex
100
AcDb2dVertex
 10
-124.5702438354492
 20
-15.61898899078369
 30
-0.0000092418440545
  0
VERTEX
  5
159
330
FA
100
AcDbEntity
  8
OracDecor_cornice_mouldings
 62
   153
420
  5804257
100
AcDbVertex
100
AcDb2dVertex
 10
-125.1098251342773
 20
-14.99309635162353
 30
-0.0000092418440545
  0
VERTEX
  5
15A
330
FA
100
AcDbEntity
  8
OracDecor_cornice_mouldings
 62
   153
420
  5804257
100
AcDbVertex
100
AcDb2dVertex
 10
-125.8562240600586
 20
-14.63878726959228
 30
-0.0000092418440545
  0
VERTEX
  5
15B
330
FA
100
AcDbEntity
  8
OracDecor_cornice_mouldings
 62
   153
420
  5804257
100
AcDbVertex
100
AcDb2dVertex
 10
-132.5646514892578
 20
-13.03174209594726
 30
-0.0000092418440545
  0
VERTEX
  5
15C
330
FA
100
AcDbEntity
  8
OracDecor_cornice_mouldings
 62
   153
420
  5804257
100
AcDbVertex
100
AcDb2dVertex
 10
-133.311050415039
 20
-12.67743682861328
 30
-0.0000092418440545
  0
VERTEX
  5
15D
330
FA
100
AcDbEntity
  8
OracDecor_cornice_mouldings
 62
   153
420
  5804257
100
AcDbVertex
100
AcDb2dVertex
 10
-133.8506317138672
 20
-12.05154228210449
 30
-0.0000092418440545
  0
VERTEX
  5
15E
330
FA
100
AcDbEntity
  8
OracDecor_cornice_mouldings
 62
   153
420
  5804257
100
AcDbVertex
100
AcDb2dVertex
 10
-134.0911102294922
 20
-11.2610855102539
 30
-0.0000092418440545
  0
VERTEX
  5
15F
330
FA
100
AcDbEntity
  8
OracDecor_cornice_mouldings
 62
   153
420
  5804257
100
AcDbVertex
100
AcDb2dVertex
 10
-135.0763244628906
 20
-0.0000186537799891
 30
-0.0000092418440545
  0
VERTEX
  5
160
330
FA
100
AcDbEntity
  8
OracDecor_cornice_mouldings
 62
   153
420
  5804257
100
AcDbVertex
100
AcDb2dVertex
 10
-143.2803192138672
 20
-0.0000184255586646
 30
-0.0000092418440545
  0
VERTEX
  5
161
330
FA
100
AcDbEntity
  8
OracDecor_cornice_mouldings
 62
   153
420
  5804257
100
AcDbVertex
100
AcDb2dVertex
 10
-143.6458587646484
 20
-0.6748479008674622
 30
-0.0000092418440545
  0
VERTEX
  5
162
330
FA
100
AcDbEntity
  8
OracDecor_cornice_mouldings
 62
   153
420
  5804257
100
AcDbVertex
100
AcDb2dVertex
 10
-144.2595062255859
 20
-1.136189818382263
 30
-0.0000092418440545
  0
VERTEX
  5
163
330
FA
100
AcDbEntity
  8
OracDecor_cornice_mouldings
 62
   153
420
  5804257
100
AcDbVertex
100
AcDb2dVertex
 10
-145.0094299316406
 20
-1.299813628196716
 30
-0.0000092418440545
  0
VERTEX
  5
164
330
FA
100
AcDbEntity
  8
OracDecor_cornice_mouldings
 62
   153
420
  5804257
100
AcDbVertex
100
AcDb2dVertex
 10
-145.7593536376953
 20
-1.136189699172973
 30
-0.0000092418440545
  0
VERTEX
  5
165
330
FA
100
AcDbEntity
  8
OracDecor_cornice_mouldings
 62
   153
420
  5804257
100
AcDbVertex
100
AcDb2dVertex
 10
-146.3730010986328
 20
-0.6748477816581726
 30
-0.0000092418440545
  0
VERTEX
  5
166
330
FA
100
AcDbEntity
  8
OracDecor_cornice_mouldings
 62
   153
420
  5804257
100
AcDbVertex
100
AcDb2dVertex
 10
-146.738540649414
 20
-0.000018329357772
 30
-0.0000092418440545
  0
SEQEND
  5
167
330
FA
100
AcDbEntity
  8
OracDecor_cornice_mouldings
 62
   153
420
  5804257
  0
ENDSEC
  0
SECTION
  2
OBJECTS
  0
DICTIONARY
  5
C
330
0
100
AcDbDictionary
281
     1
  3
ACAD_COLOR
350
DC
  3
ACAD_DETAILVIEWSTYLE
350
F5
  3
ACAD_GROUP
350
D
  3
ACAD_LAYOUT
350
1A
  3
ACAD_MATERIAL
350
AA
  3
ACAD_MLEADERSTYLE
350
F1
  3
ACAD_MLINESTYLE
350
17
  3
ACAD_PLOTSETTINGS
350
19
  3
ACAD_PLOTSTYLENAME
350
E
  3
ACAD_SCALELIST
350
DF
  3
ACAD_SECTIONVIEWSTYLE
350
F3
  3
ACAD_TABLESTYLE
350
DD
  3
ACAD_VISUALSTYLE
350
C3
  3
ACDB_RECOMPOSE_DATA
350
174
  3
AcDbVariableDictionary
350
168
  0
DICTIONARY
  5
DC
102
{ACAD_REACTORS
330
C
102
}
330
C
100
AcDbDictionary
281
     1
  0
DICTIONARY
  5
F5
102
{ACAD_REACTORS
330
C
102
}
330
C
100
AcDbDictionary
281
     1
  3
Imperial24
350
F6
  0
DICTIONARY
  5
D
102
{ACAD_REACTORS
330
C
102
}
330
C
100
AcDbDictionary
281
     1
  0
DICTIONARY
  5
1A
102
{ACAD_REACTORS
330
C
102
}
330
C
100
AcDbDictionary
281
     1
  3
Layout1
350
1E
  3
Layout2
350
26
  3
Model
350
22
  0
DICTIONARY
  5
AA
102
{ACAD_REACTORS
330
C
102
}
330
C
100
AcDbDictionary
281
     1
  3
ByBlock
350
B3
  3
ByLayer
350
AB
  3
Global
350
BB
  0
DICTIONARY
  5
F1
102
{ACAD_REACTORS
330
C
102
}
330
C
100
AcDbDictionary
281
     1
  3
Standard
350
F2
  0
DICTIONARY
  5
17
102
{ACAD_REACTORS
330
C
102
}
330
C
100
AcDbDictionary
281
     1
  3
Standard
350
18
  0
DICTIONARY
  5
19
102
{ACAD_REACTORS
330
C
102
}
330
C
100
AcDbDictionary
281
     1
  0
ACDBDICTIONARYWDFLT
  5
E
102
{ACAD_REACTORS
330
C
102
}
330
C
100
AcDbDictionary
281
     1
  3
ByLayer
350
2D
  3
Normal
350
F
100
AcDbDictionaryWithDefault
340
F
  0
DICTIONARY
  5
DF
102
{ACAD_REACTORS
330
C
102
}
330
C
100
AcDbDictionary
281
     1
  3
A0
350
E0
  3
A1
350
E1
  3
A2
350
E2
  3
A3
350
E3
  3
A4
350
E4
  3
A5
350
E5
  3
A6
350
E6
  3
A7
350
E7
  3
A8
350
E8
  3
A9
350
E9
  3
B0
350
EA
  3
B1
350
EB
  3
B2
350
EC
  3
B3
350
ED
  3
B4
350
EE
  3
B5
350
EF
  3
B6
350
F0
  0
DICTIONARY
  5
F3
102
{ACAD_REACTORS
330
C
102
}
330
C
100
AcDbDictionary
281
     1
  3
Imperial24
350
F4
  0
DICTIONARY
  5
DD
102
{ACAD_REACTORS
330
C
102
}
330
C
100
AcDbDictionary
281
     1
  3
Standard
350
DE
  0
DICTIONARY
  5
C3
102
{ACAD_REACTORS
330
C
102
}
330
C
100
AcDbDictionary
281
     1
  3
2dWireframe
350
C9
  3
Basic
350
C8
  3
Brighten
350
CF
  3
ColorChange
350
D3
  3
Conceptual
350
CC
  3
Dim
350
CE
  3
EdgeColorOff
350
DB
  3
Facepattern
350
D2
  3
Flat
350
C4
  3
FlatWithEdges
350
C5
  3
Gouraud
350
C6
  3
GouraudWithEdges
350
C7
  3
Hidden
350
CB
  3
JitterOff
350
D9
  3
Linepattern
350
D1
  3
OverhangOff
350
DA
  3
Realistic
350
CD
  3
Shaded
350
D8
  3
Shaded with edges
350
D7
  3
Shades of Gray
350
D4
  3
Sketchy
350
D5
  3
Thicken
350
D0
  3
Wireframe
350
CA
  3
X-Ray
350
D6
  0
XRECORD
  5
174
102
{ACAD_REACTORS
330
C
102
}
330
C
100
AcDbXrecord
280
     1
 90
        1
330
DE
  0
DICTIONARY
  5
168
102
{ACAD_REACTORS
330
C
102
}
330
C
100
AcDbDictionary
281
     1
  3
CANNOSCALE
350
16E
  3
CMLEADERSTYLE
350
16A
  3
CTABLESTYLE
350
169
  3
CVIEWDETAILSTYLE
350
16B
  3
CVIEWSECTIONSTYLE
350
16C
  3
LAYEREVAL
350
170
  3
LAYERNOTIFY
350
171
  3
LIGHTINGUNITS
350
16F
  3
MSLTSCALE
350
16D
  0
ACDBDETAILVIEWSTYLE
  5
F6
102
{ACAD_XDICTIONARY
360
1A9
102
}
102
{ACAD_REACTORS
330
F5
102
}
330
F5
100
AcDbModelDocViewStyle
 70
     0
  3
Imperial24
290
     0
100
AcDbDetailViewStyle
 70
     0
 71
     0
 90
        3
 71
     1
340
11
 62
   256
 40
0.24
340
0
 62
   256
 40
0.24
300

 40
0.36
280
     3
 71
     2
340
16
 90
       25
 62
   256
 71
     3
340
11
 62
   256
 40
0.24
 90
        1
 40
0.75
 90
        1
300
%<\AcVar ViewType \f "%tc1">% %<\AcVar ViewDetailId>%\PSCALE %<\AcVar ViewScale \f "%sn">%
 71
     4
340
16
 90
       25
 62
   256
340
16
 90
       25
 62
   256
280
     0
  0
LAYOUT
  5
1E
102
{ACAD_REACTORS
330
1A
102
}
330
1A
100
AcDbPlotSettings
  1

  2
\\KTXNTBDC\CASF2PN1
  4

  6

 40
0.0
 41
0.0
 42
0.0
 43
0.0
 44
0.0
 45
0.0
 46
0.0
 47
0.0
 48
0.0
 49
0.0
140
0.0
141
0.0
142
1.0
143
1.0
 70
   688
 72
     0
 73
     0
 74
     5
  7

 75
    16
147
1.0
 76
     0
 77
     2
 78
   300
148
0.0
149
0.0
100
AcDbLayout
  1
Layout1
 70
     1
 71
     1
 10
0.0
 20
0.0
 11
12.0
 21
9.0
 12
0.0
 22
0.0
 32
0.0
 14
1.000000000000000E+20
 24
1.000000000000000E+20
 34
1.000000000000000E+20
 15
-1.000000000000000E+20
 25
-1.000000000000000E+20
 35
-1.000000000000000E+20
146
0.0
 13
0.0
 23
0.0
 33
0.0
 16
1.0
 26
0.0
 36
0.0
 17
0.0
 27
1.0
 37
0.0
 76
     0
330
1B
  0
LAYOUT
  5
26
102
{ACAD_REACTORS
330
1A
102
}
330
1A
100
AcDbPlotSettings
  1

  2
\\KTXNTBDC\CASF2PN1
  4

  6

 40
0.0
 41
0.0
 42
0.0
 43
0.0
 44
0.0
 45
0.0
 46
0.0
 47
0.0
 48
0.0
 49
0.0
140
0.0
141
0.0
142
1.0
143
1.0
 70
   688
 72
     0
 73
     0
 74
     5
  7

 75
    16
147
1.0
 76
     0
 77
     2
 78
   300
148
0.0
149
0.0
100
AcDbLayout
  1
Layout2
 70
     1
 71
     2
 10
0.0
 20
0.0
 11
12.0
 21
9.0
 12
0.0
 22
0.0
 32
0.0
 14
0.0
 24
0.0
 34
0.0
 15
0.0
 25
0.0
 35
0.0
146
0.0
 13
0.0
 23
0.0
 33
0.0
 16
1.0
 26
0.0
 36
0.0
 17
0.0
 27
1.0
 37
0.0
 76
     0
330
23
  0
LAYOUT
  5
22
102
{ACAD_REACTORS
330
1A
102
}
330
1A
100
AcDbPlotSettings
  1

  2
\\KTXNTBDC\CASF2PN1
  4

  6

 40
0.0
 41
0.0
 42
0.0
 43
0.0
 44
0.0
 45
0.0
 46
0.0
 47
0.0
 48
0.0
 49
0.0
140
0.0
141
0.0
142
1.0
143
1.0
 70
  1712
 72
     0
 73
     0
 74
     0
  7

 75
     0
147
1.0
 76
     0
 77
     2
 78
   300
148
0.0
149
0.0
100
AcDbLayout
  1
Model
 70
     1
 71
     0
 10
0.0
 20
0.0
 11
12.0
 21
9.0
 12
0.0
 22
0.0
 32
0.0
 14
0.0
 24
0.0
 34
0.0
 15
0.0
 25
0.0
 35
0.0
146
0.0
 13
0.0
 23
0.0
 33
0.0
 16
1.0
 26
0.0
 36
0.0
 17
0.0
 27
1.0
 37
0.0
 76
     0
330
1F
  0
MATERIAL
  5
B3
102
{ACAD_XDICTIONARY
360
B4
102
}
102
{ACAD_REACTORS
330
AA
102
}
330
AA
100
AcDbMaterial
  1
ByBlock
 72
     0
 43
0.0208333333333333
 43
0.0
 43
0.0
 43
0.0
 43
0.0
 43
0.0208333333333333
 43
0.0
 43
0.0
 43
0.0
 43
0.0
 43
1.0
 43
0.0
 43
0.0
 43
0.0
 43
0.0
 43
1.0
 77
     0
 47
0.0208333333333333
 47
0.0
 47
0.0
 47
0.0
 47
0.0
 47
0.0208333333333333
 47
0.0
 47
0.0
 47
0.0
 47
0.0
 47
1.0
 47
0.0
 47
0.0
 47
0.0
 47
0.0
 47
1.0
171
     0
 49
0.0208333333333333
 49
0.0
 49
0.0
 49
0.0
 49
0.0
 49
0.0208333333333333
 49
0.0
 49
0.0
 49
0.0
 49
0.0
 49
1.0
 49
0.0
 49
0.0
 49
0.0
 49
0.0
 49
1.0
175
     0
142
0.0208333333333333
142
0.0
142
0.0
142
0.0
142
0.0
142
0.0208333333333333
142
0.0
142
0.0
142
0.0
142
0.0
142
1.0
142
0.0
142
0.0
142
0.0
142
0.0
142
1.0
179
     0
144
0.0208333333333333
144
0.0
144
0.0
144
0.0
144
0.0
144
0.0208333333333333
144
0.0
144
0.0
144
0.0
144
0.0
144
1.0
144
0.0
144
0.0
144
0.0
144
0.0
144
1.0
147
0.0208333333333333
147
0.0
147
0.0
147
0.0
147
0.0
147
0.0208333333333333
147
0.0
147
0.0
147
0.0
147
0.0
147
1.0
147
0.0
147
0.0
147
0.0
147
0.0
147
1.0
  0
MATERIAL
  5
AB
102
{ACAD_XDICTIONARY
360
AC
102
}
102
{ACAD_REACTORS
330
AA
102
}
330
AA
100
AcDbMaterial
  1
ByLayer
 72
     0
 43
0.0208333333333333
 43
0.0
 43
0.0
 43
0.0
 43
0.0
 43
0.0208333333333333
 43
0.0
 43
0.0
 43
0.0
 43
0.0
 43
1.0
 43
0.0
 43
0.0
 43
0.0
 43
0.0
 43
1.0
 77
     0
 47
0.0208333333333333
 47
0.0
 47
0.0
 47
0.0
 47
0.0
 47
0.0208333333333333
 47
0.0
 47
0.0
 47
0.0
 47
0.0
 47
1.0
 47
0.0
 47
0.0
 47
0.0
 47
0.0
 47
1.0
171
     0
 49
0.0208333333333333
 49
0.0
 49
0.0
 49
0.0
 49
0.0
 49
0.0208333333333333
 49
0.0
 49
0.0
 49
0.0
 49
0.0
 49
1.0
 49
0.0
 49
0.0
 49
0.0
 49
0.0
 49
1.0
175
     0
142
0.0208333333333333
142
0.0
142
0.0
142
0.0
142
0.0
142
0.0208333333333333
142
0.0
142
0.0
142
0.0
142
0.0
142
1.0
142
0.0
142
0.0
142
0.0
142
0.0
142
1.0
179
     0
144
0.0208333333333333
144
0.0
144
0.0
144
0.0
144
0.0
144
0.0208333333333333
144
0.0
144
0.0
144
0.0
144
0.0
144
1.0
144
0.0
144
0.0
144
0.0
144
0.0
144
1.0
147
0.0208333333333333
147
0.0
147
0.0
147
0.0
147
0.0
147
0.0208333333333333
147
0.0
147
0.0
147
0.0
147
0.0
147
1.0
147
0.0
147
0.0
147
0.0
147
0.0
147
1.0
  0
MATERIAL
  5
BB
102
{ACAD_XDICTIONARY
360
BC
102
}
102
{ACAD_REACTORS
330
AA
102
}
330
AA
100
AcDbMaterial
  1
Global
 72
     0
 43
0.0208333333333333
 43
0.0
 43
0.0
 43
0.0
 43
0.0
 43
0.0208333333333333
 43
0.0
 43
0.0
 43
0.0
 43
0.0
 43
1.0
 43
0.0
 43
0.0
 43
0.0
 43
0.0
 43
1.0
 77
     0
 47
0.0208333333333333
 47
0.0
 47
0.0
 47
0.0
 47
0.0
 47
0.0208333333333333
 47
0.0
 47
0.0
 47
0.0
 47
0.0
 47
1.0
 47
0.0
 47
0.0
 47
0.0
 47
0.0
 47
1.0
171
     0
 49
0.0208333333333333
 49
0.0
 49
0.0
 49
0.0
 49
0.0
 49
0.0208333333333333
 49
0.0
 49
0.0
 49
0.0
 49
0.0
 49
1.0
 49
0.0
 49
0.0
 49
0.0
 49
0.0
 49
1.0
175
     0
142
0.0208333333333333
142
0.0
142
0.0
142
0.0
142
0.0
142
0.0208333333333333
142
0.0
142
0.0
142
0.0
142
0.0
142
1.0
142
0.0
142
0.0
142
0.0
142
0.0
142
1.0
179
     0
144
0.0208333333333333
144
0.0
144
0.0
144
0.0
144
0.0
144
0.0208333333333333
144
0.0
144
0.0
144
0.0
144
0.0
144
1.0
144
0.0
144
0.0
144
0.0
144
0.0
144
1.0
147
0.0208333333333333
147
0.0
147
0.0
147
0.0
147
0.0
147
0.0208333333333333
147
0.0
147
0.0
147
0.0
147
0.0
147
1.0
147
0.0
147
0.0
147
0.0
147
0.0
147
1.0
  0
MLEADERSTYLE
  5
F2
102
{ACAD_XDICTIONARY
360
1A5
102
}
102
{ACAD_REACTORS
330
F1
102
}
330
F1
100
AcDbMLeaderStyle
179
     2
170
     2
171
     1
172
     0
 90
        2
 40
0.0
 41
0.0
173
     1
 91
-1056964608
340
14
 92
       -2
290
     1
 42
0.09
291
     1
 43
0.36
  3
Standard
 44
0.18
300

342
11
174
     1
178
     6
175
     1
176
     0
 93
-1056964608
 45
0.18
292
     0
297
     0
 46
0.18
 94
-1056964608
 47
1.0
 49
1.0
140
1.0
293
     1
141
0.0
294
     1
177
     0
142
1.0
295
     0
296
     0
143
0.125
271
     0
272
     9
273
     9
  0
MLINESTYLE
  5
18
102
{ACAD_REACTORS
330
17
102
}
330
17
100
AcDbMlineStyle
  2
STANDARD
 70
     0
  3

 62
   256
 51
90.0
 52
90.0
 71
     2
 49
0.5
 62
   256
  6
BYLAYER
 49
-0.5
 62
   256
  6
BYLAYER
  0
ACDBPLACEHOLDER
  5
2D
102
{ACAD_REACTORS
330
E
102
}
330
E
  0
ACDBPLACEHOLDER
  5
F
102
{ACAD_REACTORS
330
E
102
}
330
E
  0
SCALE
  5
E0
102
{ACAD_REACTORS
330
DF
102
}
330
DF
100
AcDbScale
 70
     0
300
1:1
140
1.0
141
1.0
290
     1
  0
SCALE
  5
E1
102
{ACAD_REACTORS
330
DF
102
}
330
DF
100
AcDbScale
 70
     0
300
1/128" = 1'-0"
140
0.0078125
141
12.0
290
     0
  0
SCALE
  5
E2
102
{ACAD_REACTORS
330
DF
102
}
330
DF
100
AcDbScale
 70
     0
300
1/64" = 1'-0"
140
0.015625
141
12.0
290
     0
  0
SCALE
  5
E3
102
{ACAD_REACTORS
330
DF
102
}
330
DF
100
AcDbScale
 70
     0
300
1/32" = 1'-0"
140
0.03125
141
12.0
290
     0
  0
SCALE
  5
E4
102
{ACAD_REACTORS
330
DF
102
}
330
DF
100
AcDbScale
 70
     0
300
1/16" = 1'-0"
140
0.0625
141
12.0
290
     0
  0
SCALE
  5
E5
102
{ACAD_REACTORS
330
DF
102
}
330
DF
100
AcDbScale
 70
     0
300
3/32" = 1'-0"
140
0.09375
141
12.0
290
     0
  0
SCALE
  5
E6
102
{ACAD_REACTORS
330
DF
102
}
330
DF
100
AcDbScale
 70
     0
300
1/8" = 1'-0"
140
0.125
141
12.0
290
     0
  0
SCALE
  5
E7
102
{ACAD_REACTORS
330
DF
102
}
330
DF
100
AcDbScale
 70
     0
300
3/16" = 1'-0"
140
0.1875
141
12.0
290
     0
  0
SCALE
  5
E8
102
{ACAD_REACTORS
330
DF
102
}
330
DF
100
AcDbScale
 70
     0
300
1/4" = 1'-0"
140
0.25
141
12.0
290
     0
  0
SCALE
  5
E9
102
{ACAD_REACTORS
330
DF
102
}
330
DF
100
AcDbScale
 70
     0
300
3/8" = 1'-0"
140
0.375
141
12.0
290
     0
  0
SCALE
  5
EA
102
{ACAD_REACTORS
330
DF
102
}
330
DF
100
AcDbScale
 70
     0
300
1/2" = 1'-0"
140
0.5
141
12.0
290
     0
  0
SCALE
  5
EB
102
{ACAD_REACTORS
330
DF
102
}
330
DF
100
AcDbScale
 70
     0
300
3/4" = 1'-0"
140
0.75
141
12.0
290
     0
  0
SCALE
  5
EC
102
{ACAD_REACTORS
330
DF
102
}
330
DF
100
AcDbScale
 70
     0
300
1" = 1'-0"
140
1.0
141
12.0
290
     0
  0
SCALE
  5
ED
102
{ACAD_REACTORS
330
DF
102
}
330
DF
100
AcDbScale
 70
     0
300
1-1/2" = 1'-0"
140
1.5
141
12.0
290
     0
  0
SCALE
  5
EE
102
{ACAD_REACTORS
330
DF
102
}
330
DF
100
AcDbScale
 70
     0
300
3" = 1'-0"
140
3.0
141
12.0
290
     0
  0
SCALE
  5
EF
102
{ACAD_REACTORS
330
DF
102
}
330
DF
100
AcDbScale
 70
     0
300
6" = 1'-0"
140
6.0
141
12.0
290
     0
  0
SCALE
  5
F0
102
{ACAD_REACTORS
330
DF
102
}
330
DF
100
AcDbScale
 70
     0
300
1'-0" = 1'-0"
140
12.0
141
12.0
290
     0
  0
ACDBSECTIONVIEWSTYLE
  5
F4
102
{ACAD_XDICTIONARY
360
1A7
102
}
102
{ACAD_REACTORS
330
F3
102
}
330
F3
100
AcDbModelDocViewStyle
 70
     0
  3
Imperial24
290
     0
100
AcDbSectionViewStyle
 70
     0
 71
     0
 90
       78
 71
     1
340
11
 62
   256
 40
0.24
340
0
340
0
 62
   256
 40
0.24
300
I, O, Q, S, X, Z
 40
0.48
 90
        3
 40
0.18
 90
        1
 71
     2
340
16
 90
       25
 62
   256
340
16
 90
       50
 62
   256
 40
0.24
 40
0.0
 40
0.24
 71
     3
340
11
 62
   256
 40
0.24
 90
        1
 40
0.75
 90
        1
300
%<\AcVar ViewType \f "%tc1">% %<\AcVar ViewSectionStartId>%-%<\AcVar ViewSectionEndId>%\PSCALE %<\AcVar ViewScale \f "%sn">%
 71
     4
 62
   256
 62
   257
300
ANSI31
 40
1.0
 90
        0
290
     0
290
     0
 90
        6
 40
0.0
 40
1.570796326794896
 40
0.2617993877991494
 40
1.308996938995747
 40
-0.2617993877991494
 40
1.832595714594046
  0
TABLESTYLE
  5
DE
102
{ACAD_XDICTIONARY
360
172
102
}
102
{ACAD_REACTORS
330
DD
102
}
330
DD
100
AcDbTableStyle
280
     0
  3
Standard
 70
     0
 71
     0
 40
0.06
 41
0.06
280
     0
281
     0
  7
Standard
140
0.18
170
     2
 62
     0
 63
     7
283
     0
 90
      512
 91
        0
  1

274
    -2
284
     1
 64
     0
275
    -2
285
     1
 65
     0
276
    -2
286
     1
 66
     0
277
    -2
287
     1
 67
     0
278
    -2
288
     1
 68
     0
279
    -2
289
     1
 69
     0
  7
Standard
140
0.25
170
     5
 62
     0
 63
     7
283
     0
 90
      512
 91
        0
  1

274
    -2
284
     1
 64
     0
275
    -2
285
     1
 65
     0
276
    -2
286
     1
 66
     0
277
    -2
287
     1
 67
     0
278
    -2
288
     1
 68
     0
279
    -2
289
     1
 69
     0
  7
Standard
140
0.18
170
     5
 62
     0
 63
     7
283
     0
 90
      512
 91
        0
  1

274
    -2
284
     1
 64
     0
275
    -2
285
     1
 65
     0
276
    -2
286
     1
 66
     0
277
    -2
287
     1
 67
     0
278
    -2
288
     1
 68
     0
279
    -2
289
     1
 69
     0
  0
VISUALSTYLE
  5
C9
102
{ACAD_XDICTIONARY
360
17F
102
}
102
{ACAD_REACTORS
330
C3
102
}
330
C3
100
AcDbVisualStyle
  2
2dWireframe
 70
     4
177
     2
291
     0
 71
     0
176
     1
 72
     2
176
     1
 73
     0
176
     1
 90
        0
176
     1
 40
0.6
176
     1
 41
30.0
176
     1
 63
     7
421
 16777215
176
     1
 74
     1
176
     1
 91
        4
176
     1
 64
     7
176
     1
 65
   257
176
     1
 75
     1
176
     1
175
     1
176
     1
 42
1.0
176
     1
 92
        0
176
     1
 66
   257
176
     1
 43
1.0
176
     1
 76
     1
176
     1
 77
     6
176
     1
 78
     2
176
     1
 67
     7
176
     1
 79
     5
176
     1
170
     0
176
     1
171
     0
176
     1
290
     0
176
     1
 93
        1
176
     1
 44
0.0
176
     1
173
     0
176
     1
1001
ACAD
1000
AcDbSavedByObjectVersion
1070
     0
  0
VISUALSTYLE
  5
C8
102
{ACAD_XDICTIONARY
360
17D
102
}
102
{ACAD_REACTORS
330
C3
102
}
330
C3
100
AcDbVisualStyle
  2
Basic
 70
     7
177
     2
291
     1
 71
     1
176
     1
 72
     0
176
     1
 73
     1
176
     1
 90
        0
176
     1
 40
0.6
176
     1
 41
30.0
176
     1
 63
     7
421
 16777215
176
     1
 74
     0
176
     1
 91
        4
176
     1
 64
     7
176
     1
 65
   257
176
     1
 75
     1
176
     1
175
     1
176
     1
 42
1.0
176
     1
 92
        8
176
     1
 66
     7
176
     1
 43
1.0
176
     1
 76
     1
176
     1
 77
     6
176
     1
 78
     2
176
     1
 67
     7
176
     1
 79
     5
176
     1
170
     0
176
     1
171
     0
176
     1
290
     0
176
     1
 93
        1
176
     1
 44
0.0
176
     1
173
     0
176
     1
1001
ACAD
1000
AcDbSavedByObjectVersion
1070
     0
  0
VISUALSTYLE
  5
CF
102
{ACAD_XDICTIONARY
360
18B
102
}
102
{ACAD_REACTORS
330
C3
102
}
330
C3
100
AcDbVisualStyle
  2
Brighten
 70
    12
177
     2
291
     1
 71
     2
176
     1
 72
     2
176
     1
 73
     0
176
     1
 90
        0
176
     1
 40
0.6
176
     1
 41
30.0
176
     1
 63
     7
421
 16777215
176
     1
 74
     1
176
     1
 91
        4
176
     1
 64
     7
176
     1
 65
   257
176
     1
 75
     1
176
     1
175
     1
176
     1
 42
1.0
176
     1
 92
        8
176
     1
 66
     7
176
     1
 43
1.0
176
     1
 76
     1
176
     1
 77
     6
176
     1
 78
     2
176
     1
 67
     7
176
     1
 79
     5
176
     1
170
     0
176
     1
171
     0
176
     1
290
     0
176
     1
 93
        1
176
     1
 44
50.0
176
     1
173
     0
176
     1
1001
ACAD
1000
AcDbSavedByObjectVersion
1070
     0
  0
VISUALSTYLE
  5
D3
102
{ACAD_XDICTIONARY
360
193
102
}
102
{ACAD_REACTORS
330
C3
102
}
330
C3
100
AcDbVisualStyle
  2
ColorChange
 70
    16
177
     2
291
     1
 71
     2
176
     1
 72
     2
176
     1
 73
     3
176
     1
 90
        0
176
     1
 40
0.6
176
     1
 41
30.0
176
     1
 63
     8
421
  8421504
176
     1
 74
     1
176
     1
 91
        4
176
     1
 64
     7
176
     1
 65
   257
176
     1
 75
     1
176
     1
175
     1
176
     1
 42
1.0
176
     1
 92
        8
176
     1
 66
     8
424
  8421504
176
     1
 43
1.0
176
     1
 76
     1
176
     1
 77
     6
176
     1
 78
     2
176
     1
 67
     7
176
     1
 79
     5
176
     1
170
     0
176
     1
171
     0
176
     1
290
     0
176
     1
 93
        1
176
     1
 44
0.0
176
     1
173
     0
176
     1
1001
ACAD
1000
AcDbSavedByObjectVersion
1070
     0
  0
VISUALSTYLE
  5
CC
102
{ACAD_XDICTIONARY
360
185
102
}
102
{ACAD_REACTORS
330
C3
102
}
330
C3
100
AcDbVisualStyle
  2
Conceptual
 70
     9
177
     2
291
     0
 71
     3
176
     1
 72
     2
176
     1
 73
     0
176
     1
 90
        0
176
     1
 40
0.6
176
     1
 41
30.0
176
     1
 63
     7
421
 16777215
176
     1
 74
     2
176
     1
 91
        2
176
     1
 64
     7
176
     1
 65
   257
176
     1
 75
     1
176
     1
175
     1
176
     1
 42
179.0
176
     1
 92
        8
176
     1
 66
     7
176
     1
 43
1.0
176
     1
 76
     1
176
     1
 77
     6
176
     1
 78
     2
176
     1
 67
     7
176
     1
 79
     3
176
     1
170
     0
176
     1
171
     0
176
     1
290
     0
176
     1
 93
        1
176
     1
 44
0.0
176
     1
173
     0
176
     1
1001
ACAD
1000
AcDbSavedByObjectVersion
1070
     0
  0
VISUALSTYLE
  5
CE
102
{ACAD_XDICTIONARY
360
189
102
}
102
{ACAD_REACTORS
330
C3
102
}
330
C3
100
AcDbVisualStyle
  2
Dim
 70
    11
177
     2
291
     1
 71
     2
176
     1
 72
     2
176
     1
 73
     0
176
     1
 90
        0
176
     1
 40
0.6
176
     1
 41
30.0
176
     1
 63
     7
421
 16777215
176
     1
 74
     1
176
     1
 91
        4
176
     1
 64
     7
176
     1
 65
   257
176
     1
 75
     1
176
     1
175
     1
176
     1
 42
1.0
176
     1
 92
        8
176
     1
 66
     7
176
     1
 43
1.0
176
     1
 76
     1
176
     1
 77
     6
176
     1
 78
     2
176
     1
 67
     7
176
     1
 79
     5
176
     1
170
     0
176
     1
171
     0
176
     1
290
     0
176
     1
 93
        1
176
     1
 44
-50.0
176
     1
173
     0
176
     1
1001
ACAD
1000
AcDbSavedByObjectVersion
1070
     0
  0
VISUALSTYLE
  5
DB
102
{ACAD_XDICTIONARY
360
1A3
102
}
102
{ACAD_REACTORS
330
C3
102
}
330
C3
100
AcDbVisualStyle
  2
EdgeColorOff
 70
    22
177
     2
291
     1
 71
     2
176
     0
 72
     2
176
     0
 73
     0
176
     0
 90
        0
176
     0
 40
0.6
176
     0
 41
30.0
176
     0
 63
     7
421
 16777215
176
     0
 74
     1
176
     0
 91
        4
176
     0
 64
     7
176
     0
 65
   257
176
     0
 75
     1
176
     0
175
     1
176
     0
 42
1.0
176
     0
 92
        8
176
     2
 66
     7
176
     0
 43
1.0
176
     0
 76
     1
176
     0
 77
     6
176
     0
 78
     2
176
     0
 67
     7
176
     0
 79
     5
176
     0
170
     0
176
     0
171
     0
176
     0
290
     0
176
     0
 93
        1
176
     0
 44
0.0
176
     0
173
     0
176
     0
1001
ACAD
1000
AcDbSavedByObjectVersion
1070
     0
  0
VISUALSTYLE
  5
D2
102
{ACAD_XDICTIONARY
360
191
102
}
102
{ACAD_REACTORS
330
C3
102
}
330
C3
100
AcDbVisualStyle
  2
Facepattern
 70
    15
177
     2
291
     1
 71
     2
176
     1
 72
     2
176
     1
 73
     0
176
     1
 90
        0
176
     1
 40
0.6
176
     1
 41
30.0
176
     1
 63
     7
421
 16777215
176
     1
 74
     1
176
     1
 91
        4
176
     1
 64
     7
176
     1
 65
   257
176
     1
 75
     1
176
     1
175
     1
176
     1
 42
1.0
176
     1
 92
        8
176
     1
 66
     7
176
     1
 43
1.0
176
     1
 76
     1
176
     1
 77
     6
176
     1
 78
     2
176
     1
 67
     7
176
     1
 79
     5
176
     1
170
     0
176
     1
171
     0
176
     1
290
     0
176
     1
 93
        1
176
     1
 44
0.0
176
     1
173
     0
176
     1
1001
ACAD
1000
AcDbSavedByObjectVersion
1070
     0
  0
VISUALSTYLE
  5
C4
102
{ACAD_XDICTIONARY
360
175
102
}
102
{ACAD_REACTORS
330
C3
102
}
330
C3
100
AcDbVisualStyle
  2
Flat
 70
     0
177
     2
291
     1
 71
     2
176
     1
 72
     1
176
     1
 73
     1
176
     1
 90
        2
176
     1
 40
0.6
176
     1
 41
30.0
176
     1
 63
     7
421
 16777215
176
     1
 74
     0
176
     1
 91
        0
176
     1
 64
     7
176
     1
 65
   257
176
     1
 75
     1
176
     1
175
     1
176
     1
 42
1.0
176
     1
 92
        8
176
     1
 66
     7
176
     1
 43
1.0
176
     1
 76
     1
176
     1
 77
     6
176
     1
 78
     2
176
     1
 67
     7
176
     1
 79
     5
176
     1
170
     0
176
     1
171
     0
176
     1
290
     0
176
     1
 93
       13
176
     1
 44
0.0
176
     1
173
     0
176
     1
1001
ACAD
1000
AcDbSavedByObjectVersion
1070
     0
  0
VISUALSTYLE
  5
C5
102
{ACAD_XDICTIONARY
360
177
102
}
102
{ACAD_REACTORS
330
C3
102
}
330
C3
100
AcDbVisualStyle
  2
FlatWithEdges
 70
     1
177
     2
291
     1
 71
     2
176
     1
 72
     1
176
     1
 73
     1
176
     1
 90
        2
176
     1
 40
0.6
176
     1
 41
30.0
176
     1
 63
     7
421
 16777215
176
     1
 74
     1
176
     1
 91
        0
176
     1
 64
     7
176
     1
 65
   257
176
     1
 75
     1
176
     1
175
     1
176
     1
 42
1.0
176
     1
 92
        0
176
     1
 66
   257
176
     1
 43
1.0
176
     1
 76
     1
176
     1
 77
     6
176
     1
 78
     2
176
     1
 67
     7
176
     1
 79
     5
176
     1
170
     0
176
     1
171
     0
176
     1
290
     0
176
     1
 93
       13
176
     1
 44
0.0
176
     1
173
     0
176
     1
1001
ACAD
1000
AcDbSavedByObjectVersion
1070
     0
  0
VISUALSTYLE
  5
C6
102
{ACAD_XDICTIONARY
360
179
102
}
102
{ACAD_REACTORS
330
C3
102
}
330
C3
100
AcDbVisualStyle
  2
Gouraud
 70
     2
177
     2
291
     1
 71
     2
176
     1
 72
     2
176
     1
 73
     1
176
     1
 90
        2
176
     1
 40
0.6
176
     1
 41
30.0
176
     1
 63
     7
421
 16777215
176
     1
 74
     0
176
     1
 91
        0
176
     1
 64
     7
176
     1
 65
   257
176
     1
 75
     1
176
     1
175
     1
176
     1
 42
1.0
176
     1
 92
        0
176
     1
 66
     7
176
     1
 43
1.0
176
     1
 76
     1
176
     1
 77
     6
176
     1
 78
     2
176
     1
 67
     7
176
     1
 79
     5
176
     1
170
     0
176
     1
171
     0
176
     1
290
     0
176
     1
 93
       13
176
     1
 44
0.0
176
     1
173
     0
176
     1
1001
ACAD
1000
AcDbSavedByObjectVersion
1070
     0
  0
VISUALSTYLE
  5
C7
102
{ACAD_XDICTIONARY
360
17B
102
}
102
{ACAD_REACTORS
330
C3
102
}
330
C3
100
AcDbVisualStyle
  2
GouraudWithEdges
 70
     3
177
     2
291
     1
 71
     2
176
     1
 72
     2
176
     1
 73
     1
176
     1
 90
        2
176
     1
 40
0.6
176
     1
 41
30.0
176
     1
 63
     7
421
 16777215
176
     1
 74
     1
176
     1
 91
        0
176
     1
 64
     7
176
     1
 65
   257
176
     1
 75
     1
176
     1
175
     1
176
     1
 42
1.0
176
     1
 92
        0
176
     1
 66
   257
176
     1
 43
1.0
176
     1
 76
     1
176
     1
 77
     6
176
     1
 78
     2
176
     1
 67
     7
176
     1
 79
     5
176
     1
170
     0
176
     1
171
     0
176
     1
290
     0
176
     1
 93
       13
176
     1
 44
0.0
176
     1
173
     0
176
     1
1001
ACAD
1000
AcDbSavedByObjectVersion
1070
     0
  0
VISUALSTYLE
  5
CB
102
{ACAD_XDICTIONARY
360
183
102
}
102
{ACAD_REACTORS
330
C3
102
}
330
C3
100
AcDbVisualStyle
  2
Hidden
 70
     6
177
     2
291
     0
 71
     1
176
     1
 72
     2
176
     1
 73
     2
176
     1
 90
        0
176
     1
 40
0.6
176
     1
 41
30.0
176
     1
 63
     7
421
 16777215
176
     1
 74
     2
176
     1
 91
        2
176
     1
 64
     7
176
     1
 65
   257
176
     1
 75
     2
176
     1
175
     1
176
     1
 42
40.0
176
     1
 92
        0
176
     1
 66
   257
176
     1
 43
1.0
176
     1
 76
     1
176
     1
 77
     6
176
     1
 78
     2
176
     1
 67
     7
176
     1
 79
     3
176
     1
170
     0
176
     1
171
     0
176
     1
290
     0
176
     1
 93
        1
176
     1
 44
0.0
176
     1
173
     0
176
     1
1001
ACAD
1000
AcDbSavedByObjectVersion
1070
     0
  0
VISUALSTYLE
  5
D9
102
{ACAD_XDICTIONARY
360
19F
102
}
102
{ACAD_REACTORS
330
C3
102
}
330
C3
100
AcDbVisualStyle
  2
JitterOff
 70
    20
177
     2
291
     1
 71
     2
176
     0
 72
     2
176
     0
 73
     0
176
     0
 90
        0
176
     0
 40
0.6
176
     0
 41
30.0
176
     0
 63
     7
421
 16777215
176
     0
 74
     1
176
     0
 91
        4
176
     0
 64
     7
176
     0
 65
   257
176
     0
 75
     1
176
     0
175
     1
176
     0
 42
1.0
176
     0
 92
       10
176
     2
 66
     7
176
     0
 43
1.0
176
     0
 76
     1
176
     0
 77
     6
176
     0
 78
     2
176
     0
 67
     7
176
     0
 79
     5
176
     0
170
     0
176
     0
171
     0
176
     0
290
     0
176
     0
 93
        1
176
     0
 44
0.0
176
     0
173
     0
176
     0
1001
ACAD
1000
AcDbSavedByObjectVersion
1070
     0
  0
VISUALSTYLE
  5
D1
102
{ACAD_XDICTIONARY
360
18F
102
}
102
{ACAD_REACTORS
330
C3
102
}
330
C3
100
AcDbVisualStyle
  2
Linepattern
 70
    14
177
     2
291
     1
 71
     2
176
     1
 72
     2
176
     1
 73
     0
176
     1
 90
        0
176
     1
 40
0.6
176
     1
 41
30.0
176
     1
 63
     7
421
 16777215
176
     1
 74
     1
176
     1
 91
        4
176
     1
 64
     7
176
     1
 65
   257
176
     1
 75
     7
176
     1
175
     7
176
     1
 42
1.0
176
     1
 92
        8
176
     1
 66
     7
176
     1
 43
1.0
176
     1
 76
     1
176
     1
 77
     6
176
     1
 78
     2
176
     1
 67
     7
176
     1
 79
     5
176
     1
170
     0
176
     1
171
     0
176
     1
290
     0
176
     1
 93
        1
176
     1
 44
0.0
176
     1
173
     0
176
     1
1001
ACAD
1000
AcDbSavedByObjectVersion
1070
     0
  0
VISUALSTYLE
  5
DA
102
{ACAD_XDICTIONARY
360
1A1
102
}
102
{ACAD_REACTORS
330
C3
102
}
330
C3
100
AcDbVisualStyle
  2
OverhangOff
 70
    21
177
     2
291
     1
 71
     2
176
     0
 72
     2
176
     0
 73
     0
176
     0
 90
        0
176
     0
 40
0.6
176
     0
 41
30.0
176
     0
 63
     7
421
 16777215
176
     0
 74
     1
176
     0
 91
        4
176
     0
 64
     7
176
     0
 65
   257
176
     0
 75
     1
176
     0
175
     1
176
     0
 42
1.0
176
     0
 92
        9
176
     2
 66
     7
176
     0
 43
1.0
176
     0
 76
     1
176
     0
 77
     6
176
     0
 78
     2
176
     0
 67
     7
176
     0
 79
     5
176
     0
170
     0
176
     0
171
     0
176
     0
290
     0
176
     0
 93
        1
176
     0
 44
0.0
176
     0
173
     0
176
     0
1001
ACAD
1000
AcDbSavedByObjectVersion
1070
     0
  0
VISUALSTYLE
  5
CD
102
{ACAD_XDICTIONARY
360
187
102
}
102
{ACAD_REACTORS
330
C3
102
}
330
C3
100
AcDbVisualStyle
  2
Realistic
 70
     8
177
     2
291
     0
 71
     2
176
     1
 72
     3
176
     1
 73
     0
176
     1
 90
        2
176
     1
 40
0.6
176
     1
 41
30.0
176
     1
 63
     7
421
 16777215
176
     1
 74
     0
176
     1
 91
        0
176
     1
 64
     7
176
     1
 65
   257
176
     1
 75
     1
176
     1
175
     1
176
     1
 42
1.0
176
     1
 92
        8
176
     1
 66
   257
176
     1
 43
1.0
176
     1
 76
     1
176
     1
 77
     6
176
     1
 78
     2
176
     1
 67
     7
176
     1
 79
     3
176
     1
170
     0
176
     1
171
     0
176
     1
290
     0
176
     1
 93
       13
176
     1
 44
0.0
176
     1
173
     0
176
     1
1001
ACAD
1000
AcDbSavedByObjectVersion
1070
     0
  0
VISUALSTYLE
  5
D8
102
{ACAD_XDICTIONARY
360
19D
102
}
102
{ACAD_REACTORS
330
C3
102
}
330
C3
100
AcDbVisualStyle
  2
Shaded
 70
    27
177
     2
291
     0
 71
     2
176
     1
 72
     2
176
     1
 73
     1
176
     1
 90
        2
176
     1
 40
0.6
176
     1
 41
30.0
176
     1
 63
     7
421
 16777215
176
     1
 74
     0
176
     1
 91
        4
176
     1
 64
     7
176
     1
 65
   257
176
     1
 75
     1
176
     1
175
     1
176
     1
 42
1.0
176
     1
 92
        8
176
     1
 66
   257
176
     1
 43
1.0
176
     1
 76
     1
176
     1
 77
     6
176
     1
 78
     2
176
     1
 67
     8
425
  7895160
176
     1
 79
     3
176
     1
170
     0
176
     1
171
     0
176
     1
290
     0
176
     1
 93
        5
176
     1
 44
0.0
176
     1
173
     0
176
     1
1001
ACAD
1000
AcDbSavedByObjectVersion
1070
     0
  0
VISUALSTYLE
  5
D7
102
{ACAD_XDICTIONARY
360
19B
102
}
102
{ACAD_REACTORS
330
C3
102
}
330
C3
100
AcDbVisualStyle
  2
Shaded with edges
 70
    26
177
     2
291
     0
 71
     2
176
     1
 72
     2
176
     1
 73
     1
176
     1
 90
        2
176
     1
 40
0.6
176
     1
 41
30.0
176
     1
 63
     7
421
 16777215
176
     1
 74
     1
176
     1
 91
       10
176
     1
 64
     7
176
     1
 65
   257
176
     1
 75
     2
176
     1
175
     1
176
     1
 42
1.0
176
     1
 92
        8
176
     1
 66
   257
176
     1
 43
1.0
176
     1
 76
     1
176
     1
 77
     6
176
     1
 78
     2
176
     1
 67
     7
176
     1
 79
     3
176
     1
170
     0
176
     1
171
     0
176
     1
290
     0
176
     1
 93
        5
176
     1
 44
0.0
176
     1
173
     0
176
     1
1001
ACAD
1000
AcDbSavedByObjectVersion
1070
     0
  0
VISUALSTYLE
  5
D4
102
{ACAD_XDICTIONARY
360
195
102
}
102
{ACAD_REACTORS
330
C3
102
}
330
C3
100
AcDbVisualStyle
  2
Shades of Gray
 70
    23
177
     2
291
     0
 71
     2
176
     1
 72
     2
176
     1
 73
     3
176
     1
 90
        0
176
     1
 40
0.6
176
     1
 41
30.0
176
     1
 63
     7
421
 16777215
176
     1
 74
     2
176
     1
 91
        2
176
     1
 64
     7
176
     1
 65
     7
176
     1
 75
     1
176
     1
175
     1
176
     1
 42
40.0
176
     1
 92
        8
176
     1
 66
     7
176
     1
 43
1.0
176
     1
 76
     1
176
     1
 77
     6
176
     1
 78
     2
176
     1
 67
     7
176
     1
 79
     3
176
     1
170
     0
176
     1
171
     0
176
     1
290
     0
176
     1
 93
        1
176
     1
 44
0.0
176
     1
173
     0
176
     1
1001
ACAD
1000
AcDbSavedByObjectVersion
1070
     0
  0
VISUALSTYLE
  5
D5
102
{ACAD_XDICTIONARY
360
197
102
}
102
{ACAD_REACTORS
330
C3
102
}
330
C3
100
AcDbVisualStyle
  2
Sketchy
 70
    24
177
     2
291
     0
 71
     1
176
     1
 72
     2
176
     1
 73
     2
176
     1
 90
        0
176
     1
 40
0.6
176
     1
 41
30.0
176
     1
 63
     7
421
 16777215
176
     1
 74
     2
176
     1
 91
        2
176
     1
 64
     7
176
     1
 65
     7
176
     1
 75
     1
176
     1
175
     1
176
     1
 42
40.0
176
     1
 92
       11
176
     1
 66
     7
176
     1
 43
1.0
176
     1
 76
     1
176
     1
 77
     6
176
     1
 78
     2
176
     1
 67
     7
176
     1
 79
     6
176
     1
170
     0
176
     1
171
     0
176
     1
290
     0
176
     1
 93
        1
176
     1
 44
0.0
176
     1
173
     0
176
     1
1001
ACAD
1000
AcDbSavedByObjectVersion
1070
     0
  0
VISUALSTYLE
  5
D0
102
{ACAD_XDICTIONARY
360
18D
102
}
102
{ACAD_REACTORS
330
C3
102
}
330
C3
100
AcDbVisualStyle
  2
Thicken
 70
    13
177
     2
291
     1
 71
     2
176
     1
 72
     2
176
     1
 73
     0
176
     1
 90
        0
176
     1
 40
0.6
176
     1
 41
30.0
176
     1
 63
     7
421
 16777215
176
     1
 74
     1
176
     1
 91
        4
176
     1
 64
     7
176
     1
 65
   257
176
     1
 75
     1
176
     1
175
     1
176
     1
 42
1.0
176
     1
 92
       12
176
     1
 66
     7
176
     1
 43
1.0
176
     1
 76
     1
176
     1
 77
     6
176
     1
 78
     2
176
     1
 67
     7
176
     1
 79
     5
176
     1
170
     0
176
     1
171
     0
176
     1
290
     0
176
     1
 93
        1
176
     1
 44
0.0
176
     1
173
     0
176
     1
1001
ACAD
1000
AcDbSavedByObjectVersion
1070
     0
  0
VISUALSTYLE
  5
CA
102
{ACAD_XDICTIONARY
360
181
102
}
102
{ACAD_REACTORS
330
C3
102
}
330
C3
100
AcDbVisualStyle
  2
Wireframe
 70
     5
177
     2
291
     0
 71
     0
176
     1
 72
     2
176
     1
 73
     0
176
     1
 90
        0
176
     1
 40
0.6
176
     1
 41
30.0
176
     1
 63
     7
421
 16777215
176
     1
 74
     1
176
     1
 91
        4
176
     1
 64
     7
176
     1
 65
   257
176
     1
 75
     1
176
     1
175
     1
176
     1
 42
1.0
176
     1
 92
        0
176
     1
 66
   257
176
     1
 43
1.0
176
     1
 76
     1
176
     1
 77
     6
176
     1
 78
     2
176
     1
 67
     7
176
     1
 79
     3
176
     1
170
     0
176
     1
171
     0
176
     1
290
     0
176
     1
 93
        1
176
     1
 44
0.0
176
     1
173
     0
176
     1
1001
ACAD
1000
AcDbSavedByObjectVersion
1070
     0
  0
VISUALSTYLE
  5
D6
102
{ACAD_XDICTIONARY
360
199
102
}
102
{ACAD_REACTORS
330
C3
102
}
330
C3
100
AcDbVisualStyle
  2
X-Ray
 70
    25
177
     2
291
     0
 71
     2
176
     1
 72
     2
176
     1
 73
     1
176
     1
 90
        1
176
     1
 40
0.5
176
     1
 41
30.0
176
     1
 63
     7
421
 16777215
176
     1
 74
     1
176
     1
 91
        0
176
     1
 64
     7
176
     1
 65
   257
176
     1
 75
     1
176
     1
175
     1
176
     1
 42
1.0
176
     1
 92
        8
176
     1
 66
     7
176
     1
 43
1.0
176
     1
 76
     1
176
     1
 77
     6
176
     1
 78
     2
176
     1
 67
     7
176
     1
 79
     3
176
     1
170
     0
176
     1
171
     0
176
     1
290
     0
176
     1
 93
       13
176
     1
 44
0.0
176
     1
173
     0
176
     1
1001
ACAD
1000
AcDbSavedByObjectVersion
1070
     0
  0
DICTIONARYVAR
  5
16E
102
{ACAD_REACTORS
330
168
102
}
330
168
100
DictionaryVariables
280
     0
  1
1:1
  0
DICTIONARYVAR
  5
16A
102
{ACAD_REACTORS
330
168
102
}
330
168
100
DictionaryVariables
280
     0
  1
STANDARD
  0
DICTIONARYVAR
  5
169
102
{ACAD_REACTORS
330
168
102
}
330
168
100
DictionaryVariables
280
     0
  1
STANDARD
  0
DICTIONARYVAR
  5
16B
102
{ACAD_REACTORS
330
168
102
}
330
168
100
DictionaryVariables
280
     0
  1
Imperial24
  0
DICTIONARYVAR
  5
16C
102
{ACAD_REACTORS
330
168
102
}
330
168
100
DictionaryVariables
280
     0
  1
Imperial24
  0
DICTIONARYVAR
  5
170
102
{ACAD_REACTORS
330
168
102
}
330
168
100
DictionaryVariables
280
     0
  1
1
  0
DICTIONARYVAR
  5
171
102
{ACAD_REACTORS
330
168
102
}
330
168
100
DictionaryVariables
280
     0
  1
15
  0
DICTIONARYVAR
  5
16F
102
{ACAD_REACTORS
330
168
102
}
330
168
100
DictionaryVariables
280
     0
  1
0
  0
DICTIONARYVAR
  5
16D
102
{ACAD_REACTORS
330
168
102
}
330
168
100
DictionaryVariables
280
     0
  1
0
  0
DICTIONARY
  5
1A9
330
F6
100
AcDbDictionary
280
     1
281
     1
  3
ACAD_XREC_ROUNDTRIP
360
1AA
  0
DICTIONARY
  5
B4
330
B3
100
AcDbDictionary
280
     1
281
     1
  3
BUMPTILE
360
B6
  3
DIFFUSETILE
360
B5
  3
OPACITYTILE
360
B9
  3
REFLECTIONTILE
360
B8
  3
REFRACTIONTILE
360
BA
  3
SPECULARTILE
360
B7
  0
DICTIONARY
  5
AC
330
AB
100
AcDbDictionary
280
     1
281
     1
  3
BUMPTILE
360
AE
  3
DIFFUSETILE
360
AD
  3
OPACITYTILE
360
B1
  3
REFLECTIONTILE
360
B0
  3
REFRACTIONTILE
360
B2
  3
SPECULARTILE
360
AF
  0
DICTIONARY
  5
BC
330
BB
100
AcDbDictionary
280
     1
281
     1
  3
BUMPTILE
360
BE
  3
DIFFUSETILE
360
BD
  3
OPACITYTILE
360
C1
  3
REFLECTIONTILE
360
C0
  3
REFRACTIONTILE
360
C2
  3
SPECULARTILE
360
BF
  0
DICTIONARY
  5
1A5
330
F2
100
AcDbDictionary
280
     1
281
     1
  3
ACAD_XREC_ROUNDTRIP
360
1A6
  0
DICTIONARY
  5
1A7
330
F4
100
AcDbDictionary
280
     1
281
     1
  3
ACAD_XREC_ROUNDTRIP
360
1A8
  0
DICTIONARY
  5
172
330
DE
100
AcDbDictionary
280
     1
281
     1
  3
ACAD_ROUNDTRIP_2008_TABLESTYLE_CELLSTYLEMAP
360
173
  0
DICTIONARY
  5
17F
330
C9
100
AcDbDictionary
280
     1
281
     1
  3
ACAD_XREC_ROUNDTRIP
360
180
  0
DICTIONARY
  5
17D
330
C8
100
AcDbDictionary
280
     1
281
     1
  3
ACAD_XREC_ROUNDTRIP
360
17E
  0
DICTIONARY
  5
18B
330
CF
100
AcDbDictionary
280
     1
281
     1
  3
ACAD_XREC_ROUNDTRIP
360
18C
  0
DICTIONARY
  5
193
330
D3
100
AcDbDictionary
280
     1
281
     1
  3
ACAD_XREC_ROUNDTRIP
360
194
  0
DICTIONARY
  5
185
330
CC
100
AcDbDictionary
280
     1
281
     1
  3
ACAD_XREC_ROUNDTRIP
360
186
  0
DICTIONARY
  5
189
330
CE
100
AcDbDictionary
280
     1
281
     1
  3
ACAD_XREC_ROUNDTRIP
360
18A
  0
DICTIONARY
  5
1A3
330
DB
100
AcDbDictionary
280
     1
281
     1
  3
ACAD_XREC_ROUNDTRIP
360
1A4
  0
DICTIONARY
  5
191
330
D2
100
AcDbDictionary
280
     1
281
     1
  3
ACAD_XREC_ROUNDTRIP
360
192
  0
DICTIONARY
  5
175
330
C4
100
AcDbDictionary
280
     1
281
     1
  3
ACAD_XREC_ROUNDTRIP
360
176
  0
DICTIONARY
  5
177
330
C5
100
AcDbDictionary
280
     1
281
     1
  3
ACAD_XREC_ROUNDTRIP
360
178
  0
DICTIONARY
  5
179
330
C6
100
AcDbDictionary
280
     1
281
     1
  3
ACAD_XREC_ROUNDTRIP
360
17A
  0
DICTIONARY
  5
17B
330
C7
100
AcDbDictionary
280
     1
281
     1
  3
ACAD_XREC_ROUNDTRIP
360
17C
  0
DICTIONARY
  5
183
330
CB
100
AcDbDictionary
280
     1
281
     1
  3
ACAD_XREC_ROUNDTRIP
360
184
  0
DICTIONARY
  5
19F
330
D9
100
AcDbDictionary
280
     1
281
     1
  3
ACAD_XREC_ROUNDTRIP
360
1A0
  0
DICTIONARY
  5
18F
330
D1
100
AcDbDictionary
280
     1
281
     1
  3
ACAD_XREC_ROUNDTRIP
360
190
  0
DICTIONARY
  5
1A1
330
DA
100
AcDbDictionary
280
     1
281
     1
  3
ACAD_XREC_ROUNDTRIP
360
1A2
  0
DICTIONARY
  5
187
330
CD
100
AcDbDictionary
280
     1
281
     1
  3
ACAD_XREC_ROUNDTRIP
360
188
  0
DICTIONARY
  5
19D
330
D8
100
AcDbDictionary
280
     1
281
     1
  3
ACAD_XREC_ROUNDTRIP
360
19E
  0
DICTIONARY
  5
19B
330
D7
100
AcDbDictionary
280
     1
281
     1
  3
ACAD_XREC_ROUNDTRIP
360
19C
  0
DICTIONARY
  5
195
330
D4
100
AcDbDictionary
280
     1
281
     1
  3
ACAD_XREC_ROUNDTRIP
360
196
  0
DICTIONARY
  5
197
330
D5
100
AcDbDictionary
280
     1
281
     1
  3
ACAD_XREC_ROUNDTRIP
360
198
  0
DICTIONARY
  5
18D
330
D0
100
AcDbDictionary
280
     1
281
     1
  3
ACAD_XREC_ROUNDTRIP
360
18E
  0
DICTIONARY
  5
181
330
CA
100
AcDbDictionary
280
     1
281
     1
  3
ACAD_XREC_ROUNDTRIP
360
182
  0
DICTIONARY
  5
199
330
D6
100
AcDbDictionary
280
     1
281
     1
  3
ACAD_XREC_ROUNDTRIP
360
19A
  0
XRECORD
  5
1AA
102
{ACAD_REACTORS
330
1A9
102
}
330
1A9
100
AcDbXrecord
280
     1
102
DISPLAYNAME
  1
Imperial24
102
FLAGS
 90
        0
  0
XRECORD
  5
B6
102
{ACAD_REACTORS
330
B4
102
}
330
B4
100
AcDbXrecord
280
     1
270
     1
271
     1
  0
XRECORD
  5
B5
102
{ACAD_REACTORS
330
B4
102
}
330
B4
100
AcDbXrecord
280
     1
270
     1
271
     1
  0
XRECORD
  5
B9
102
{ACAD_REACTORS
330
B4
102
}
330
B4
100
AcDbXrecord
280
     1
270
     1
271
     1
  0
XRECORD
  5
B8
102
{ACAD_REACTORS
330
B4
102
}
330
B4
100
AcDbXrecord
280
     1
270
     1
271
     1
  0
XRECORD
  5
BA
102
{ACAD_REACTORS
330
B4
102
}
330
B4
100
AcDbXrecord
280
     1
270
     1
271
     1
  0
XRECORD
  5
B7
102
{ACAD_REACTORS
330
B4
102
}
330
B4
100
AcDbXrecord
280
     1
270
     1
271
     1
  0
XRECORD
  5
AE
102
{ACAD_REACTORS
330
AC
102
}
330
AC
100
AcDbXrecord
280
     1
270
     1
271
     1
  0
XRECORD
  5
AD
102
{ACAD_REACTORS
330
AC
102
}
330
AC
100
AcDbXrecord
280
     1
270
     1
271
     1
  0
XRECORD
  5
B1
102
{ACAD_REACTORS
330
AC
102
}
330
AC
100
AcDbXrecord
280
     1
270
     1
271
     1
  0
XRECORD
  5
B0
102
{ACAD_REACTORS
330
AC
102
}
330
AC
100
AcDbXrecord
280
     1
270
     1
271
     1
  0
XRECORD
  5
B2
102
{ACAD_REACTORS
330
AC
102
}
330
AC
100
AcDbXrecord
280
     1
270
     1
271
     1
  0
XRECORD
  5
AF
102
{ACAD_REACTORS
330
AC
102
}
330
AC
100
AcDbXrecord
280
     1
270
     1
271
     1
  0
XRECORD
  5
BE
102
{ACAD_REACTORS
330
BC
102
}
330
BC
100
AcDbXrecord
280
     1
270
     1
271
     1
  0
XRECORD
  5
BD
102
{ACAD_REACTORS
330
BC
102
}
330
BC
100
AcDbXrecord
280
     1
270
     1
271
     1
  0
XRECORD
  5
C1
102
{ACAD_REACTORS
330
BC
102
}
330
BC
100
AcDbXrecord
280
     1
270
     1
271
     1
  0
XRECORD
  5
C0
102
{ACAD_REACTORS
330
BC
102
}
330
BC
100
AcDbXrecord
280
     1
270
     1
271
     1
  0
XRECORD
  5
C2
102
{ACAD_REACTORS
330
BC
102
}
330
BC
100
AcDbXrecord
280
     1
270
     1
271
     1
  0
XRECORD
  5
BF
102
{ACAD_REACTORS
330
BC
102
}
330
BC
100
AcDbXrecord
280
     1
270
     1
271
     1
  0
XRECORD
  5
1A6
102
{ACAD_REACTORS
330
1A5
102
}
330
1A5
100
AcDbXrecord
280
     1
102
ACAD_ROUNDTRIP_2012_MLEADER_STYLE
298
     1
  0
XRECORD
  5
1A8
102
{ACAD_REACTORS
330
1A7
102
}
330
1A7
100
AcDbXrecord
280
     1
102
DISPLAYNAME
  1
Imperial24
102
FLAGS
 90
        0
  0
CELLSTYLEMAP
  5
173
102
{ACAD_REACTORS
330
172
102
}
330
172
100
AcDbCellStyleMap
 90
        3
300
CELLSTYLE
  1
TABLEFORMAT_BEGIN
 90
        5
170
     1
 91
        0
 92
    32768
 62
   257
 93
        1
300
CONTENTFORMAT
  1
CONTENTFORMAT_BEGIN
 90
        0
 91
        0
 92
      512
 93
        0
300

 40
0.0
140
1.0
 94
        5
 62
     0
340
11
144
0.25
309
CONTENTFORMAT_END
171
     0
 94
        0
309
TABLEFORMAT_END
  1
CELLSTYLE_BEGIN
 90
        1
 91
        1
300
_TITLE
309
CELLSTYLE_END
300
CELLSTYLE
  1
TABLEFORMAT_BEGIN
 90
        5
170
     1
 91
        0
 92
        0
 62
   257
 93
        1
300
CONTENTFORMAT
  1
CONTENTFORMAT_BEGIN
 90
        0
 91
        0
 92
      512
 93
        0
300

 40
0.0
140
1.0
 94
        5
 62
     0
340
11
144
0.18
309
CONTENTFORMAT_END
171
     0
 94
        0
309
TABLEFORMAT_END
  1
CELLSTYLE_BEGIN
 90
        2
 91
        1
300
_HEADER
309
CELLSTYLE_END
300
CELLSTYLE
  1
TABLEFORMAT_BEGIN
 90
        5
170
     1
 91
        0
 92
        0
 62
   257
 93
        1
300
CONTENTFORMAT
  1
CONTENTFORMAT_BEGIN
 90
        0
 91
        0
 92
      512
 93
        0
300

 40
0.0
140
1.0
 94
        2
 62
     0
340
11
144
0.18
309
CONTENTFORMAT_END
171
     0
 94
        0
309
TABLEFORMAT_END
  1
CELLSTYLE_BEGIN
 90
        3
 91
        2
300
_DATA
309
CELLSTYLE_END
  0
XRECORD
  5
180
102
{ACAD_REACTORS
330
17F
102
}
330
17F
100
AcDbXrecord
280
     1
102
RTVSPost2010Prop28
280
     1
102
RTVSPost2010PropOp28
 70
     1
102
RTVSPost2010Prop29
280
     1
102
RTVSPost2010PropOp29
 70
     1
102
RTVSPost2010Prop30
280
     0
102
RTVSPost2010PropOp30
 70
     1
102
RTVSPost2010Prop31
280
     0
102
RTVSPost2010PropOp31
 70
     1
102
RTVSPost2010Prop32
280
     0
102
RTVSPost2010PropOp32
 70
     1
102
RTVSPost2010Prop33
280
     0
102
RTVSPost2010PropOp33
 70
     1
102
RTVSPost2010Prop34
280
     0
102
RTVSPost2010PropOp34
 70
     1
102
RTVSPost2010Prop35
280
     0
102
RTVSPost2010PropOp35
 70
     1
102
RTVSPost2010Prop36
280
     0
102
RTVSPost2010PropOp36
 70
     1
102
RTVSPost2010Prop37
 90
       50
102
RTVSPost2010PropOp37
 70
     1
102
RTVSPost2010Prop38
140
0.0
102
RTVSPost2010PropOp38
 70
     1
102
RTVSPost2010Prop39
140
1.0
102
RTVSPost2010PropOp39
 70
     1
102
RTVSPost2010Prop40
 90
        0
102
RTVSPost2010PropOp40
 70
     1
102
RTVSPost2010Prop41ColorIndex
 90
       18
102
RTVSPost2010Prop41ColorRGB
 90
        0
102
RTVSPost2010PropOp41
 70
     1
102
RTVSPost2010Prop42
 90
       50
102
RTVSPost2010PropOp42
 70
     1
102
RTVSPost2010Prop43
 90
        3
102
RTVSPost2010PropOp43
 70
     1
102
RTVSPost2010Prop44ColorIndex
 90
        5
102
RTVSPost2010Prop44ColorRGB
 90
      255
102
RTVSPost2010PropOp44
 70
     1
102
RTVSPost2010Prop45
280
     0
102
RTVSPost2010PropOp45
 70
     1
102
RTVSPost2010Prop46
 90
       50
102
RTVSPost2010PropOp46
 70
     1
102
RTVSPost2010Prop47
 90
       50
102
RTVSPost2010PropOp47
 70
     1
102
RTVSPost2010Prop48
 90
       50
102
RTVSPost2010PropOp48
 70
     1
102
RTVSPost2010Prop49
280
     0
102
RTVSPost2010PropOp49
 70
     1
102
RTVSPost2010Prop50
 90
       50
102
RTVSPost2010PropOp50
 70
     1
102
RTVSPost2010Prop51ColorIndex
 90
      256
102
RTVSPost2010Prop51ColorRGB
 90
-16777216
102
RTVSPost2010PropOp51
 70
     0
102
RTVSPost2010Prop52
140
1.0
102
RTVSPost2010PropOp52
 70
     0
102
RTVSPost2010Prop53
 90
        2
102
RTVSPost2010PropOp53
 70
     1
102
RTVSPost2010Prop54
  1
strokes_ogs.tif
102
RTVSPost2010PropOp54
 70
     1
102
RTVSPost2010Prop55
280
     0
102
RTVSPost2010PropOp55
 70
     1
102
RTVSPost2010Prop56
140
1.0
102
RTVSPost2010PropOp56
 70
     1
102
RTVSPost2010Prop57
140
1.0
102
RTVSPost2010PropOp57
 70
     1
  0
XRECORD
  5
17E
102
{ACAD_REACTORS
330
17D
102
}
330
17D
100
AcDbXrecord
280
     1
102
RTVSPost2010Prop28
280
     0
102
RTVSPost2010PropOp28
 70
     1
102
RTVSPost2010Prop29
280
     1
102
RTVSPost2010PropOp29
 70
     1
102
RTVSPost2010Prop30
280
     1
102
RTVSPost2010PropOp30
 70
     1
102
RTVSPost2010Prop31
280
     0
102
RTVSPost2010PropOp31
 70
     1
102
RTVSPost2010Prop32
280
     0
102
RTVSPost2010PropOp32
 70
     1
102
RTVSPost2010Prop33
280
     0
102
RTVSPost2010PropOp33
 70
     1
102
RTVSPost2010Prop34
280
     0
102
RTVSPost2010PropOp34
 70
     1
102
RTVSPost2010Prop35
280
     0
102
RTVSPost2010PropOp35
 70
     1
102
RTVSPost2010Prop36
280
     0
102
RTVSPost2010PropOp36
 70
     1
102
RTVSPost2010Prop37
 90
       50
102
RTVSPost2010PropOp37
 70
     1
102
RTVSPost2010Prop38
140
0.0
102
RTVSPost2010PropOp38
 70
     1
102
RTVSPost2010Prop39
140
1.0
102
RTVSPost2010PropOp39
 70
     1
102
RTVSPost2010Prop40
 90
        0
102
RTVSPost2010PropOp40
 70
     1
102
RTVSPost2010Prop41ColorIndex
 90
       18
102
RTVSPost2010Prop41ColorRGB
 90
        0
102
RTVSPost2010PropOp41
 70
     1
102
RTVSPost2010Prop42
 90
       50
102
RTVSPost2010PropOp42
 70
     1
102
RTVSPost2010Prop43
 90
        3
102
RTVSPost2010PropOp43
 70
     1
102
RTVSPost2010Prop44ColorIndex
 90
        5
102
RTVSPost2010Prop44ColorRGB
 90
      255
102
RTVSPost2010PropOp44
 70
     1
102
RTVSPost2010Prop45
280
     0
102
RTVSPost2010PropOp45
 70
     1
102
RTVSPost2010Prop46
 90
       50
102
RTVSPost2010PropOp46
 70
     1
102
RTVSPost2010Prop47
 90
       50
102
RTVSPost2010PropOp47
 70
     1
102
RTVSPost2010Prop48
 90
       50
102
RTVSPost2010PropOp48
 70
     1
102
RTVSPost2010Prop49
280
     0
102
RTVSPost2010PropOp49
 70
     1
102
RTVSPost2010Prop50
 90
       50
102
RTVSPost2010PropOp50
 70
     1
102
RTVSPost2010Prop51ColorIndex
 90
      256
102
RTVSPost2010Prop51ColorRGB
 90
-16777216
102
RTVSPost2010PropOp51
 70
     0
102
RTVSPost2010Prop52
140
1.0
102
RTVSPost2010PropOp52
 70
     0
102
RTVSPost2010Prop53
 90
        2
102
RTVSPost2010PropOp53
 70
     1
102
RTVSPost2010Prop54
  1
strokes_ogs.tif
102
RTVSPost2010PropOp54
 70
     1
102
RTVSPost2010Prop55
280
     0
102
RTVSPost2010PropOp55
 70
     1
102
RTVSPost2010Prop56
140
1.0
102
RTVSPost2010PropOp56
 70
     1
102
RTVSPost2010Prop57
140
1.0
102
RTVSPost2010PropOp57
 70
     1
  0
XRECORD
  5
18C
102
{ACAD_REACTORS
330
18B
102
}
330
18B
100
AcDbXrecord
280
     1
102
RTVSPost2010Prop28
280
     0
102
RTVSPost2010PropOp28
 70
     1
102
RTVSPost2010Prop29
280
     1
102
RTVSPost2010PropOp29
 70
     1
102
RTVSPost2010Prop30
280
     1
102
RTVSPost2010PropOp30
 70
     1
102
RTVSPost2010Prop31
280
     0
102
RTVSPost2010PropOp31
 70
     1
102
RTVSPost2010Prop32
280
     0
102
RTVSPost2010PropOp32
 70
     1
102
RTVSPost2010Prop33
280
     0
102
RTVSPost2010PropOp33
 70
     1
102
RTVSPost2010Prop34
280
     0
102
RTVSPost2010PropOp34
 70
     1
102
RTVSPost2010Prop35
280
     0
102
RTVSPost2010PropOp35
 70
     1
102
RTVSPost2010Prop36
280
     0
102
RTVSPost2010PropOp36
 70
     1
102
RTVSPost2010Prop37
 90
       50
102
RTVSPost2010PropOp37
 70
     1
102
RTVSPost2010Prop38
140
0.0
102
RTVSPost2010PropOp38
 70
     1
102
RTVSPost2010Prop39
140
1.0
102
RTVSPost2010PropOp39
 70
     1
102
RTVSPost2010Prop40
 90
        0
102
RTVSPost2010PropOp40
 70
     1
102
RTVSPost2010Prop41ColorIndex
 90
       18
102
RTVSPost2010Prop41ColorRGB
 90
        0
102
RTVSPost2010PropOp41
 70
     1
102
RTVSPost2010Prop42
 90
       50
102
RTVSPost2010PropOp42
 70
     1
102
RTVSPost2010Prop43
 90
        3
102
RTVSPost2010PropOp43
 70
     1
102
RTVSPost2010Prop44ColorIndex
 90
        5
102
RTVSPost2010Prop44ColorRGB
 90
      255
102
RTVSPost2010PropOp44
 70
     1
102
RTVSPost2010Prop45
280
     0
102
RTVSPost2010PropOp45
 70
     1
102
RTVSPost2010Prop46
 90
       50
102
RTVSPost2010PropOp46
 70
     1
102
RTVSPost2010Prop47
 90
       50
102
RTVSPost2010PropOp47
 70
     1
102
RTVSPost2010Prop48
 90
       50
102
RTVSPost2010PropOp48
 70
     1
102
RTVSPost2010Prop49
280
     0
102
RTVSPost2010PropOp49
 70
     1
102
RTVSPost2010Prop50
 90
       50
102
RTVSPost2010PropOp50
 70
     1
102
RTVSPost2010Prop51ColorIndex
 90
      256
102
RTVSPost2010Prop51ColorRGB
 90
-16777216
102
RTVSPost2010PropOp51
 70
     0
102
RTVSPost2010Prop52
140
1.0
102
RTVSPost2010PropOp52
 70
     0
102
RTVSPost2010Prop53
 90
        2
102
RTVSPost2010PropOp53
 70
     1
102
RTVSPost2010Prop54
  1
strokes_ogs.tif
102
RTVSPost2010PropOp54
 70
     1
102
RTVSPost2010Prop55
280
     0
102
RTVSPost2010PropOp55
 70
     1
102
RTVSPost2010Prop56
140
1.0
102
RTVSPost2010PropOp56
 70
     1
102
RTVSPost2010Prop57
140
1.0
102
RTVSPost2010PropOp57
 70
     1
  0
XRECORD
  5
194
102
{ACAD_REACTORS
330
193
102
}
330
193
100
AcDbXrecord
280
     1
102
RTVSPost2010Prop28
280
     0
102
RTVSPost2010PropOp28
 70
     1
102
RTVSPost2010Prop29
280
     1
102
RTVSPost2010PropOp29
 70
     1
102
RTVSPost2010Prop30
280
     1
102
RTVSPost2010PropOp30
 70
     1
102
RTVSPost2010Prop31
280
     0
102
RTVSPost2010PropOp31
 70
     1
102
RTVSPost2010Prop32
280
     0
102
RTVSPost2010PropOp32
 70
     1
102
RTVSPost2010Prop33
280
     0
102
RTVSPost2010PropOp33
 70
     1
102
RTVSPost2010Prop34
280
     0
102
RTVSPost2010PropOp34
 70
     1
102
RTVSPost2010Prop35
280
     0
102
RTVSPost2010PropOp35
 70
     1
102
RTVSPost2010Prop36
280
     0
102
RTVSPost2010PropOp36
 70
     1
102
RTVSPost2010Prop37
 90
       50
102
RTVSPost2010PropOp37
 70
     1
102
RTVSPost2010Prop38
140
0.0
102
RTVSPost2010PropOp38
 70
     1
102
RTVSPost2010Prop39
140
1.0
102
RTVSPost2010PropOp39
 70
     1
102
RTVSPost2010Prop40
 90
        0
102
RTVSPost2010PropOp40
 70
     1
102
RTVSPost2010Prop41ColorIndex
 90
       18
102
RTVSPost2010Prop41ColorRGB
 90
        0
102
RTVSPost2010PropOp41
 70
     1
102
RTVSPost2010Prop42
 90
       50
102
RTVSPost2010PropOp42
 70
     1
102
RTVSPost2010Prop43
 90
        3
102
RTVSPost2010PropOp43
 70
     1
102
RTVSPost2010Prop44ColorIndex
 90
        5
102
RTVSPost2010Prop44ColorRGB
 90
      255
102
RTVSPost2010PropOp44
 70
     1
102
RTVSPost2010Prop45
280
     0
102
RTVSPost2010PropOp45
 70
     1
102
RTVSPost2010Prop46
 90
       50
102
RTVSPost2010PropOp46
 70
     1
102
RTVSPost2010Prop47
 90
       50
102
RTVSPost2010PropOp47
 70
     1
102
RTVSPost2010Prop48
 90
       50
102
RTVSPost2010PropOp48
 70
     1
102
RTVSPost2010Prop49
280
     0
102
RTVSPost2010PropOp49
 70
     1
102
RTVSPost2010Prop50
 90
       50
102
RTVSPost2010PropOp50
 70
     1
102
RTVSPost2010Prop51ColorIndex
 90
      256
102
RTVSPost2010Prop51ColorRGB
 90
-16777216
102
RTVSPost2010PropOp51
 70
     0
102
RTVSPost2010Prop52
140
1.0
102
RTVSPost2010PropOp52
 70
     0
102
RTVSPost2010Prop53
 90
        2
102
RTVSPost2010PropOp53
 70
     1
102
RTVSPost2010Prop54
  1
strokes_ogs.tif
102
RTVSPost2010PropOp54
 70
     1
102
RTVSPost2010Prop55
280
     0
102
RTVSPost2010PropOp55
 70
     1
102
RTVSPost2010Prop56
140
1.0
102
RTVSPost2010PropOp56
 70
     1
102
RTVSPost2010Prop57
140
1.0
102
RTVSPost2010PropOp57
 70
     1
  0
XRECORD
  5
186
102
{ACAD_REACTORS
330
185
102
}
330
185
100
AcDbXrecord
280
     1
102
RTVSPost2010Prop28
280
     0
102
RTVSPost2010PropOp28
 70
     1
102
RTVSPost2010Prop29
280
     1
102
RTVSPost2010PropOp29
 70
     1
102
RTVSPost2010Prop30
280
     1
102
RTVSPost2010PropOp30
 70
     1
102
RTVSPost2010Prop31
280
     0
102
RTVSPost2010PropOp31
 70
     1
102
RTVSPost2010Prop32
280
     0
102
RTVSPost2010PropOp32
 70
     1
102
RTVSPost2010Prop33
280
     0
102
RTVSPost2010PropOp33
 70
     1
102
RTVSPost2010Prop34
280
     0
102
RTVSPost2010PropOp34
 70
     1
102
RTVSPost2010Prop35
280
     0
102
RTVSPost2010PropOp35
 70
     1
102
RTVSPost2010Prop36
280
     0
102
RTVSPost2010PropOp36
 70
     1
102
RTVSPost2010Prop37
 90
       50
102
RTVSPost2010PropOp37
 70
     1
102
RTVSPost2010Prop38
140
0.0
102
RTVSPost2010PropOp38
 70
     1
102
RTVSPost2010Prop39
140
1.0
102
RTVSPost2010PropOp39
 70
     1
102
RTVSPost2010Prop40
 90
        0
102
RTVSPost2010PropOp40
 70
     1
102
RTVSPost2010Prop41ColorIndex
 90
       18
102
RTVSPost2010Prop41ColorRGB
 90
        0
102
RTVSPost2010PropOp41
 70
     1
102
RTVSPost2010Prop42
 90
       50
102
RTVSPost2010PropOp42
 70
     1
102
RTVSPost2010Prop43
 90
        3
102
RTVSPost2010PropOp43
 70
     1
102
RTVSPost2010Prop44ColorIndex
 90
        5
102
RTVSPost2010Prop44ColorRGB
 90
      255
102
RTVSPost2010PropOp44
 70
     1
102
RTVSPost2010Prop45
280
     0
102
RTVSPost2010PropOp45
 70
     1
102
RTVSPost2010Prop46
 90
       50
102
RTVSPost2010PropOp46
 70
     1
102
RTVSPost2010Prop47
 90
       50
102
RTVSPost2010PropOp47
 70
     1
102
RTVSPost2010Prop48
 90
       50
102
RTVSPost2010PropOp48
 70
     1
102
RTVSPost2010Prop49
280
     0
102
RTVSPost2010PropOp49
 70
     1
102
RTVSPost2010Prop50
 90
       50
102
RTVSPost2010PropOp50
 70
     1
102
RTVSPost2010Prop51ColorIndex
 90
      256
102
RTVSPost2010Prop51ColorRGB
 90
-16777216
102
RTVSPost2010PropOp51
 70
     0
102
RTVSPost2010Prop52
140
1.0
102
RTVSPost2010PropOp52
 70
     0
102
RTVSPost2010Prop53
 90
        2
102
RTVSPost2010PropOp53
 70
     1
102
RTVSPost2010Prop54
  1
strokes_ogs.tif
102
RTVSPost2010PropOp54
 70
     1
102
RTVSPost2010Prop55
280
     0
102
RTVSPost2010PropOp55
 70
     1
102
RTVSPost2010Prop56
140
1.0
102
RTVSPost2010PropOp56
 70
     1
102
RTVSPost2010Prop57
140
1.0
102
RTVSPost2010PropOp57
 70
     1
  0
XRECORD
  5
18A
102
{ACAD_REACTORS
330
189
102
}
330
189
100
AcDbXrecord
280
     1
102
RTVSPost2010Prop28
280
     0
102
RTVSPost2010PropOp28
 70
     1
102
RTVSPost2010Prop29
280
     1
102
RTVSPost2010PropOp29
 70
     1
102
RTVSPost2010Prop30
280
     1
102
RTVSPost2010PropOp30
 70
     1
102
RTVSPost2010Prop31
280
     0
102
RTVSPost2010PropOp31
 70
     1
102
RTVSPost2010Prop32
280
     0
102
RTVSPost2010PropOp32
 70
     1
102
RTVSPost2010Prop33
280
     0
102
RTVSPost2010PropOp33
 70
     1
102
RTVSPost2010Prop34
280
     0
102
RTVSPost2010PropOp34
 70
     1
102
RTVSPost2010Prop35
280
     0
102
RTVSPost2010PropOp35
 70
     1
102
RTVSPost2010Prop36
280
     0
102
RTVSPost2010PropOp36
 70
     1
102
RTVSPost2010Prop37
 90
       50
102
RTVSPost2010PropOp37
 70
     1
102
RTVSPost2010Prop38
140
0.0
102
RTVSPost2010PropOp38
 70
     1
102
RTVSPost2010Prop39
140
1.0
102
RTVSPost2010PropOp39
 70
     1
102
RTVSPost2010Prop40
 90
        0
102
RTVSPost2010PropOp40
 70
     1
102
RTVSPost2010Prop41ColorIndex
 90
       18
102
RTVSPost2010Prop41ColorRGB
 90
        0
102
RTVSPost2010PropOp41
 70
     1
102
RTVSPost2010Prop42
 90
       50
102
RTVSPost2010PropOp42
 70
     1
102
RTVSPost2010Prop43
 90
        3
102
RTVSPost2010PropOp43
 70
     1
102
RTVSPost2010Prop44ColorIndex
 90
        5
102
RTVSPost2010Prop44ColorRGB
 90
      255
102
RTVSPost2010PropOp44
 70
     1
102
RTVSPost2010Prop45
280
     0
102
RTVSPost2010PropOp45
 70
     1
102
RTVSPost2010Prop46
 90
       50
102
RTVSPost2010PropOp46
 70
     1
102
RTVSPost2010Prop47
 90
       50
102
RTVSPost2010PropOp47
 70
     1
102
RTVSPost2010Prop48
 90
       50
102
RTVSPost2010PropOp48
 70
     1
102
RTVSPost2010Prop49
280
     0
102
RTVSPost2010PropOp49
 70
     1
102
RTVSPost2010Prop50
 90
       50
102
RTVSPost2010PropOp50
 70
     1
102
RTVSPost2010Prop51ColorIndex
 90
      256
102
RTVSPost2010Prop51ColorRGB
 90
-16777216
102
RTVSPost2010PropOp51
 70
     0
102
RTVSPost2010Prop52
140
1.0
102
RTVSPost2010PropOp52
 70
     0
102
RTVSPost2010Prop53
 90
        2
102
RTVSPost2010PropOp53
 70
     1
102
RTVSPost2010Prop54
  1
strokes_ogs.tif
102
RTVSPost2010PropOp54
 70
     1
102
RTVSPost2010Prop55
280
     0
102
RTVSPost2010PropOp55
 70
     1
102
RTVSPost2010Prop56
140
1.0
102
RTVSPost2010PropOp56
 70
     1
102
RTVSPost2010Prop57
140
1.0
102
RTVSPost2010PropOp57
 70
     1
  0
XRECORD
  5
1A4
102
{ACAD_REACTORS
330
1A3
102
}
330
1A3
100
AcDbXrecord
280
     1
102
RTVSPost2010Prop28
280
     0
102
RTVSPost2010PropOp28
 70
     0
102
RTVSPost2010Prop29
280
     1
102
RTVSPost2010PropOp29
 70
     0
102
RTVSPost2010Prop30
280
     1
102
RTVSPost2010PropOp30
 70
     0
102
RTVSPost2010Prop31
280
     0
102
RTVSPost2010PropOp31
 70
     0
102
RTVSPost2010Prop32
280
     0
102
RTVSPost2010PropOp32
 70
     0
102
RTVSPost2010Prop33
280
     0
102
RTVSPost2010PropOp33
 70
     0
102
RTVSPost2010Prop34
280
     0
102
RTVSPost2010PropOp34
 70
     0
102
RTVSPost2010Prop35
280
     0
102
RTVSPost2010PropOp35
 70
     0
102
RTVSPost2010Prop36
280
     0
102
RTVSPost2010PropOp36
 70
     0
102
RTVSPost2010Prop37
 90
       50
102
RTVSPost2010PropOp37
 70
     0
102
RTVSPost2010Prop38
140
0.0
102
RTVSPost2010PropOp38
 70
     0
102
RTVSPost2010Prop39
140
1.0
102
RTVSPost2010PropOp39
 70
     0
102
RTVSPost2010Prop40
 90
        0
102
RTVSPost2010PropOp40
 70
     0
102
RTVSPost2010Prop41ColorIndex
 90
       18
102
RTVSPost2010Prop41ColorRGB
 90
        0
102
RTVSPost2010PropOp41
 70
     0
102
RTVSPost2010Prop42
 90
       50
102
RTVSPost2010PropOp42
 70
     0
102
RTVSPost2010Prop43
 90
        3
102
RTVSPost2010PropOp43
 70
     0
102
RTVSPost2010Prop44ColorIndex
 90
        5
102
RTVSPost2010Prop44ColorRGB
 90
      255
102
RTVSPost2010PropOp44
 70
     0
102
RTVSPost2010Prop45
280
     0
102
RTVSPost2010PropOp45
 70
     0
102
RTVSPost2010Prop46
 90
       50
102
RTVSPost2010PropOp46
 70
     0
102
RTVSPost2010Prop47
 90
       50
102
RTVSPost2010PropOp47
 70
     0
102
RTVSPost2010Prop48
 90
       50
102
RTVSPost2010PropOp48
 70
     0
102
RTVSPost2010Prop49
280
     0
102
RTVSPost2010PropOp49
 70
     0
102
RTVSPost2010Prop50
 90
       50
102
RTVSPost2010PropOp50
 70
     0
102
RTVSPost2010Prop51ColorIndex
 90
      256
102
RTVSPost2010Prop51ColorRGB
 90
-16777216
102
RTVSPost2010PropOp51
 70
     0
102
RTVSPost2010Prop52
140
1.0
102
RTVSPost2010PropOp52
 70
     0
102
RTVSPost2010Prop53
 90
        2
102
RTVSPost2010PropOp53
 70
     0
102
RTVSPost2010Prop54
  1
strokes_ogs.tif
102
RTVSPost2010PropOp54
 70
     0
102
RTVSPost2010Prop55
280
     0
102
RTVSPost2010PropOp55
 70
     0
102
RTVSPost2010Prop56
140
1.0
102
RTVSPost2010PropOp56
 70
     0
102
RTVSPost2010Prop57
140
1.0
102
RTVSPost2010PropOp57
 70
     0
  0
XRECORD
  5
192
102
{ACAD_REACTORS
330
191
102
}
330
191
100
AcDbXrecord
280
     1
102
RTVSPost2010Prop28
280
     0
102
RTVSPost2010PropOp28
 70
     1
102
RTVSPost2010Prop29
280
     1
102
RTVSPost2010PropOp29
 70
     1
102
RTVSPost2010Prop30
280
     1
102
RTVSPost2010PropOp30
 70
     1
102
RTVSPost2010Prop31
280
     0
102
RTVSPost2010PropOp31
 70
     1
102
RTVSPost2010Prop32
280
     0
102
RTVSPost2010PropOp32
 70
     1
102
RTVSPost2010Prop33
280
     0
102
RTVSPost2010PropOp33
 70
     1
102
RTVSPost2010Prop34
280
     0
102
RTVSPost2010PropOp34
 70
     1
102
RTVSPost2010Prop35
280
     0
102
RTVSPost2010PropOp35
 70
     1
102
RTVSPost2010Prop36
280
     0
102
RTVSPost2010PropOp36
 70
     1
102
RTVSPost2010Prop37
 90
       50
102
RTVSPost2010PropOp37
 70
     1
102
RTVSPost2010Prop38
140
0.0
102
RTVSPost2010PropOp38
 70
     1
102
RTVSPost2010Prop39
140
1.0
102
RTVSPost2010PropOp39
 70
     1
102
RTVSPost2010Prop40
 90
        0
102
RTVSPost2010PropOp40
 70
     1
102
RTVSPost2010Prop41ColorIndex
 90
       18
102
RTVSPost2010Prop41ColorRGB
 90
        0
102
RTVSPost2010PropOp41
 70
     1
102
RTVSPost2010Prop42
 90
       50
102
RTVSPost2010PropOp42
 70
     1
102
RTVSPost2010Prop43
 90
        3
102
RTVSPost2010PropOp43
 70
     1
102
RTVSPost2010Prop44ColorIndex
 90
        5
102
RTVSPost2010Prop44ColorRGB
 90
      255
102
RTVSPost2010PropOp44
 70
     1
102
RTVSPost2010Prop45
280
     0
102
RTVSPost2010PropOp45
 70
     1
102
RTVSPost2010Prop46
 90
       50
102
RTVSPost2010PropOp46
 70
     1
102
RTVSPost2010Prop47
 90
       50
102
RTVSPost2010PropOp47
 70
     1
102
RTVSPost2010Prop48
 90
       50
102
RTVSPost2010PropOp48
 70
     1
102
RTVSPost2010Prop49
280
     0
102
RTVSPost2010PropOp49
 70
     1
102
RTVSPost2010Prop50
 90
       50
102
RTVSPost2010PropOp50
 70
     1
102
RTVSPost2010Prop51ColorIndex
 90
      256
102
RTVSPost2010Prop51ColorRGB
 90
-16777216
102
RTVSPost2010PropOp51
 70
     0
102
RTVSPost2010Prop52
140
1.0
102
RTVSPost2010PropOp52
 70
     0
102
RTVSPost2010Prop53
 90
        2
102
RTVSPost2010PropOp53
 70
     1
102
RTVSPost2010Prop54
  1
strokes_ogs.tif
102
RTVSPost2010PropOp54
 70
     1
102
RTVSPost2010Prop55
280
     0
102
RTVSPost2010PropOp55
 70
     1
102
RTVSPost2010Prop56
140
1.0
102
RTVSPost2010PropOp56
 70
     1
102
RTVSPost2010Prop57
140
1.0
102
RTVSPost2010PropOp57
 70
     1
  0
XRECORD
  5
176
102
{ACAD_REACTORS
330
175
102
}
330
175
100
AcDbXrecord
280
     1
102
RTVSPost2010Prop28
280
     0
102
RTVSPost2010PropOp28
 70
     1
102
RTVSPost2010Prop29
280
     1
102
RTVSPost2010PropOp29
 70
     1
102
RTVSPost2010Prop30
280
     1
102
RTVSPost2010PropOp30
 70
     1
102
RTVSPost2010Prop31
280
     0
102
RTVSPost2010PropOp31
 70
     1
102
RTVSPost2010Prop32
280
     0
102
RTVSPost2010PropOp32
 70
     1
102
RTVSPost2010Prop33
280
     0
102
RTVSPost2010PropOp33
 70
     1
102
RTVSPost2010Prop34
280
     0
102
RTVSPost2010PropOp34
 70
     1
102
RTVSPost2010Prop35
280
     0
102
RTVSPost2010PropOp35
 70
     1
102
RTVSPost2010Prop36
280
     0
102
RTVSPost2010PropOp36
 70
     1
102
RTVSPost2010Prop37
 90
       50
102
RTVSPost2010PropOp37
 70
     1
102
RTVSPost2010Prop38
140
0.0
102
RTVSPost2010PropOp38
 70
     1
102
RTVSPost2010Prop39
140
1.0
102
RTVSPost2010PropOp39
 70
     1
102
RTVSPost2010Prop40
 90
        0
102
RTVSPost2010PropOp40
 70
     1
102
RTVSPost2010Prop41ColorIndex
 90
       18
102
RTVSPost2010Prop41ColorRGB
 90
        0
102
RTVSPost2010PropOp41
 70
     1
102
RTVSPost2010Prop42
 90
       50
102
RTVSPost2010PropOp42
 70
     1
102
RTVSPost2010Prop43
 90
        3
102
RTVSPost2010PropOp43
 70
     1
102
RTVSPost2010Prop44ColorIndex
 90
        5
102
RTVSPost2010Prop44ColorRGB
 90
      255
102
RTVSPost2010PropOp44
 70
     1
102
RTVSPost2010Prop45
280
     0
102
RTVSPost2010PropOp45
 70
     1
102
RTVSPost2010Prop46
 90
       50
102
RTVSPost2010PropOp46
 70
     1
102
RTVSPost2010Prop47
 90
       50
102
RTVSPost2010PropOp47
 70
     1
102
RTVSPost2010Prop48
 90
       50
102
RTVSPost2010PropOp48
 70
     1
102
RTVSPost2010Prop49
280
     0
102
RTVSPost2010PropOp49
 70
     1
102
RTVSPost2010Prop50
 90
       50
102
RTVSPost2010PropOp50
 70
     1
102
RTVSPost2010Prop51ColorIndex
 90
      256
102
RTVSPost2010Prop51ColorRGB
 90
-16777216
102
RTVSPost2010PropOp51
 70
     0
102
RTVSPost2010Prop52
140
1.0
102
RTVSPost2010PropOp52
 70
     0
102
RTVSPost2010Prop53
 90
        2
102
RTVSPost2010PropOp53
 70
     1
102
RTVSPost2010Prop54
  1
strokes_ogs.tif
102
RTVSPost2010PropOp54
 70
     1
102
RTVSPost2010Prop55
280
     0
102
RTVSPost2010PropOp55
 70
     1
102
RTVSPost2010Prop56
140
1.0
102
RTVSPost2010PropOp56
 70
     1
102
RTVSPost2010Prop57
140
1.0
102
RTVSPost2010PropOp57
 70
     1
  0
XRECORD
  5
178
102
{ACAD_REACTORS
330
177
102
}
330
177
100
AcDbXrecord
280
     1
102
RTVSPost2010Prop28
280
     0
102
RTVSPost2010PropOp28
 70
     1
102
RTVSPost2010Prop29
280
     1
102
RTVSPost2010PropOp29
 70
     1
102
RTVSPost2010Prop30
280
     1
102
RTVSPost2010PropOp30
 70
     1
102
RTVSPost2010Prop31
280
     0
102
RTVSPost2010PropOp31
 70
     1
102
RTVSPost2010Prop32
280
     0
102
RTVSPost2010PropOp32
 70
     1
102
RTVSPost2010Prop33
280
     0
102
RTVSPost2010PropOp33
 70
     1
102
RTVSPost2010Prop34
280
     0
102
RTVSPost2010PropOp34
 70
     1
102
RTVSPost2010Prop35
280
     0
102
RTVSPost2010PropOp35
 70
     1
102
RTVSPost2010Prop36
280
     0
102
RTVSPost2010PropOp36
 70
     1
102
RTVSPost2010Prop37
 90
       50
102
RTVSPost2010PropOp37
 70
     1
102
RTVSPost2010Prop38
140
0.0
102
RTVSPost2010PropOp38
 70
     1
102
RTVSPost2010Prop39
140
1.0
102
RTVSPost2010PropOp39
 70
     1
102
RTVSPost2010Prop40
 90
        0
102
RTVSPost2010PropOp40
 70
     1
102
RTVSPost2010Prop41ColorIndex
 90
       18
102
RTVSPost2010Prop41ColorRGB
 90
        0
102
RTVSPost2010PropOp41
 70
     1
102
RTVSPost2010Prop42
 90
       50
102
RTVSPost2010PropOp42
 70
     1
102
RTVSPost2010Prop43
 90
        3
102
RTVSPost2010PropOp43
 70
     1
102
RTVSPost2010Prop44ColorIndex
 90
        5
102
RTVSPost2010Prop44ColorRGB
 90
      255
102
RTVSPost2010PropOp44
 70
     1
102
RTVSPost2010Prop45
280
     0
102
RTVSPost2010PropOp45
 70
     1
102
RTVSPost2010Prop46
 90
       50
102
RTVSPost2010PropOp46
 70
     1
102
RTVSPost2010Prop47
 90
       50
102
RTVSPost2010PropOp47
 70
     1
102
RTVSPost2010Prop48
 90
       50
102
RTVSPost2010PropOp48
 70
     1
102
RTVSPost2010Prop49
280
     0
102
RTVSPost2010PropOp49
 70
     1
102
RTVSPost2010Prop50
 90
       50
102
RTVSPost2010PropOp50
 70
     1
102
RTVSPost2010Prop51ColorIndex
 90
      256
102
RTVSPost2010Prop51ColorRGB
 90
-16777216
102
RTVSPost2010PropOp51
 70
     0
102
RTVSPost2010Prop52
140
1.0
102
RTVSPost2010PropOp52
 70
     0
102
RTVSPost2010Prop53
 90
        2
102
RTVSPost2010PropOp53
 70
     1
102
RTVSPost2010Prop54
  1
strokes_ogs.tif
102
RTVSPost2010PropOp54
 70
     1
102
RTVSPost2010Prop55
280
     0
102
RTVSPost2010PropOp55
 70
     1
102
RTVSPost2010Prop56
140
1.0
102
RTVSPost2010PropOp56
 70
     1
102
RTVSPost2010Prop57
140
1.0
102
RTVSPost2010PropOp57
 70
     1
  0
XRECORD
  5
17A
102
{ACAD_REACTORS
330
179
102
}
330
179
100
AcDbXrecord
280
     1
102
RTVSPost2010Prop28
280
     0
102
RTVSPost2010PropOp28
 70
     1
102
RTVSPost2010Prop29
280
     1
102
RTVSPost2010PropOp29
 70
     1
102
RTVSPost2010Prop30
280
     1
102
RTVSPost2010PropOp30
 70
     1
102
RTVSPost2010Prop31
280
     0
102
RTVSPost2010PropOp31
 70
     1
102
RTVSPost2010Prop32
280
     0
102
RTVSPost2010PropOp32
 70
     1
102
RTVSPost2010Prop33
280
     0
102
RTVSPost2010PropOp33
 70
     1
102
RTVSPost2010Prop34
280
     0
102
RTVSPost2010PropOp34
 70
     1
102
RTVSPost2010Prop35
280
     0
102
RTVSPost2010PropOp35
 70
     1
102
RTVSPost2010Prop36
280
     0
102
RTVSPost2010PropOp36
 70
     1
102
RTVSPost2010Prop37
 90
       50
102
RTVSPost2010PropOp37
 70
     1
102
RTVSPost2010Prop38
140
0.0
102
RTVSPost2010PropOp38
 70
     1
102
RTVSPost2010Prop39
140
1.0
102
RTVSPost2010PropOp39
 70
     1
102
RTVSPost2010Prop40
 90
        0
102
RTVSPost2010PropOp40
 70
     1
102
RTVSPost2010Prop41ColorIndex
 90
       18
102
RTVSPost2010Prop41ColorRGB
 90
        0
102
RTVSPost2010PropOp41
 70
     1
102
RTVSPost2010Prop42
 90
       50
102
RTVSPost2010PropOp42
 70
     1
102
RTVSPost2010Prop43
 90
        3
102
RTVSPost2010PropOp43
 70
     1
102
RTVSPost2010Prop44ColorIndex
 90
        5
102
RTVSPost2010Prop44ColorRGB
 90
      255
102
RTVSPost2010PropOp44
 70
     1
102
RTVSPost2010Prop45
280
     0
102
RTVSPost2010PropOp45
 70
     1
102
RTVSPost2010Prop46
 90
       50
102
RTVSPost2010PropOp46
 70
     1
102
RTVSPost2010Prop47
 90
       50
102
RTVSPost2010PropOp47
 70
     1
102
RTVSPost2010Prop48
 90
       50
102
RTVSPost2010PropOp48
 70
     1
102
RTVSPost2010Prop49
280
     0
102
RTVSPost2010PropOp49
 70
     1
102
RTVSPost2010Prop50
 90
       50
102
RTVSPost2010PropOp50
 70
     1
102
RTVSPost2010Prop51ColorIndex
 90
      256
102
RTVSPost2010Prop51ColorRGB
 90
-16777216
102
RTVSPost2010PropOp51
 70
     0
102
RTVSPost2010Prop52
140
1.0
102
RTVSPost2010PropOp52
 70
     0
102
RTVSPost2010Prop53
 90
        2
102
RTVSPost2010PropOp53
 70
     1
102
RTVSPost2010Prop54
  1
strokes_ogs.tif
102
RTVSPost2010PropOp54
 70
     1
102
RTVSPost2010Prop55
280
     0
102
RTVSPost2010PropOp55
 70
     1
102
RTVSPost2010Prop56
140
1.0
102
RTVSPost2010PropOp56
 70
     1
102
RTVSPost2010Prop57
140
1.0
102
RTVSPost2010PropOp57
 70
     1
  0
XRECORD
  5
17C
102
{ACAD_REACTORS
330
17B
102
}
330
17B
100
AcDbXrecord
280
     1
102
RTVSPost2010Prop28
280
     0
102
RTVSPost2010PropOp28
 70
     1
102
RTVSPost2010Prop29
280
     1
102
RTVSPost2010PropOp29
 70
     1
102
RTVSPost2010Prop30
280
     1
102
RTVSPost2010PropOp30
 70
     1
102
RTVSPost2010Prop31
280
     0
102
RTVSPost2010PropOp31
 70
     1
102
RTVSPost2010Prop32
280
     0
102
RTVSPost2010PropOp32
 70
     1
102
RTVSPost2010Prop33
280
     0
102
RTVSPost2010PropOp33
 70
     1
102
RTVSPost2010Prop34
280
     0
102
RTVSPost2010PropOp34
 70
     1
102
RTVSPost2010Prop35
280
     0
102
RTVSPost2010PropOp35
 70
     1
102
RTVSPost2010Prop36
280
     0
102
RTVSPost2010PropOp36
 70
     1
102
RTVSPost2010Prop37
 90
       50
102
RTVSPost2010PropOp37
 70
     1
102
RTVSPost2010Prop38
140
0.0
102
RTVSPost2010PropOp38
 70
     1
102
RTVSPost2010Prop39
140
1.0
102
RTVSPost2010PropOp39
 70
     1
102
RTVSPost2010Prop40
 90
        0
102
RTVSPost2010PropOp40
 70
     1
102
RTVSPost2010Prop41ColorIndex
 90
       18
102
RTVSPost2010Prop41ColorRGB
 90
        0
102
RTVSPost2010PropOp41
 70
     1
102
RTVSPost2010Prop42
 90
       50
102
RTVSPost2010PropOp42
 70
     1
102
RTVSPost2010Prop43
 90
        3
102
RTVSPost2010PropOp43
 70
     1
102
RTVSPost2010Prop44ColorIndex
 90
        5
102
RTVSPost2010Prop44ColorRGB
 90
      255
102
RTVSPost2010PropOp44
 70
     1
102
RTVSPost2010Prop45
280
     0
102
RTVSPost2010PropOp45
 70
     1
102
RTVSPost2010Prop46
 90
       50
102
RTVSPost2010PropOp46
 70
     1
102
RTVSPost2010Prop47
 90
       50
102
RTVSPost2010PropOp47
 70
     1
102
RTVSPost2010Prop48
 90
       50
102
RTVSPost2010PropOp48
 70
     1
102
RTVSPost2010Prop49
280
     0
102
RTVSPost2010PropOp49
 70
     1
102
RTVSPost2010Prop50
 90
       50
102
RTVSPost2010PropOp50
 70
     1
102
RTVSPost2010Prop51ColorIndex
 90
      256
102
RTVSPost2010Prop51ColorRGB
 90
-16777216
102
RTVSPost2010PropOp51
 70
     0
102
RTVSPost2010Prop52
140
1.0
102
RTVSPost2010PropOp52
 70
     0
102
RTVSPost2010Prop53
 90
        2
102
RTVSPost2010PropOp53
 70
     1
102
RTVSPost2010Prop54
  1
strokes_ogs.tif
102
RTVSPost2010PropOp54
 70
     1
102
RTVSPost2010Prop55
280
     0
102
RTVSPost2010PropOp55
 70
     1
102
RTVSPost2010Prop56
140
1.0
102
RTVSPost2010PropOp56
 70
     1
102
RTVSPost2010Prop57
140
1.0
102
RTVSPost2010PropOp57
 70
     1
  0
XRECORD
  5
184
102
{ACAD_REACTORS
330
183
102
}
330
183
100
AcDbXrecord
280
     1
102
RTVSPost2010Prop28
280
     0
102
RTVSPost2010PropOp28
 70
     1
102
RTVSPost2010Prop29
280
     1
102
RTVSPost2010PropOp29
 70
     1
102
RTVSPost2010Prop30
280
     1
102
RTVSPost2010PropOp30
 70
     1
102
RTVSPost2010Prop31
280
     0
102
RTVSPost2010PropOp31
 70
     1
102
RTVSPost2010Prop32
280
     0
102
RTVSPost2010PropOp32
 70
     1
102
RTVSPost2010Prop33
280
     0
102
RTVSPost2010PropOp33
 70
     1
102
RTVSPost2010Prop34
280
     0
102
RTVSPost2010PropOp34
 70
     1
102
RTVSPost2010Prop35
280
     0
102
RTVSPost2010PropOp35
 70
     1
102
RTVSPost2010Prop36
280
     0
102
RTVSPost2010PropOp36
 70
     1
102
RTVSPost2010Prop37
 90
       50
102
RTVSPost2010PropOp37
 70
     1
102
RTVSPost2010Prop38
140
0.0
102
RTVSPost2010PropOp38
 70
     1
102
RTVSPost2010Prop39
140
1.0
102
RTVSPost2010PropOp39
 70
     1
102
RTVSPost2010Prop40
 90
        0
102
RTVSPost2010PropOp40
 70
     1
102
RTVSPost2010Prop41ColorIndex
 90
       18
102
RTVSPost2010Prop41ColorRGB
 90
        0
102
RTVSPost2010PropOp41
 70
     1
102
RTVSPost2010Prop42
 90
       50
102
RTVSPost2010PropOp42
 70
     1
102
RTVSPost2010Prop43
 90
        3
102
RTVSPost2010PropOp43
 70
     1
102
RTVSPost2010Prop44ColorIndex
 90
        5
102
RTVSPost2010Prop44ColorRGB
 90
      255
102
RTVSPost2010PropOp44
 70
     1
102
RTVSPost2010Prop45
280
     0
102
RTVSPost2010PropOp45
 70
     1
102
RTVSPost2010Prop46
 90
       50
102
RTVSPost2010PropOp46
 70
     1
102
RTVSPost2010Prop47
 90
       50
102
RTVSPost2010PropOp47
 70
     1
102
RTVSPost2010Prop48
 90
       50
102
RTVSPost2010PropOp48
 70
     1
102
RTVSPost2010Prop49
280
     0
102
RTVSPost2010PropOp49
 70
     1
102
RTVSPost2010Prop50
 90
       50
102
RTVSPost2010PropOp50
 70
     1
102
RTVSPost2010Prop51ColorIndex
 90
      256
102
RTVSPost2010Prop51ColorRGB
 90
-16777216
102
RTVSPost2010PropOp51
 70
     0
102
RTVSPost2010Prop52
140
1.0
102
RTVSPost2010PropOp52
 70
     0
102
RTVSPost2010Prop53
 90
        2
102
RTVSPost2010PropOp53
 70
     1
102
RTVSPost2010Prop54
  1
strokes_ogs.tif
102
RTVSPost2010PropOp54
 70
     1
102
RTVSPost2010Prop55
280
     0
102
RTVSPost2010PropOp55
 70
     1
102
RTVSPost2010Prop56
140
1.0
102
RTVSPost2010PropOp56
 70
     1
102
RTVSPost2010Prop57
140
1.0
102
RTVSPost2010PropOp57
 70
     1
  0
XRECORD
  5
1A0
102
{ACAD_REACTORS
330
19F
102
}
330
19F
100
AcDbXrecord
280
     1
102
RTVSPost2010Prop28
280
     0
102
RTVSPost2010PropOp28
 70
     0
102
RTVSPost2010Prop29
280
     1
102
RTVSPost2010PropOp29
 70
     0
102
RTVSPost2010Prop30
280
     1
102
RTVSPost2010PropOp30
 70
     0
102
RTVSPost2010Prop31
280
     0
102
RTVSPost2010PropOp31
 70
     0
102
RTVSPost2010Prop32
280
     0
102
RTVSPost2010PropOp32
 70
     0
102
RTVSPost2010Prop33
280
     0
102
RTVSPost2010PropOp33
 70
     0
102
RTVSPost2010Prop34
280
     0
102
RTVSPost2010PropOp34
 70
     0
102
RTVSPost2010Prop35
280
     0
102
RTVSPost2010PropOp35
 70
     0
102
RTVSPost2010Prop36
280
     0
102
RTVSPost2010PropOp36
 70
     0
102
RTVSPost2010Prop37
 90
       50
102
RTVSPost2010PropOp37
 70
     0
102
RTVSPost2010Prop38
140
0.0
102
RTVSPost2010PropOp38
 70
     0
102
RTVSPost2010Prop39
140
1.0
102
RTVSPost2010PropOp39
 70
     0
102
RTVSPost2010Prop40
 90
        0
102
RTVSPost2010PropOp40
 70
     0
102
RTVSPost2010Prop41ColorIndex
 90
       18
102
RTVSPost2010Prop41ColorRGB
 90
        0
102
RTVSPost2010PropOp41
 70
     0
102
RTVSPost2010Prop42
 90
       50
102
RTVSPost2010PropOp42
 70
     0
102
RTVSPost2010Prop43
 90
        3
102
RTVSPost2010PropOp43
 70
     0
102
RTVSPost2010Prop44ColorIndex
 90
        5
102
RTVSPost2010Prop44ColorRGB
 90
      255
102
RTVSPost2010PropOp44
 70
     0
102
RTVSPost2010Prop45
280
     0
102
RTVSPost2010PropOp45
 70
     0
102
RTVSPost2010Prop46
 90
       50
102
RTVSPost2010PropOp46
 70
     0
102
RTVSPost2010Prop47
 90
       50
102
RTVSPost2010PropOp47
 70
     0
102
RTVSPost2010Prop48
 90
       50
102
RTVSPost2010PropOp48
 70
     0
102
RTVSPost2010Prop49
280
     0
102
RTVSPost2010PropOp49
 70
     0
102
RTVSPost2010Prop50
 90
       50
102
RTVSPost2010PropOp50
 70
     0
102
RTVSPost2010Prop51ColorIndex
 90
      256
102
RTVSPost2010Prop51ColorRGB
 90
-16777216
102
RTVSPost2010PropOp51
 70
     0
102
RTVSPost2010Prop52
140
1.0
102
RTVSPost2010PropOp52
 70
     0
102
RTVSPost2010Prop53
 90
        2
102
RTVSPost2010PropOp53
 70
     0
102
RTVSPost2010Prop54
  1
strokes_ogs.tif
102
RTVSPost2010PropOp54
 70
     0
102
RTVSPost2010Prop55
280
     0
102
RTVSPost2010PropOp55
 70
     0
102
RTVSPost2010Prop56
140
1.0
102
RTVSPost2010PropOp56
 70
     0
102
RTVSPost2010Prop57
140
1.0
102
RTVSPost2010PropOp57
 70
     0
  0
XRECORD
  5
190
102
{ACAD_REACTORS
330
18F
102
}
330
18F
100
AcDbXrecord
280
     1
102
RTVSPost2010Prop28
280
     0
102
RTVSPost2010PropOp28
 70
     1
102
RTVSPost2010Prop29
280
     1
102
RTVSPost2010PropOp29
 70
     1
102
RTVSPost2010Prop30
280
     1
102
RTVSPost2010PropOp30
 70
     1
102
RTVSPost2010Prop31
280
     0
102
RTVSPost2010PropOp31
 70
     1
102
RTVSPost2010Prop32
280
     0
102
RTVSPost2010PropOp32
 70
     1
102
RTVSPost2010Prop33
280
     0
102
RTVSPost2010PropOp33
 70
     1
102
RTVSPost2010Prop34
280
     0
102
RTVSPost2010PropOp34
 70
     1
102
RTVSPost2010Prop35
280
     0
102
RTVSPost2010PropOp35
 70
     1
102
RTVSPost2010Prop36
280
     0
102
RTVSPost2010PropOp36
 70
     1
102
RTVSPost2010Prop37
 90
       50
102
RTVSPost2010PropOp37
 70
     1
102
RTVSPost2010Prop38
140
0.0
102
RTVSPost2010PropOp38
 70
     1
102
RTVSPost2010Prop39
140
1.0
102
RTVSPost2010PropOp39
 70
     1
102
RTVSPost2010Prop40
 90
        0
102
RTVSPost2010PropOp40
 70
     1
102
RTVSPost2010Prop41ColorIndex
 90
       18
102
RTVSPost2010Prop41ColorRGB
 90
        0
102
RTVSPost2010PropOp41
 70
     1
102
RTVSPost2010Prop42
 90
       50
102
RTVSPost2010PropOp42
 70
     1
102
RTVSPost2010Prop43
 90
        3
102
RTVSPost2010PropOp43
 70
     1
102
RTVSPost2010Prop44ColorIndex
 90
        5
102
RTVSPost2010Prop44ColorRGB
 90
      255
102
RTVSPost2010PropOp44
 70
     1
102
RTVSPost2010Prop45
280
     0
102
RTVSPost2010PropOp45
 70
     1
102
RTVSPost2010Prop46
 90
       50
102
RTVSPost2010PropOp46
 70
     1
102
RTVSPost2010Prop47
 90
       50
102
RTVSPost2010PropOp47
 70
     1
102
RTVSPost2010Prop48
 90
       50
102
RTVSPost2010PropOp48
 70
     1
102
RTVSPost2010Prop49
280
     0
102
RTVSPost2010PropOp49
 70
     1
102
RTVSPost2010Prop50
 90
       50
102
RTVSPost2010PropOp50
 70
     1
102
RTVSPost2010Prop51ColorIndex
 90
      256
102
RTVSPost2010Prop51ColorRGB
 90
-16777216
102
RTVSPost2010PropOp51
 70
     0
102
RTVSPost2010Prop52
140
1.0
102
RTVSPost2010PropOp52
 70
     0
102
RTVSPost2010Prop53
 90
        2
102
RTVSPost2010PropOp53
 70
     1
102
RTVSPost2010Prop54
  1
strokes_ogs.tif
102
RTVSPost2010PropOp54
 70
     1
102
RTVSPost2010Prop55
280
     0
102
RTVSPost2010PropOp55
 70
     1
102
RTVSPost2010Prop56
140
1.0
102
RTVSPost2010PropOp56
 70
     1
102
RTVSPost2010Prop57
140
1.0
102
RTVSPost2010PropOp57
 70
     1
  0
XRECORD
  5
1A2
102
{ACAD_REACTORS
330
1A1
102
}
330
1A1
100
AcDbXrecord
280
     1
102
RTVSPost2010Prop28
280
     0
102
RTVSPost2010PropOp28
 70
     0
102
RTVSPost2010Prop29
280
     1
102
RTVSPost2010PropOp29
 70
     0
102
RTVSPost2010Prop30
280
     1
102
RTVSPost2010PropOp30
 70
     0
102
RTVSPost2010Prop31
280
     0
102
RTVSPost2010PropOp31
 70
     0
102
RTVSPost2010Prop32
280
     0
102
RTVSPost2010PropOp32
 70
     0
102
RTVSPost2010Prop33
280
     0
102
RTVSPost2010PropOp33
 70
     0
102
RTVSPost2010Prop34
280
     0
102
RTVSPost2010PropOp34
 70
     0
102
RTVSPost2010Prop35
280
     0
102
RTVSPost2010PropOp35
 70
     0
102
RTVSPost2010Prop36
280
     0
102
RTVSPost2010PropOp36
 70
     0
102
RTVSPost2010Prop37
 90
       50
102
RTVSPost2010PropOp37
 70
     0
102
RTVSPost2010Prop38
140
0.0
102
RTVSPost2010PropOp38
 70
     0
102
RTVSPost2010Prop39
140
1.0
102
RTVSPost2010PropOp39
 70
     0
102
RTVSPost2010Prop40
 90
        0
102
RTVSPost2010PropOp40
 70
     0
102
RTVSPost2010Prop41ColorIndex
 90
       18
102
RTVSPost2010Prop41ColorRGB
 90
        0
102
RTVSPost2010PropOp41
 70
     0
102
RTVSPost2010Prop42
 90
       50
102
RTVSPost2010PropOp42
 70
     0
102
RTVSPost2010Prop43
 90
        3
102
RTVSPost2010PropOp43
 70
     0
102
RTVSPost2010Prop44ColorIndex
 90
        5
102
RTVSPost2010Prop44ColorRGB
 90
      255
102
RTVSPost2010PropOp44
 70
     0
102
RTVSPost2010Prop45
280
     0
102
RTVSPost2010PropOp45
 70
     0
102
RTVSPost2010Prop46
 90
       50
102
RTVSPost2010PropOp46
 70
     0
102
RTVSPost2010Prop47
 90
       50
102
RTVSPost2010PropOp47
 70
     0
102
RTVSPost2010Prop48
 90
       50
102
RTVSPost2010PropOp48
 70
     0
102
RTVSPost2010Prop49
280
     0
102
RTVSPost2010PropOp49
 70
     0
102
RTVSPost2010Prop50
 90
       50
102
RTVSPost2010PropOp50
 70
     0
102
RTVSPost2010Prop51ColorIndex
 90
      256
102
RTVSPost2010Prop51ColorRGB
 90
-16777216
102
RTVSPost2010PropOp51
 70
     0
102
RTVSPost2010Prop52
140
1.0
102
RTVSPost2010PropOp52
 70
     0
102
RTVSPost2010Prop53
 90
        2
102
RTVSPost2010PropOp53
 70
     0
102
RTVSPost2010Prop54
  1
strokes_ogs.tif
102
RTVSPost2010PropOp54
 70
     0
102
RTVSPost2010Prop55
280
     0
102
RTVSPost2010PropOp55
 70
     0
102
RTVSPost2010Prop56
140
1.0
102
RTVSPost2010PropOp56
 70
     0
102
RTVSPost2010Prop57
140
1.0
102
RTVSPost2010PropOp57
 70
     0
  0
XRECORD
  5
188
102
{ACAD_REACTORS
330
187
102
}
330
187
100
AcDbXrecord
280
     1
102
RTVSPost2010Prop28
280
     0
102
RTVSPost2010PropOp28
 70
     1
102
RTVSPost2010Prop29
280
     1
102
RTVSPost2010PropOp29
 70
     1
102
RTVSPost2010Prop30
280
     1
102
RTVSPost2010PropOp30
 70
     1
102
RTVSPost2010Prop31
280
     0
102
RTVSPost2010PropOp31
 70
     1
102
RTVSPost2010Prop32
280
     0
102
RTVSPost2010PropOp32
 70
     1
102
RTVSPost2010Prop33
280
     0
102
RTVSPost2010PropOp33
 70
     1
102
RTVSPost2010Prop34
280
     0
102
RTVSPost2010PropOp34
 70
     1
102
RTVSPost2010Prop35
280
     0
102
RTVSPost2010PropOp35
 70
     1
102
RTVSPost2010Prop36
280
     0
102
RTVSPost2010PropOp36
 70
     1
102
RTVSPost2010Prop37
 90
       50
102
RTVSPost2010PropOp37
 70
     1
102
RTVSPost2010Prop38
140
0.0
102
RTVSPost2010PropOp38
 70
     1
102
RTVSPost2010Prop39
140
1.0
102
RTVSPost2010PropOp39
 70
     1
102
RTVSPost2010Prop40
 90
        0
102
RTVSPost2010PropOp40
 70
     1
102
RTVSPost2010Prop41ColorIndex
 90
       18
102
RTVSPost2010Prop41ColorRGB
 90
        0
102
RTVSPost2010PropOp41
 70
     1
102
RTVSPost2010Prop42
 90
       50
102
RTVSPost2010PropOp42
 70
     1
102
RTVSPost2010Prop43
 90
        3
102
RTVSPost2010PropOp43
 70
     1
102
RTVSPost2010Prop44ColorIndex
 90
        5
102
RTVSPost2010Prop44ColorRGB
 90
      255
102
RTVSPost2010PropOp44
 70
     1
102
RTVSPost2010Prop45
280
     0
102
RTVSPost2010PropOp45
 70
     1
102
RTVSPost2010Prop46
 90
       50
102
RTVSPost2010PropOp46
 70
     1
102
RTVSPost2010Prop47
 90
       50
102
RTVSPost2010PropOp47
 70
     1
102
RTVSPost2010Prop48
 90
       50
102
RTVSPost2010PropOp48
 70
     1
102
RTVSPost2010Prop49
280
     0
102
RTVSPost2010PropOp49
 70
     1
102
RTVSPost2010Prop50
 90
       50
102
RTVSPost2010PropOp50
 70
     1
102
RTVSPost2010Prop51ColorIndex
 90
      256
102
RTVSPost2010Prop51ColorRGB
 90
-16777216
102
RTVSPost2010PropOp51
 70
     0
102
RTVSPost2010Prop52
140
1.0
102
RTVSPost2010PropOp52
 70
     0
102
RTVSPost2010Prop53
 90
        2
102
RTVSPost2010PropOp53
 70
     1
102
RTVSPost2010Prop54
  1
strokes_ogs.tif
102
RTVSPost2010PropOp54
 70
     1
102
RTVSPost2010Prop55
280
     0
102
RTVSPost2010PropOp55
 70
     1
102
RTVSPost2010Prop56
140
1.0
102
RTVSPost2010PropOp56
 70
     1
102
RTVSPost2010Prop57
140
1.0
102
RTVSPost2010PropOp57
 70
     1
  0
XRECORD
  5
19E
102
{ACAD_REACTORS
330
19D
102
}
330
19D
100
AcDbXrecord
280
     1
102
RTVSPost2010Prop28
280
     0
102
RTVSPost2010PropOp28
 70
     1
102
RTVSPost2010Prop29
280
     1
102
RTVSPost2010PropOp29
 70
     1
102
RTVSPost2010Prop30
280
     1
102
RTVSPost2010PropOp30
 70
     1
102
RTVSPost2010Prop31
280
     0
102
RTVSPost2010PropOp31
 70
     1
102
RTVSPost2010Prop32
280
     0
102
RTVSPost2010PropOp32
 70
     1
102
RTVSPost2010Prop33
280
     0
102
RTVSPost2010PropOp33
 70
     1
102
RTVSPost2010Prop34
280
     0
102
RTVSPost2010PropOp34
 70
     1
102
RTVSPost2010Prop35
280
     0
102
RTVSPost2010PropOp35
 70
     1
102
RTVSPost2010Prop36
280
     0
102
RTVSPost2010PropOp36
 70
     1
102
RTVSPost2010Prop37
 90
       50
102
RTVSPost2010PropOp37
 70
     1
102
RTVSPost2010Prop38
140
0.0
102
RTVSPost2010PropOp38
 70
     1
102
RTVSPost2010Prop39
140
1.0
102
RTVSPost2010PropOp39
 70
     1
102
RTVSPost2010Prop40
 90
        0
102
RTVSPost2010PropOp40
 70
     1
102
RTVSPost2010Prop41ColorIndex
 90
       18
102
RTVSPost2010Prop41ColorRGB
 90
        0
102
RTVSPost2010PropOp41
 70
     1
102
RTVSPost2010Prop42
 90
       50
102
RTVSPost2010PropOp42
 70
     1
102
RTVSPost2010Prop43
 90
        3
102
RTVSPost2010PropOp43
 70
     1
102
RTVSPost2010Prop44ColorIndex
 90
        5
102
RTVSPost2010Prop44ColorRGB
 90
      255
102
RTVSPost2010PropOp44
 70
     1
102
RTVSPost2010Prop45
280
     0
102
RTVSPost2010PropOp45
 70
     1
102
RTVSPost2010Prop46
 90
       50
102
RTVSPost2010PropOp46
 70
     1
102
RTVSPost2010Prop47
 90
       50
102
RTVSPost2010PropOp47
 70
     1
102
RTVSPost2010Prop48
 90
       50
102
RTVSPost2010PropOp48
 70
     1
102
RTVSPost2010Prop49
280
     0
102
RTVSPost2010PropOp49
 70
     1
102
RTVSPost2010Prop50
 90
       50
102
RTVSPost2010PropOp50
 70
     1
102
RTVSPost2010Prop51ColorIndex
 90
      256
102
RTVSPost2010Prop51ColorRGB
 90
-16777216
102
RTVSPost2010PropOp51
 70
     0
102
RTVSPost2010Prop52
140
1.0
102
RTVSPost2010PropOp52
 70
     0
102
RTVSPost2010Prop53
 90
        2
102
RTVSPost2010PropOp53
 70
     1
102
RTVSPost2010Prop54
  1
strokes_ogs.tif
102
RTVSPost2010PropOp54
 70
     1
102
RTVSPost2010Prop55
280
     0
102
RTVSPost2010PropOp55
 70
     1
102
RTVSPost2010Prop56
140
1.0
102
RTVSPost2010PropOp56
 70
     1
102
RTVSPost2010Prop57
140
1.0
102
RTVSPost2010PropOp57
 70
     1
  0
XRECORD
  5
19C
102
{ACAD_REACTORS
330
19B
102
}
330
19B
100
AcDbXrecord
280
     1
102
RTVSPost2010Prop28
280
     0
102
RTVSPost2010PropOp28
 70
     1
102
RTVSPost2010Prop29
280
     1
102
RTVSPost2010PropOp29
 70
     1
102
RTVSPost2010Prop30
280
     1
102
RTVSPost2010PropOp30
 70
     1
102
RTVSPost2010Prop31
280
     0
102
RTVSPost2010PropOp31
 70
     1
102
RTVSPost2010Prop32
280
     0
102
RTVSPost2010PropOp32
 70
     1
102
RTVSPost2010Prop33
280
     0
102
RTVSPost2010PropOp33
 70
     1
102
RTVSPost2010Prop34
280
     0
102
RTVSPost2010PropOp34
 70
     1
102
RTVSPost2010Prop35
280
     0
102
RTVSPost2010PropOp35
 70
     1
102
RTVSPost2010Prop36
280
     0
102
RTVSPost2010PropOp36
 70
     1
102
RTVSPost2010Prop37
 90
       50
102
RTVSPost2010PropOp37
 70
     1
102
RTVSPost2010Prop38
140
0.0
102
RTVSPost2010PropOp38
 70
     1
102
RTVSPost2010Prop39
140
1.0
102
RTVSPost2010PropOp39
 70
     1
102
RTVSPost2010Prop40
 90
        0
102
RTVSPost2010PropOp40
 70
     1
102
RTVSPost2010Prop41ColorIndex
 90
       18
102
RTVSPost2010Prop41ColorRGB
 90
        0
102
RTVSPost2010PropOp41
 70
     1
102
RTVSPost2010Prop42
 90
       50
102
RTVSPost2010PropOp42
 70
     1
102
RTVSPost2010Prop43
 90
        3
102
RTVSPost2010PropOp43
 70
     1
102
RTVSPost2010Prop44ColorIndex
 90
        5
102
RTVSPost2010Prop44ColorRGB
 90
      255
102
RTVSPost2010PropOp44
 70
     1
102
RTVSPost2010Prop45
280
     0
102
RTVSPost2010PropOp45
 70
     1
102
RTVSPost2010Prop46
 90
       50
102
RTVSPost2010PropOp46
 70
     1
102
RTVSPost2010Prop47
 90
       50
102
RTVSPost2010PropOp47
 70
     1
102
RTVSPost2010Prop48
 90
       50
102
RTVSPost2010PropOp48
 70
     1
102
RTVSPost2010Prop49
280
     0
102
RTVSPost2010PropOp49
 70
     1
102
RTVSPost2010Prop50
 90
       50
102
RTVSPost2010PropOp50
 70
     1
102
RTVSPost2010Prop51ColorIndex
 90
      256
102
RTVSPost2010Prop51ColorRGB
 90
-16777216
102
RTVSPost2010PropOp51
 70
     0
102
RTVSPost2010Prop52
140
1.0
102
RTVSPost2010PropOp52
 70
     0
102
RTVSPost2010Prop53
 90
        2
102
RTVSPost2010PropOp53
 70
     1
102
RTVSPost2010Prop54
  1
strokes_ogs.tif
102
RTVSPost2010PropOp54
 70
     1
102
RTVSPost2010Prop55
280
     0
102
RTVSPost2010PropOp55
 70
     1
102
RTVSPost2010Prop56
140
1.0
102
RTVSPost2010PropOp56
 70
     1
102
RTVSPost2010Prop57
140
1.0
102
RTVSPost2010PropOp57
 70
     1
  0
XRECORD
  5
196
102
{ACAD_REACTORS
330
195
102
}
330
195
100
AcDbXrecord
280
     1
102
RTVSPost2010Prop28
280
     0
102
RTVSPost2010PropOp28
 70
     1
102
RTVSPost2010Prop29
280
     1
102
RTVSPost2010PropOp29
 70
     1
102
RTVSPost2010Prop30
280
     1
102
RTVSPost2010PropOp30
 70
     1
102
RTVSPost2010Prop31
280
     0
102
RTVSPost2010PropOp31
 70
     1
102
RTVSPost2010Prop32
280
     0
102
RTVSPost2010PropOp32
 70
     1
102
RTVSPost2010Prop33
280
     0
102
RTVSPost2010PropOp33
 70
     1
102
RTVSPost2010Prop34
280
     0
102
RTVSPost2010PropOp34
 70
     1
102
RTVSPost2010Prop35
280
     0
102
RTVSPost2010PropOp35
 70
     1
102
RTVSPost2010Prop36
280
     0
102
RTVSPost2010PropOp36
 70
     1
102
RTVSPost2010Prop37
 90
       50
102
RTVSPost2010PropOp37
 70
     1
102
RTVSPost2010Prop38
140
0.0
102
RTVSPost2010PropOp38
 70
     1
102
RTVSPost2010Prop39
140
1.0
102
RTVSPost2010PropOp39
 70
     1
102
RTVSPost2010Prop40
 90
        0
102
RTVSPost2010PropOp40
 70
     1
102
RTVSPost2010Prop41ColorIndex
 90
       18
102
RTVSPost2010Prop41ColorRGB
 90
        0
102
RTVSPost2010PropOp41
 70
     1
102
RTVSPost2010Prop42
 90
       50
102
RTVSPost2010PropOp42
 70
     1
102
RTVSPost2010Prop43
 90
        3
102
RTVSPost2010PropOp43
 70
     1
102
RTVSPost2010Prop44ColorIndex
 90
        5
102
RTVSPost2010Prop44ColorRGB
 90
      255
102
RTVSPost2010PropOp44
 70
     1
102
RTVSPost2010Prop45
280
     0
102
RTVSPost2010PropOp45
 70
     1
102
RTVSPost2010Prop46
 90
       50
102
RTVSPost2010PropOp46
 70
     1
102
RTVSPost2010Prop47
 90
       50
102
RTVSPost2010PropOp47
 70
     1
102
RTVSPost2010Prop48
 90
       50
102
RTVSPost2010PropOp48
 70
     1
102
RTVSPost2010Prop49
280
     0
102
RTVSPost2010PropOp49
 70
     1
102
RTVSPost2010Prop50
 90
       50
102
RTVSPost2010PropOp50
 70
     1
102
RTVSPost2010Prop51ColorIndex
 90
      256
102
RTVSPost2010Prop51ColorRGB
 90
-16777216
102
RTVSPost2010PropOp51
 70
     0
102
RTVSPost2010Prop52
140
1.0
102
RTVSPost2010PropOp52
 70
     0
102
RTVSPost2010Prop53
 90
        2
102
RTVSPost2010PropOp53
 70
     1
102
RTVSPost2010Prop54
  1
strokes_ogs.tif
102
RTVSPost2010PropOp54
 70
     1
102
RTVSPost2010Prop55
280
     0
102
RTVSPost2010PropOp55
 70
     1
102
RTVSPost2010Prop56
140
1.0
102
RTVSPost2010PropOp56
 70
     1
102
RTVSPost2010Prop57
140
1.0
102
RTVSPost2010PropOp57
 70
     1
  0
XRECORD
  5
198
102
{ACAD_REACTORS
330
197
102
}
330
197
100
AcDbXrecord
280
     1
102
RTVSPost2010Prop28
280
     0
102
RTVSPost2010PropOp28
 70
     1
102
RTVSPost2010Prop29
280
     1
102
RTVSPost2010PropOp29
 70
     1
102
RTVSPost2010Prop30
280
     1
102
RTVSPost2010PropOp30
 70
     1
102
RTVSPost2010Prop31
280
     0
102
RTVSPost2010PropOp31
 70
     1
102
RTVSPost2010Prop32
280
     0
102
RTVSPost2010PropOp32
 70
     1
102
RTVSPost2010Prop33
280
     0
102
RTVSPost2010PropOp33
 70
     1
102
RTVSPost2010Prop34
280
     0
102
RTVSPost2010PropOp34
 70
     1
102
RTVSPost2010Prop35
280
     0
102
RTVSPost2010PropOp35
 70
     1
102
RTVSPost2010Prop36
280
     0
102
RTVSPost2010PropOp36
 70
     1
102
RTVSPost2010Prop37
 90
       50
102
RTVSPost2010PropOp37
 70
     1
102
RTVSPost2010Prop38
140
0.0
102
RTVSPost2010PropOp38
 70
     1
102
RTVSPost2010Prop39
140
1.0
102
RTVSPost2010PropOp39
 70
     1
102
RTVSPost2010Prop40
 90
        0
102
RTVSPost2010PropOp40
 70
     1
102
RTVSPost2010Prop41ColorIndex
 90
       18
102
RTVSPost2010Prop41ColorRGB
 90
        0
102
RTVSPost2010PropOp41
 70
     1
102
RTVSPost2010Prop42
 90
       50
102
RTVSPost2010PropOp42
 70
     1
102
RTVSPost2010Prop43
 90
        3
102
RTVSPost2010PropOp43
 70
     1
102
RTVSPost2010Prop44ColorIndex
 90
        5
102
RTVSPost2010Prop44ColorRGB
 90
      255
102
RTVSPost2010PropOp44
 70
     1
102
RTVSPost2010Prop45
280
     0
102
RTVSPost2010PropOp45
 70
     1
102
RTVSPost2010Prop46
 90
       50
102
RTVSPost2010PropOp46
 70
     1
102
RTVSPost2010Prop47
 90
       50
102
RTVSPost2010PropOp47
 70
     1
102
RTVSPost2010Prop48
 90
       50
102
RTVSPost2010PropOp48
 70
     1
102
RTVSPost2010Prop49
280
     0
102
RTVSPost2010PropOp49
 70
     1
102
RTVSPost2010Prop50
 90
       50
102
RTVSPost2010PropOp50
 70
     1
102
RTVSPost2010Prop51ColorIndex
 90
      256
102
RTVSPost2010Prop51ColorRGB
 90
-16777216
102
RTVSPost2010PropOp51
 70
     0
102
RTVSPost2010Prop52
140
1.0
102
RTVSPost2010PropOp52
 70
     0
102
RTVSPost2010Prop53
 90
        2
102
RTVSPost2010PropOp53
 70
     1
102
RTVSPost2010Prop54
  1
strokes_ogs.tif
102
RTVSPost2010PropOp54
 70
     1
102
RTVSPost2010Prop55
280
     0
102
RTVSPost2010PropOp55
 70
     1
102
RTVSPost2010Prop56
140
1.0
102
RTVSPost2010PropOp56
 70
     1
102
RTVSPost2010Prop57
140
1.0
102
RTVSPost2010PropOp57
 70
     1
  0
XRECORD
  5
18E
102
{ACAD_REACTORS
330
18D
102
}
330
18D
100
AcDbXrecord
280
     1
102
RTVSPost2010Prop28
280
     0
102
RTVSPost2010PropOp28
 70
     1
102
RTVSPost2010Prop29
280
     1
102
RTVSPost2010PropOp29
 70
     1
102
RTVSPost2010Prop30
280
     1
102
RTVSPost2010PropOp30
 70
     1
102
RTVSPost2010Prop31
280
     0
102
RTVSPost2010PropOp31
 70
     1
102
RTVSPost2010Prop32
280
     0
102
RTVSPost2010PropOp32
 70
     1
102
RTVSPost2010Prop33
280
     0
102
RTVSPost2010PropOp33
 70
     1
102
RTVSPost2010Prop34
280
     0
102
RTVSPost2010PropOp34
 70
     1
102
RTVSPost2010Prop35
280
     0
102
RTVSPost2010PropOp35
 70
     1
102
RTVSPost2010Prop36
280
     0
102
RTVSPost2010PropOp36
 70
     1
102
RTVSPost2010Prop37
 90
       50
102
RTVSPost2010PropOp37
 70
     1
102
RTVSPost2010Prop38
140
0.0
102
RTVSPost2010PropOp38
 70
     1
102
RTVSPost2010Prop39
140
1.0
102
RTVSPost2010PropOp39
 70
     1
102
RTVSPost2010Prop40
 90
        0
102
RTVSPost2010PropOp40
 70
     1
102
RTVSPost2010Prop41ColorIndex
 90
       18
102
RTVSPost2010Prop41ColorRGB
 90
        0
102
RTVSPost2010PropOp41
 70
     1
102
RTVSPost2010Prop42
 90
       50
102
RTVSPost2010PropOp42
 70
     1
102
RTVSPost2010Prop43
 90
        3
102
RTVSPost2010PropOp43
 70
     1
102
RTVSPost2010Prop44ColorIndex
 90
        5
102
RTVSPost2010Prop44ColorRGB
 90
      255
102
RTVSPost2010PropOp44
 70
     1
102
RTVSPost2010Prop45
280
     0
102
RTVSPost2010PropOp45
 70
     1
102
RTVSPost2010Prop46
 90
       50
102
RTVSPost2010PropOp46
 70
     1
102
RTVSPost2010Prop47
 90
       50
102
RTVSPost2010PropOp47
 70
     1
102
RTVSPost2010Prop48
 90
       50
102
RTVSPost2010PropOp48
 70
     1
102
RTVSPost2010Prop49
280
     0
102
RTVSPost2010PropOp49
 70
     1
102
RTVSPost2010Prop50
 90
       50
102
RTVSPost2010PropOp50
 70
     1
102
RTVSPost2010Prop51ColorIndex
 90
      256
102
RTVSPost2010Prop51ColorRGB
 90
-16777216
102
RTVSPost2010PropOp51
 70
     0
102
RTVSPost2010Prop52
140
1.0
102
RTVSPost2010PropOp52
 70
     0
102
RTVSPost2010Prop53
 90
        2
102
RTVSPost2010PropOp53
 70
     1
102
RTVSPost2010Prop54
  1
strokes_ogs.tif
102
RTVSPost2010PropOp54
 70
     1
102
RTVSPost2010Prop55
280
     0
102
RTVSPost2010PropOp55
 70
     1
102
RTVSPost2010Prop56
140
1.0
102
RTVSPost2010PropOp56
 70
     1
102
RTVSPost2010Prop57
140
1.0
102
RTVSPost2010PropOp57
 70
     1
  0
XRECORD
  5
182
102
{ACAD_REACTORS
330
181
102
}
330
181
100
AcDbXrecord
280
     1
102
RTVSPost2010Prop28
280
     0
102
RTVSPost2010PropOp28
 70
     1
102
RTVSPost2010Prop29
280
     1
102
RTVSPost2010PropOp29
 70
     1
102
RTVSPost2010Prop30
280
     1
102
RTVSPost2010PropOp30
 70
     1
102
RTVSPost2010Prop31
280
     0
102
RTVSPost2010PropOp31
 70
     1
102
RTVSPost2010Prop32
280
     0
102
RTVSPost2010PropOp32
 70
     1
102
RTVSPost2010Prop33
280
     0
102
RTVSPost2010PropOp33
 70
     1
102
RTVSPost2010Prop34
280
     0
102
RTVSPost2010PropOp34
 70
     1
102
RTVSPost2010Prop35
280
     0
102
RTVSPost2010PropOp35
 70
     1
102
RTVSPost2010Prop36
280
     0
102
RTVSPost2010PropOp36
 70
     1
102
RTVSPost2010Prop37
 90
       50
102
RTVSPost2010PropOp37
 70
     1
102
RTVSPost2010Prop38
140
0.0
102
RTVSPost2010PropOp38
 70
     1
102
RTVSPost2010Prop39
140
1.0
102
RTVSPost2010PropOp39
 70
     1
102
RTVSPost2010Prop40
 90
        0
102
RTVSPost2010PropOp40
 70
     1
102
RTVSPost2010Prop41ColorIndex
 90
       18
102
RTVSPost2010Prop41ColorRGB
 90
        0
102
RTVSPost2010PropOp41
 70
     1
102
RTVSPost2010Prop42
 90
       50
102
RTVSPost2010PropOp42
 70
     1
102
RTVSPost2010Prop43
 90
        3
102
RTVSPost2010PropOp43
 70
     1
102
RTVSPost2010Prop44ColorIndex
 90
        5
102
RTVSPost2010Prop44ColorRGB
 90
      255
102
RTVSPost2010PropOp44
 70
     1
102
RTVSPost2010Prop45
280
     0
102
RTVSPost2010PropOp45
 70
     1
102
RTVSPost2010Prop46
 90
       50
102
RTVSPost2010PropOp46
 70
     1
102
RTVSPost2010Prop47
 90
       50
102
RTVSPost2010PropOp47
 70
     1
102
RTVSPost2010Prop48
 90
       50
102
RTVSPost2010PropOp48
 70
     1
102
RTVSPost2010Prop49
280
     0
102
RTVSPost2010PropOp49
 70
     1
102
RTVSPost2010Prop50
 90
       50
102
RTVSPost2010PropOp50
 70
     1
102
RTVSPost2010Prop51ColorIndex
 90
      256
102
RTVSPost2010Prop51ColorRGB
 90
-16777216
102
RTVSPost2010PropOp51
 70
     0
102
RTVSPost2010Prop52
140
1.0
102
RTVSPost2010PropOp52
 70
     0
102
RTVSPost2010Prop53
 90
        2
102
RTVSPost2010PropOp53
 70
     1
102
RTVSPost2010Prop54
  1
strokes_ogs.tif
102
RTVSPost2010PropOp54
 70
     1
102
RTVSPost2010Prop55
280
     0
102
RTVSPost2010PropOp55
 70
     1
102
RTVSPost2010Prop56
140
1.0
102
RTVSPost2010PropOp56
 70
     1
102
RTVSPost2010Prop57
140
1.0
102
RTVSPost2010PropOp57
 70
     1
  0
XRECORD
  5
19A
102
{ACAD_REACTORS
330
199
102
}
330
199
100
AcDbXrecord
280
     1
102
RTVSPost2010Prop28
280
     0
102
RTVSPost2010PropOp28
 70
     1
102
RTVSPost2010Prop29
280
     1
102
RTVSPost2010PropOp29
 70
     1
102
RTVSPost2010Prop30
280
     1
102
RTVSPost2010PropOp30
 70
     1
102
RTVSPost2010Prop31
280
     0
102
RTVSPost2010PropOp31
 70
     1
102
RTVSPost2010Prop32
280
     0
102
RTVSPost2010PropOp32
 70
     1
102
RTVSPost2010Prop33
280
     0
102
RTVSPost2010PropOp33
 70
     1
102
RTVSPost2010Prop34
280
     0
102
RTVSPost2010PropOp34
 70
     1
102
RTVSPost2010Prop35
280
     0
102
RTVSPost2010PropOp35
 70
     1
102
RTVSPost2010Prop36
280
     0
102
RTVSPost2010PropOp36
 70
     1
102
RTVSPost2010Prop37
 90
       50
102
RTVSPost2010PropOp37
 70
     1
102
RTVSPost2010Prop38
140
0.0
102
RTVSPost2010PropOp38
 70
     1
102
RTVSPost2010Prop39
140
1.0
102
RTVSPost2010PropOp39
 70
     1
102
RTVSPost2010Prop40
 90
        0
102
RTVSPost2010PropOp40
 70
     1
102
RTVSPost2010Prop41ColorIndex
 90
       18
102
RTVSPost2010Prop41ColorRGB
 90
        0
102
RTVSPost2010PropOp41
 70
     1
102
RTVSPost2010Prop42
 90
       50
102
RTVSPost2010PropOp42
 70
     1
102
RTVSPost2010Prop43
 90
        3
102
RTVSPost2010PropOp43
 70
     1
102
RTVSPost2010Prop44ColorIndex
 90
        5
102
RTVSPost2010Prop44ColorRGB
 90
      255
102
RTVSPost2010PropOp44
 70
     1
102
RTVSPost2010Prop45
280
     0
102
RTVSPost2010PropOp45
 70
     1
102
RTVSPost2010Prop46
 90
       50
102
RTVSPost2010PropOp46
 70
     1
102
RTVSPost2010Prop47
 90
       50
102
RTVSPost2010PropOp47
 70
     1
102
RTVSPost2010Prop48
 90
       50
102
RTVSPost2010PropOp48
 70
     1
102
RTVSPost2010Prop49
280
     0
102
RTVSPost2010PropOp49
 70
     1
102
RTVSPost2010Prop50
 90
       50
102
RTVSPost2010PropOp50
 70
     1
102
RTVSPost2010Prop51ColorIndex
 90
      256
102
RTVSPost2010Prop51ColorRGB
 90
-16777216
102
RTVSPost2010PropOp51
 70
     0
102
RTVSPost2010Prop52
140
1.0
102
RTVSPost2010PropOp52
 70
     0
102
RTVSPost2010Prop53
 90
        2
102
RTVSPost2010PropOp53
 70
     1
102
RTVSPost2010Prop54
  1
strokes_ogs.tif
102
RTVSPost2010PropOp54
 70
     1
102
RTVSPost2010Prop55
280
     0
102
RTVSPost2010PropOp55
 70
     1
102
RTVSPost2010Prop56
140
1.0
102
RTVSPost2010PropOp56
 70
     1
102
RTVSPost2010Prop57
140
1.0
102
RTVSPost2010PropOp57
 70
     1
  0
ENDSEC
  0
EOF
