  0
SECTION
  2
HEADER
  9
$ACADVER
  1
AC1024
  9
$ACADMAINTVER
 70
   205
  9
$DWGCODEPAGE
  3
ANSI_1251
  9
$INSBASE
 10
0.0
 20
0.0
 30
0.0
  9
$EXTMIN
 10
1.000000000000000E+20
 20
1.000000000000000E+20
 30
1.000000000000000E+20
  9
$EXTMAX
 10
-1.000000000000000E+20
 20
-1.000000000000000E+20
 30
-1.000000000000000E+20
  9
$LIMMIN
 10
0.0
 20
0.0
  9
$LIMMAX
 10
12.0
 20
9.0
  9
$ORTHOMODE
 70
     0
  9
$REGENMODE
 70
     1
  9
$FILLMODE
 70
     1
  9
$QTEXTMODE
 70
     0
  9
$MIRRTEXT
 70
     1
  9
$LTSCALE
 40
1.0
  9
$ATTMODE
 70
     1
  9
$TEXTSIZE
 40
0.2
  9
$TRACEWID
 40
0.05
  9
$TEXTSTYLE
  7
Standard
  9
$CLAYER
  8
OracDecor_cornice_mouldings
  9
$CELTYPE
  6
ByLayer
  9
$CECOLOR
 62
   256
  9
$CELTSCALE
 40
1.0
  9
$DISPSILH
 70
     0
  9
$DIMSCALE
 40
1.0
  9
$DIMASZ
 40
0.18
  9
$DIMEXO
 40
0.0625
  9
$DIMDLI
 40
0.38
  9
$DIMRND
 40
0.0
  9
$DIMDLE
 40
0.0
  9
$DIMEXE
 40
0.18
  9
$DIMTP
 40
0.0
  9
$DIMTM
 40
0.0
  9
$DIMTXT
 40
0.18
  9
$DIMCEN
 40
0.09
  9
$DIMTSZ
 40
0.0
  9
$DIMTOL
 70
     0
  9
$DIMLIM
 70
     0
  9
$DIMTIH
 70
     1
  9
$DIMTOH
 70
     1
  9
$DIMSE1
 70
     0
  9
$DIMSE2
 70
     0
  9
$DIMTAD
 70
     0
  9
$DIMZIN
 70
     0
  9
$DIMBLK
  1

  9
$DIMASO
 70
     1
  9
$DIMSHO
 70
     1
  9
$DIMPOST
  1

  9
$DIMAPOST
  1

  9
$DIMALT
 70
     0
  9
$DIMALTD
 70
     2
  9
$DIMALTF
 40
25.4
  9
$DIMLFAC
 40
1.0
  9
$DIMTOFL
 70
     0
  9
$DIMTVP
 40
0.0
  9
$DIMTIX
 70
     0
  9
$DIMSOXD
 70
     0
  9
$DIMSAH
 70
     0
  9
$DIMBLK1
  1

  9
$DIMBLK2
  1

  9
$DIMSTYLE
  2
Standard
  9
$DIMCLRD
 70
     0
  9
$DIMCLRE
 70
     0
  9
$DIMCLRT
 70
     0
  9
$DIMTFAC
 40
1.0
  9
$DIMGAP
 40
0.09
  9
$DIMJUST
 70
     0
  9
$DIMSD1
 70
     0
  9
$DIMSD2
 70
     0
  9
$DIMTOLJ
 70
     1
  9
$DIMTZIN
 70
     0
  9
$DIMALTZ
 70
     0
  9
$DIMALTTZ
 70
     0
  9
$DIMUPT
 70
     0
  9
$DIMDEC
 70
     4
  9
$DIMTDEC
 70
     4
  9
$DIMALTU
 70
     2
  9
$DIMALTTD
 70
     2
  9
$DIMTXSTY
  7
Standard
  9
$DIMAUNIT
 70
     0
  9
$DIMADEC
 70
     0
  9
$DIMALTRND
 40
0.0
  9
$DIMAZIN
 70
     0
  9
$DIMDSEP
 70
    46
  9
$DIMATFIT
 70
     3
  9
$DIMFRAC
 70
     0
  9
$DIMLDRBLK
  1

  9
$DIMLUNIT
 70
     2
  9
$DIMLWD
 70
    -2
  9
$DIMLWE
 70
    -2
  9
$DIMTMOVE
 70
     0
  9
$DIMFXL
 40
1.0
  9
$DIMFXLON
 70
     0
  9
$DIMJOGANG
 40
0.7853981633974483
  9
$DIMTFILL
 70
     0
  9
$DIMTFILLCLR
 70
     0
  9
$DIMARCSYM
 70
     0
  9
$DIMLTYPE
  6

  9
$DIMLTEX1
  6

  9
$DIMLTEX2
  6

  9
$DIMTXTDIRECTION
 70
     0
  9
$LUNITS
 70
     2
  9
$LUPREC
 70
     4
  9
$SKETCHINC
 40
0.1
  9
$FILLETRAD
 40
0.5
  9
$AUNITS
 70
     0
  9
$AUPREC
 70
     0
  9
$MENU
  1
.
  9
$ELEVATION
 40
0.0
  9
$PELEVATION
 40
0.0
  9
$THICKNESS
 40
0.0
  9
$LIMCHECK
 70
     0
  9
$CHAMFERA
 40
0.5
  9
$CHAMFERB
 40
0.5
  9
$CHAMFERC
 40
1.0
  9
$CHAMFERD
 40
0.0
  9
$SKPOLY
 70
     0
  9
$TDCREATE
 40
2451380.930432396
  9
$TDUCREATE
 40
2451380.805432396
  9
$TDUPDATE
 40
2451380.966180555
  9
$TDUUPDATE
 40
2451380.841180556
  9
$TDINDWG
 40
0.0075648843
  9
$TDUSRTIMER
 40
0.0075558449
  9
$USRTIMER
 70
     1
  9
$ANGBASE
 50
0.0
  9
$ANGDIR
 70
     0
  9
$PDMODE
 70
     0
  9
$PDSIZE
 40
0.0
  9
$PLINEWID
 40
0.0
  9
$SPLFRAME
 70
     0
  9
$SPLINETYPE
 70
     6
  9
$SPLINESEGS
 70
     8
  9
$HANDSEED
  5
185
  9
$SURFTAB1
 70
     6
  9
$SURFTAB2
 70
     6
  9
$SURFTYPE
 70
     6
  9
$SURFU
 70
     6
  9
$SURFV
 70
     6
  9
$UCSBASE
  2

  9
$UCSNAME
  2

  9
$UCSORG
 10
0.0
 20
0.0
 30
0.0
  9
$UCSXDIR
 10
1.0
 20
0.0
 30
0.0
  9
$UCSYDIR
 10
0.0
 20
1.0
 30
0.0
  9
$UCSORTHOREF
  2

  9
$UCSORTHOVIEW
 70
     0
  9
$UCSORGTOP
 10
0.0
 20
0.0
 30
0.0
  9
$UCSORGBOTTOM
 10
0.0
 20
0.0
 30
0.0
  9
$UCSORGLEFT
 10
0.0
 20
0.0
 30
0.0
  9
$UCSORGRIGHT
 10
0.0
 20
0.0
 30
0.0
  9
$UCSORGFRONT
 10
0.0
 20
0.0
 30
0.0
  9
$UCSORGBACK
 10
0.0
 20
0.0
 30
0.0
  9
$PUCSBASE
  2

  9
$PUCSNAME
  2

  9
$PUCSORG
 10
0.0
 20
0.0
 30
0.0
  9
$PUCSXDIR
 10
1.0
 20
0.0
 30
0.0
  9
$PUCSYDIR
 10
0.0
 20
1.0
 30
0.0
  9
$PUCSORTHOREF
  2

  9
$PUCSORTHOVIEW
 70
     0
  9
$PUCSORGTOP
 10
0.0
 20
0.0
 30
0.0
  9
$PUCSORGBOTTOM
 10
0.0
 20
0.0
 30
0.0
  9
$PUCSORGLEFT
 10
0.0
 20
0.0
 30
0.0
  9
$PUCSORGRIGHT
 10
0.0
 20
0.0
 30
0.0
  9
$PUCSORGFRONT
 10
0.0
 20
0.0
 30
0.0
  9
$PUCSORGBACK
 10
0.0
 20
0.0
 30
0.0
  9
$USERI1
 70
     0
  9
$USERI2
 70
     0
  9
$USERI3
 70
     0
  9
$USERI4
 70
     0
  9
$USERI5
 70
     0
  9
$USERR1
 40
0.0
  9
$USERR2
 40
0.0
  9
$USERR3
 40
0.0
  9
$USERR4
 40
0.0
  9
$USERR5
 40
0.0
  9
$WORLDVIEW
 70
     1
  9
$SHADEDGE
 70
     3
  9
$SHADEDIF
 70
    70
  9
$TILEMODE
 70
     1
  9
$MAXACTVP
 70
    64
  9
$PINSBASE
 10
0.0
 20
0.0
 30
0.0
  9
$PLIMCHECK
 70
     0
  9
$PEXTMIN
 10
1.000000000000000E+20
 20
1.000000000000000E+20
 30
1.000000000000000E+20
  9
$PEXTMAX
 10
-1.000000000000000E+20
 20
-1.000000000000000E+20
 30
-1.000000000000000E+20
  9
$PLIMMIN
 10
0.0
 20
0.0
  9
$PLIMMAX
 10
12.0
 20
9.0
  9
$UNITMODE
 70
     0
  9
$VISRETAIN
 70
     1
  9
$PLINEGEN
 70
     0
  9
$PSLTSCALE
 70
     1
  9
$TREEDEPTH
 70
  3020
  9
$CMLSTYLE
  2
Standard
  9
$CMLJUST
 70
     0
  9
$CMLSCALE
 40
1.0
  9
$PROXYGRAPHICS
 70
     1
  9
$MEASUREMENT
 70
     1
  9
$CELWEIGHT
370
    -1
  9
$ENDCAPS
280
     0
  9
$JOINSTYLE
280
     0
  9
$LWDISPLAY
290
     0
  9
$INSUNITS
 70
     4
  9
$HYPERLINKBASE
  1

  9
$STYLESHEET
  1

  9
$XEDIT
290
     1
  9
$CEPSNTYPE
380
     0
  9
$PSTYLEMODE
290
     1
  9
$FINGERPRINTGUID
  2
{12F50282-3ED8-11D3-A8B7-0060B0F84BC6}
  9
$VERSIONGUID
  2
{12F50293-3ED8-11D3-A8B7-0060B0F84BC6}
  9
$EXTNAMES
290
     1
  9
$PSVPSCALE
 40
0.0
  9
$OLESTARTUP
290
     0
  9
$SORTENTS
280
   127
  9
$INDEXCTL
280
     0
  9
$HIDETEXT
280
     0
  9
$XCLIPFRAME
280
     2
  9
$HALOGAP
280
     0
  9
$OBSCOLOR
 70
   257
  9
$OBSLTYPE
280
     0
  9
$INTERSECTIONDISPLAY
280
     0
  9
$INTERSECTIONCOLOR
 70
   257
  9
$DIMASSOC
280
     1
  9
$PROJECTNAME
  1

  9
$CAMERADISPLAY
290
     0
  9
$LENSLENGTH
 40
50.0
  9
$CAMERAHEIGHT
 40
0.0
  9
$STEPSPERSEC
 40
2.0
  9
$STEPSIZE
 40
6.0
  9
$3DDWFPREC
 40
2.0
  9
$PSOLWIDTH
 40
0.25
  9
$PSOLHEIGHT
 40
4.0
  9
$LOFTANG1
 40
1.570796326794896
  9
$LOFTANG2
 40
1.570796326794896
  9
$LOFTMAG1
 40
0.0
  9
$LOFTMAG2
 40
0.0
  9
$LOFTPARAM
 70
     7
  9
$LOFTNORMALS
280
     1
  9
$LATITUDE
 40
37.795
  9
$LONGITUDE
 40
-122.394
  9
$NORTHDIRECTION
 40
0.0
  9
$TIMEZONE
 70
 -8000
  9
$LIGHTGLYPHDISPLAY
280
     1
  9
$TILEMODELIGHTSYNCH
280
     1
  9
$CMATERIAL
347
AB
  9
$SOLIDHIST
280
     0
  9
$SHOWHIST
280
     1
  9
$DWFFRAME
280
     2
  9
$DGNFRAME
280
     0
  9
$REALWORLDSCALE
290
     1
  9
$INTERFERECOLOR
 62
     1
  9
$INTERFEREOBJVS
345
CD
  9
$INTERFEREVPVS
346
CA
  9
$CSHADOW
280
     0
  9
$SHADOWPLANELOCATION
 40
0.0
  0
ENDSEC
  0
SECTION
  2
CLASSES
  0
CLASS
  1
ACDBDICTIONARYWDFLT
  2
AcDbDictionaryWithDefault
  3
ObjectDBX Classes
 90
        0
 91
        1
280
     0
281
     0
  0
CLASS
  1
ACDBPLACEHOLDER
  2
AcDbPlaceHolder
  3
ObjectDBX Classes
 90
        0
 91
        2
280
     0
281
     0
  0
CLASS
  1
LAYOUT
  2
AcDbLayout
  3
ObjectDBX Classes
 90
        0
 91
        3
280
     0
281
     0
  0
CLASS
  1
MATERIAL
  2
AcDbMaterial
  3
ObjectDBX Classes
 90
     1153
 91
        3
280
     0
281
     0
  0
CLASS
  1
VISUALSTYLE
  2
AcDbVisualStyle
  3
ObjectDBX Classes
 90
     4095
 91
       24
280
     0
281
     0
  0
CLASS
  1
TABLESTYLE
  2
AcDbTableStyle
  3
ObjectDBX Classes
 90
     4095
 91
        1
280
     0
281
     0
  0
CLASS
  1
SCALE
  2
AcDbScale
  3
ObjectDBX Classes
 90
     1153
 91
       17
280
     0
281
     0
  0
CLASS
  1
MLEADERSTYLE
  2
AcDbMLeaderStyle
  3
ACDB_MLEADERSTYLE_CLASS
 90
     4095
 91
        1
280
     0
281
     0
  0
CLASS
  1
ACDBSECTIONVIEWSTYLE
  2
AcDbSectionViewStyle
  3
ObjectDBX Classes
 90
     1025
 91
        1
280
     0
281
     0
  0
CLASS
  1
ACDBDETAILVIEWSTYLE
  2
AcDbDetailViewStyle
  3
ObjectDBX Classes
 90
     1025
 91
        1
280
     0
281
     0
  0
CLASS
  1
MESH
  2
AcDbSubDMesh
  3
ObjectDBX Classes
 90
        0
 91
        1
280
     0
281
     1
  0
CLASS
  1
DICTIONARYVAR
  2
AcDbDictionaryVar
  3
ObjectDBX Classes
 90
        0
 91
        9
280
     0
281
     0
  0
CLASS
  1
CELLSTYLEMAP
  2
AcDbCellStyleMap
  3
ObjectDBX Classes
 90
     1152
 91
        1
280
     0
281
     0
  0
ENDSEC
  0
SECTION
  2
TABLES
  0
TABLE
  2
VPORT
  5
8
330
0
100
AcDbSymbolTable
 70
     1
  0
VPORT
  5
A8
330
8
100
AcDbSymbolTableRecord
100
AcDbViewportTableRecord
  2
*Active
 70
     0
 10
0.0
 20
0.0
 11
1.0
 21
1.0
 12
-0.0000485531709273
 22
-26.12625312805176
 13
0.0
 23
0.0
 14
0.5
 24
0.5
 15
0.5
 25
0.5
 16
-1.0
 26
-1.0
 36
1.0
 17
0.0
 27
0.0
 37
0.0
 40
1198.995763119836
 41
1.639602841804818
 42
50.0
 43
0.0
 44
0.0
 50
0.0
 51
0.0
 71
     0
 72
   100
 73
     1
 74
     3
 75
     0
 76
     0
 77
     0
 78
     0
281
     0
 65
     1
110
0.0
120
0.0
130
0.0
111
1.0
121
0.0
131
0.0
112
0.0
122
1.0
132
0.0
 79
     0
146
0.0
348
C9
 60
     3
 61
     5
292
     1
282
     1
141
0.0
142
0.0
 63
   250
421
  3355443
  0
ENDTAB
  0
TABLE
  2
LTYPE
  5
5
330
0
100
AcDbSymbolTable
 70
     1
  0
LTYPE
  5
14
330
5
100
AcDbSymbolTableRecord
100
AcDbLinetypeTableRecord
  2
ByBlock
 70
     0
  3

 72
    65
 73
     0
 40
0.0
  0
LTYPE
  5
15
330
5
100
AcDbSymbolTableRecord
100
AcDbLinetypeTableRecord
  2
ByLayer
 70
     0
  3

 72
    65
 73
     0
 40
0.0
  0
LTYPE
  5
16
330
5
100
AcDbSymbolTableRecord
100
AcDbLinetypeTableRecord
  2
Continuous
 70
     0
  3
Solid line
 72
    65
 73
     0
 40
0.0
  0
ENDTAB
  0
TABLE
  2
LAYER
  5
2
330
0
100
AcDbSymbolTable
 70
     3
  0
LAYER
  5
10
330
2
100
AcDbSymbolTableRecord
100
AcDbLayerTableRecord
  2
0
 70
     0
 62
     7
  6
Continuous
370
    -3
390
F
347
BB
  0
LAYER
  5
2B
330
2
100
AcDbSymbolTableRecord
100
AcDbLayerTableRecord
  2
ASHADE
 70
     4
 62
     7
  6
Continuous
370
    -3
390
2D
347
BB
  0
LAYER
  5
F8
330
2
100
AcDbSymbolTableRecord
100
AcDbLayerTableRecord
  2
OracDecor_cornice_mouldings
 70
     0
 62
    13
420
 14702166
  6
Continuous
370
    -3
390
F
347
BB
  0
ENDTAB
  0
TABLE
  2
STYLE
  5
3
330
0
100
AcDbSymbolTable
 70
     2
  0
STYLE
  5
11
330
3
100
AcDbSymbolTableRecord
100
AcDbTextStyleTableRecord
  2
Standard
 70
     0
 40
0.0
 41
1.0
 50
0.0
 71
     0
 42
0.2
  3
txt
  4

  0
STYLE
  5
2C
330
3
100
AcDbSymbolTableRecord
100
AcDbTextStyleTableRecord
  2
ASHADE
 70
     0
 40
0.2
 41
1.0
 50
0.0
 71
     0
 42
0.2
  3
simplex
  4

  0
ENDTAB
  0
TABLE
  2
VIEW
  5
6
330
0
100
AcDbSymbolTable
 70
     0
  0
ENDTAB
  0
TABLE
  2
UCS
  5
7
330
0
100
AcDbSymbolTable
 70
     0
  0
ENDTAB
  0
TABLE
  2
APPID
  5
9
330
0
100
AcDbSymbolTable
 70
     6
  0
APPID
  5
12
330
9
100
AcDbSymbolTableRecord
100
AcDbRegAppTableRecord
  2
ACAD
 70
     0
  0
APPID
  5
8F
330
9
100
AcDbSymbolTableRecord
100
AcDbRegAppTableRecord
  2
AVE_RENDER
 70
     0
  0
APPID
  5
90
330
9
100
AcDbSymbolTableRecord
100
AcDbRegAppTableRecord
  2
AVE_ENTITY_MATERIAL
 70
     0
  0
APPID
  5
9C
330
9
100
AcDbSymbolTableRecord
100
AcDbRegAppTableRecord
  2
AVE_FINISH
 70
     0
  0
APPID
  5
9D
330
9
100
AcDbSymbolTableRecord
100
AcDbRegAppTableRecord
  2
AVE_MATERIAL
 70
     0
  0
APPID
  5
9E
330
9
100
AcDbSymbolTableRecord
100
AcDbRegAppTableRecord
  2
AVE_GLOBAL
 70
     0
  0
ENDTAB
  0
TABLE
  2
DIMSTYLE
  5
A
330
0
100
AcDbSymbolTable
 70
     1
100
AcDbDimStyleTable
 71
     0
  0
DIMSTYLE
105
27
330
A
100
AcDbSymbolTableRecord
100
AcDbDimStyleTableRecord
  2
Standard
 70
     0
340
11
  0
ENDTAB
  0
TABLE
  2
BLOCK_RECORD
  5
1
330
0
100
AcDbSymbolTable
 70
     6
  0
BLOCK_RECORD
  5
1F
330
1
100
AcDbSymbolTableRecord
100
AcDbBlockTableRecord
  2
*Model_Space
340
22
 70
     0
280
     1
281
     0
  0
BLOCK_RECORD
  5
1B
330
1
100
AcDbSymbolTableRecord
100
AcDbBlockTableRecord
  2
*Paper_Space
340
1E
 70
     0
280
     1
281
     0
  0
BLOCK_RECORD
  5
23
330
1
100
AcDbSymbolTableRecord
100
AcDbBlockTableRecord
  2
*Paper_Space0
340
26
 70
     0
280
     1
281
     0
  0
BLOCK_RECORD
  5
2E
330
1
100
AcDbSymbolTableRecord
100
AcDbBlockTableRecord
  2
direct
340
0
 70
     0
280
     1
281
     0
  0
BLOCK_RECORD
  5
42
330
1
100
AcDbSymbolTableRecord
100
AcDbBlockTableRecord
  2
overhead
340
0
 70
     0
280
     1
281
     0
  0
BLOCK_RECORD
  5
5F
330
1
100
AcDbSymbolTableRecord
100
AcDbBlockTableRecord
  2
sh_spot
340
0
 70
     0
280
     1
281
     0
  0
BLOCK_RECORD
  5
91
330
1
100
AcDbSymbolTableRecord
100
AcDbBlockTableRecord
  2
AVE_RENDER
340
0
102
{BLKREFS
331
94
331
95
331
96
331
97
331
98
331
99
331
9A
331
9B
102
}
 70
     0
280
     1
281
     0
  0
BLOCK_RECORD
  5
9F
330
1
100
AcDbSymbolTableRecord
100
AcDbBlockTableRecord
  2
AVE_GLOBAL
340
0
102
{BLKREFS
331
A2
102
}
 70
     0
280
     1
281
     0
  0
ENDTAB
  0
ENDSEC
  0
SECTION
  2
BLOCKS
  0
BLOCK
  5
20
330
1F
100
AcDbEntity
  8
0
100
AcDbBlockBegin
  2
*Model_Space
 70
     0
 10
0.0
 20
0.0
 30
0.0
  3
*Model_Space
  1

  0
ENDBLK
  5
21
330
1F
100
AcDbEntity
  8
0
100
AcDbBlockEnd
  0
BLOCK
  5
1C
330
1B
100
AcDbEntity
 67
     1
  8
0
100
AcDbBlockBegin
  2
*Paper_Space
 70
     0
 10
0.0
 20
0.0
 30
0.0
  3
*Paper_Space
  1

  0
ENDBLK
  5
1D
330
1B
100
AcDbEntity
 67
     1
  8
0
100
AcDbBlockEnd
  0
BLOCK
  5
24
330
23
100
AcDbEntity
 67
     1
  8
0
100
AcDbBlockBegin
  2
*Paper_Space0
 70
     0
 10
0.0
 20
0.0
 30
0.0
  3
*Paper_Space0
  1

  0
ENDBLK
  5
25
330
23
100
AcDbEntity
 67
     1
  8
0
100
AcDbBlockEnd
  0
BLOCK
  5
40
330
2E
100
AcDbEntity
  8
0
100
AcDbBlockBegin
  2
direct
 70
     2
 10
0.0
 20
0.0
 30
0.0
  3
direct
  1

  0
ATTDEF
  5
2F
330
2E
100
AcDbEntity
  8
ASHADE
  6
Continuous
 62
     1
100
AcDbText
 10
0.0
 20
-0.1
 30
0.0
 40
0.2
  1

  7
ASHADE
 72
     1
 11
0.0
 21
-0.1
 31
0.0
100
AcDbAttributeDefinition
280
     0
  3
Light Name
  2
SNAME
 70
     0
280
     0
  0
ARC
  5
30
330
2E
100
AcDbEntity
  8
ASHADE
  6
Continuous
 62
     7
100
AcDbCircle
 10
0.0
 20
0.0
 30
0.0
 40
0.3
100
AcDbArc
 50
205.6792886194569
 51
334.3207113805431
  0
ARC
  5
31
330
2E
100
AcDbEntity
  8
ASHADE
  6
Continuous
 62
     7
100
AcDbCircle
 10
0.0
 20
0.0
 30
0.0
 40
0.3
100
AcDbArc
 50
25.67928861945685
 51
154.3207113805431
  0
LINE
  5
32
330
2E
100
AcDbEntity
  8
ASHADE
  6
Continuous
 62
     7
100
AcDbLine
 10
-0.21
 20
0.2142428528562855
 30
0.0
 11
-0.21
 21
0.5
 31
0.0
  0
LINE
  5
33
330
2E
100
AcDbEntity
  8
ASHADE
  6
Continuous
 62
     7
100
AcDbLine
 10
-0.11
 20
0.2791057147390572
 30
0.0
 11
-0.11
 21
0.5
 31
0.0
  0
LINE
  5
34
330
2E
100
AcDbEntity
  8
ASHADE
  6
Continuous
 62
     7
100
AcDbLine
 10
0.21
 20
0.2142428528562855
 30
0.0
 11
0.21
 21
0.5
 31
0.0
  0
ATTDEF
  5
35
330
2E
100
AcDbEntity
  8
ASHADE
  6
Continuous
 62
     7
100
AcDbText
 10
0.0
 20
0.25
 30
0.0
 40
0.01
  1

100
AcDbAttributeDefinition
280
     0
  3
Look-at Y
  2
LAY
 70
     1
280
     0
  0
ATTDEF
  5
36
330
2E
100
AcDbEntity
  8
ASHADE
  6
Continuous
 62
     7
100
AcDbText
 10
0.0
 20
0.22
 30
0.0
 40
0.01
  1
1
100
AcDbAttributeDefinition
280
     0
  3
Light Intensity
  2
INTENSITY
 70
     1
280
     0
  0
ATTDEF
  5
37
330
2E
100
AcDbEntity
  8
ASHADE
  6
Continuous
 62
     7
100
AcDbText
 10
0.0
 20
0.16
 30
0.0
 40
0.01
  1
-1
100
AcDbAttributeDefinition
280
     0
  3
*not used*
  2
BEAMD
 70
     1
280
     0
  0
ATTDEF
  5
38
330
2E
100
AcDbEntity
  8
ASHADE
  6
Continuous
 62
     7
100
AcDbText
 10
0.0
 20
0.175
 30
0.0
 40
0.01
  1
-1
100
AcDbAttributeDefinition
280
     0
  3
*not used*
  2
CONED
 70
     1
280
     0
  0
ATTDEF
  5
39
330
2E
100
AcDbEntity
  8
ASHADE
  6
Continuous
 62
     7
100
AcDbText
 10
0.0
 20
0.19
 30
0.0
 40
0.01
  1
0
100
AcDbAttributeDefinition
280
     0
  3
Depth Map Size
  2
CONEA
 70
     1
280
     0
  0
ATTDEF
  5
3A
330
2E
100
AcDbEntity
  8
ASHADE
  6
Continuous
 62
     7
100
AcDbText
 10
0.0
 20
0.2050000000000001
 30
0.0
 40
0.01
  1
1,1,1
100
AcDbAttributeDefinition
280
     0
  3
Light Color (RGB)
  2
COLOR
 70
     1
280
     0
  0
ATTDEF
  5
3B
330
2E
100
AcDbEntity
  8
ASHADE
  6
Continuous
 62
     7
100
AcDbText
 10
0.0
 20
0.235
 30
0.0
 40
0.01
  1

100
AcDbAttributeDefinition
280
     0
  3
Look-at Z
  2
LAZ
 70
     1
280
     0
  0
LINE
  5
3C
330
2E
100
AcDbEntity
  8
ASHADE
  6
Continuous
 62
     7
100
AcDbLine
 10
0.0
 20
0.3
 30
0.0
 11
0.0
 21
0.5
 31
0.0
  0
LINE
  5
3D
330
2E
100
AcDbEntity
  8
ASHADE
  6
Continuous
 62
     7
100
AcDbLine
 10
0.11
 20
0.2791057147390572
 30
0.0
 11
0.11
 21
0.5
 31
0.0
  0
ATTDEF
  5
3E
330
2E
100
AcDbEntity
  8
ASHADE
  6
Continuous
 62
     7
100
AcDbText
 10
0.0
 20
0.265
 30
0.0
 40
0.01
  1

100
AcDbAttributeDefinition
280
     0
  3
Look-at X
  2
LAX
 70
     1
280
     0
  0
ATTDEF
  5
3F
330
2E
100
AcDbEntity
  8
ASHADE
  6
Continuous
 62
     7
100
AcDbText
 10
0.0
 20
0.28
 30
0.0
 40
0.01
  1

100
AcDbAttributeDefinition
280
     0
  3

  2
GNAME
 70
     1
280
     0
  0
ENDBLK
  5
41
330
2E
100
AcDbEntity
  8
0
100
AcDbBlockEnd
  0
BLOCK
  5
5D
330
42
100
AcDbEntity
  8
0
100
AcDbBlockBegin
  2
overhead
 70
     2
 10
0.0
 20
0.0
 30
0.0
  3
overhead
  1

  0
ATTDEF
  5
43
330
42
100
AcDbEntity
  8
ASHADE
  6
Continuous
 62
     1
100
AcDbText
 10
0.0
 20
-0.1
 30
0.0
 40
0.2
  1

  7
ASHADE
 72
     1
 11
0.0
 21
-0.1
 31
0.0
100
AcDbAttributeDefinition
280
     0
  3
Light Name
  2
SNAME
 70
     0
280
     0
  0
ARC
  5
44
330
42
100
AcDbEntity
  8
ASHADE
  6
Continuous
 62
     7
100
AcDbCircle
 10
0.0
 20
0.0
 30
0.0
 40
0.3
100
AcDbArc
 50
205.6792886194569
 51
334.3207113805431
  0
LINE
  5
45
330
42
100
AcDbEntity
  8
ASHADE
  6
Continuous
 62
     7
100
AcDbLine
 10
-0.2041413561583015
 20
-0.2198324514393848
 30
0.0
 11
-0.2721884748777353
 21
-0.2931099352525131
 31
0.0
  0
LINE
  5
46
330
42
100
AcDbEntity
  8
ASHADE
  6
Continuous
 62
     7
100
AcDbLine
 10
-0.1096591641591904
 20
-0.2792398032442862
 30
0.0
 11
-0.1279356915190555
 21
-0.3257797704516673
 31
0.0
  0
LINE
  5
47
330
42
100
AcDbEntity
  8
ASHADE
  6
Continuous
 62
     7
100
AcDbLine
 10
0.0
 20
-0.2999999999999999
 30
0.0
 11
0.0
 21
-0.4
 31
0.0
  0
LINE
  5
48
330
42
100
AcDbEntity
  8
ASHADE
  6
Continuous
 62
     7
100
AcDbLine
 10
0.1096591641591904
 20
-0.2792398032442862
 30
0.0
 11
0.1279356915190555
 21
-0.3257797704516673
 31
0.0
  0
LINE
  5
49
330
42
100
AcDbEntity
  8
ASHADE
  6
Continuous
 62
     7
100
AcDbLine
 10
0.2041413561583015
 20
-0.2198324514393848
 30
0.0
 11
0.2721884748777353
 21
-0.2931099352525131
 31
0.0
  0
ARC
  5
4A
330
42
100
AcDbEntity
  8
ASHADE
  6
Continuous
 62
     7
100
AcDbCircle
 10
0.0
 20
0.0
 30
0.0
 40
0.3
100
AcDbArc
 50
25.67928861945685
 51
154.3207113805431
  0
LINE
  5
4B
330
42
100
AcDbEntity
  8
ASHADE
  6
Continuous
 62
     7
100
AcDbLine
 10
-0.2703701166919155
 20
0.13
 30
0.0
 11
-0.3154318028072347
 21
0.1516666666666666
 31
0.0
  0
LINE
  5
4C
330
42
100
AcDbEntity
  8
ASHADE
  6
Continuous
 62
     7
100
AcDbLine
 10
-0.2703701166919155
 20
-0.13
 30
0.0
 11
-0.3154318028072347
 21
-0.1516666666666666
 31
0.0
  0
LINE
  5
4D
330
42
100
AcDbEntity
  8
ASHADE
  6
Continuous
 62
     7
100
AcDbLine
 10
-0.2041413561583015
 20
0.2198324514393849
 30
0.0
 11
-0.2721884748777353
 21
0.2931099352525131
 31
0.0
  0
LINE
  5
4E
330
42
100
AcDbEntity
  8
ASHADE
  6
Continuous
 62
     7
100
AcDbLine
 10
-0.1096591641591904
 20
0.2792398032442862
 30
0.0
 11
-0.1279356915190555
 21
0.3257797704516674
 31
0.0
  0
LINE
  5
4F
330
42
100
AcDbEntity
  8
ASHADE
  6
Continuous
 62
     7
100
AcDbLine
 10
0.2703701166919155
 20
-0.13
 30
0.0
 11
0.3154318028072347
 21
-0.1516666666666666
 31
0.0
  0
LINE
  5
50
330
42
100
AcDbEntity
  8
ASHADE
  6
Continuous
 62
     7
100
AcDbLine
 10
0.2703701166919155
 20
0.13
 30
0.0
 11
0.3154318028072347
 21
0.1516666666666666
 31
0.0
  0
LINE
  5
51
330
42
100
AcDbEntity
  8
ASHADE
  6
Continuous
 62
     7
100
AcDbLine
 10
0.0
 20
0.3
 30
0.0
 11
0.0
 21
0.4
 31
0.0
  0
ATTDEF
  5
52
330
42
100
AcDbEntity
  8
ASHADE
  6
Continuous
 62
     7
100
AcDbText
 10
0.0
 20
0.22
 30
0.0
 40
0.01
  1
1
100
AcDbAttributeDefinition
280
     0
  3
Light Intensity
  2
INTENSITY
 70
     1
280
     0
  0
ATTDEF
  5
53
330
42
100
AcDbEntity
  8
ASHADE
  6
Continuous
 62
     7
100
AcDbText
 10
0.0
 20
0.16
 30
0.0
 40
0.01
  1
-1
100
AcDbAttributeDefinition
280
     0
  3
*not used*
  2
BEAMD
 70
     1
280
     0
  0
ATTDEF
  5
54
330
42
100
AcDbEntity
  8
ASHADE
  6
Continuous
 62
     7
100
AcDbText
 10
0.0
 20
0.175
 30
0.0
 40
0.01
  1
-1
100
AcDbAttributeDefinition
280
     0
  3
*not used*
  2
CONED
 70
     1
280
     0
  0
ATTDEF
  5
55
330
42
100
AcDbEntity
  8
ASHADE
  6
Continuous
 62
     7
100
AcDbText
 10
0.0
 20
0.19
 30
0.0
 40
0.01
  1
0
100
AcDbAttributeDefinition
280
     0
  3
Depth Map Size
  2
CONEA
 70
     1
280
     0
  0
ATTDEF
  5
56
330
42
100
AcDbEntity
  8
ASHADE
  6
Continuous
 62
     7
100
AcDbText
 10
0.0
 20
0.2050000000000001
 30
0.0
 40
0.01
  1
1,1,1
100
AcDbAttributeDefinition
280
     0
  3
Light Color (RGB)
  2
COLOR
 70
     1
280
     0
  0
ATTDEF
  5
57
330
42
100
AcDbEntity
  8
ASHADE
  6
Continuous
 62
     7
100
AcDbText
 10
0.0
 20
0.235
 30
0.0
 40
0.01
  1

100
AcDbAttributeDefinition
280
     0
  3
Look-at Z
  2
LAZ
 70
     1
280
     0
  0
ATTDEF
  5
58
330
42
100
AcDbEntity
  8
ASHADE
  6
Continuous
 62
     7
100
AcDbText
 10
0.0
 20
0.25
 30
0.0
 40
0.01
  1

100
AcDbAttributeDefinition
280
     0
  3
Look-at Y
  2
LAY
 70
     1
280
     0
  0
ATTDEF
  5
59
330
42
100
AcDbEntity
  8
ASHADE
  6
Continuous
 62
     7
100
AcDbText
 10
0.0
 20
0.265
 30
0.0
 40
0.01
  1

100
AcDbAttributeDefinition
280
     0
  3
Look-at X
  2
LAX
 70
     1
280
     0
  0
ATTDEF
  5
5A
330
42
100
AcDbEntity
  8
ASHADE
  6
Continuous
 62
     7
100
AcDbText
 10
0.0
 20
0.28
 30
0.0
 40
0.01
  1

100
AcDbAttributeDefinition
280
     0
  3

  2
GNAME
 70
     1
280
     0
  0
LINE
  5
5B
330
42
100
AcDbEntity
  8
ASHADE
  6
Continuous
 62
     7
100
AcDbLine
 10
0.1096591641591904
 20
0.2792398032442862
 30
0.0
 11
0.1279356915190555
 21
0.3257797704516674
 31
0.0
  0
LINE
  5
5C
330
42
100
AcDbEntity
  8
ASHADE
  6
Continuous
 62
     7
100
AcDbLine
 10
0.2041413561583015
 20
0.2198324514393849
 30
0.0
 11
0.2721884748777353
 21
0.2931099352525131
 31
0.0
  0
ENDBLK
  5
5E
330
42
100
AcDbEntity
  8
0
100
AcDbBlockEnd
  0
BLOCK
  5
85
330
5F
100
AcDbEntity
  8
0
100
AcDbBlockBegin
  2
sh_spot
 70
     2
 10
0.0
 20
0.0
 30
0.0
  3
sh_spot
  1

  0
LINE
  5
60
330
5F
100
AcDbEntity
  8
ASHADE
  6
Continuous
 62
     7
100
AcDbLine
 10
0.25
 20
0.26
 30
0.0
 11
-0.25
 21
0.26
 31
0.0
  0
LINE
  5
61
330
5F
100
AcDbEntity
  8
ASHADE
  6
Continuous
 62
     7
100
AcDbLine
 10
-0.25
 20
-0.3399999999999999
 30
0.0
 11
0.25
 21
-0.3399999999999999
 31
0.0
  0
ATTDEF
  5
62
330
5F
100
AcDbEntity
  8
ASHADE
  6
Continuous
 62
     1
100
AcDbText
 10
0.0
 20
-0.1
 30
0.0
 40
0.2
  1

  7
ASHADE
 72
     1
 11
0.0
 21
-0.1
 31
0.0
100
AcDbAttributeDefinition
280
     0
  3
Light Name
  2
SNAME
 70
     0
280
     0
  0
LINE
  5
63
330
5F
100
AcDbEntity
  8
ASHADE
  6
Continuous
 62
     7
100
AcDbLine
 10
-0.25
 20
-0.13
 30
0.0
 11
-0.25
 21
-0.3399999999999999
 31
0.0
  0
LINE
  5
64
330
5F
100
AcDbEntity
  8
ASHADE
  6
Continuous
 62
     7
100
AcDbLine
 10
-0.25
 20
-0.18
 30
0.0
 11
-0.29
 21
-0.18
 31
0.0
  0
LINE
  5
65
330
5F
100
AcDbEntity
  8
ASHADE
  6
Continuous
 62
     7
100
AcDbLine
 10
-0.29
 20
-0.22
 30
0.0
 11
-0.25
 21
-0.22
 31
0.0
  0
LINE
  5
66
330
5F
100
AcDbEntity
  8
ASHADE
  6
Continuous
 62
     7
100
AcDbLine
 10
-0.29
 20
-0.18
 30
0.0
 11
-0.29
 21
-0.22
 31
0.0
  0
LINE
  5
67
330
5F
100
AcDbEntity
  8
ASHADE
  6
Continuous
 62
     7
100
AcDbLine
 10
-0.1045454545454545
 20
0.26
 30
0.0
 11
-0.15
 21
0.46
 31
0.0
  0
LINE
  5
68
330
5F
100
AcDbEntity
  8
ASHADE
  6
Continuous
 62
     7
100
AcDbLine
 10
-0.21
 20
0.26
 30
0.0
 11
-0.301304347826087
 21
0.46
 31
0.0
  0
LINE
  5
69
330
5F
100
AcDbEntity
  8
ASHADE
  6
Continuous
 62
     7
100
AcDbLine
 10
-0.25
 20
0.26
 30
0.0
 11
-0.25
 21
0.13
 31
0.0
  0
LINE
  5
6A
330
5F
100
AcDbEntity
  8
ASHADE
  6
Continuous
 62
     7
100
AcDbLine
 10
-0.25
 20
0.22
 30
0.0
 11
-0.29
 21
0.22
 31
0.0
  0
LINE
  5
6B
330
5F
100
AcDbEntity
  8
ASHADE
  6
Continuous
 62
     7
100
AcDbLine
 10
-0.29
 20
0.1799999999999999
 30
0.0
 11
-0.25
 21
0.1799999999999999
 31
0.0
  0
LINE
  5
6C
330
5F
100
AcDbEntity
  8
ASHADE
  6
Continuous
 62
     7
100
AcDbLine
 10
-0.29
 20
0.22
 30
0.0
 11
-0.29
 21
0.1799999999999999
 31
0.0
  0
ATTDEF
  5
6D
330
5F
100
AcDbEntity
  8
ASHADE
  6
Continuous
 62
     7
100
AcDbText
 10
0.0
 20
-0.24
 30
0.0
 40
0.01
  1
0
100
AcDbAttributeDefinition
280
     0
  3
Depth Map Size
  2
ZSIZE
 70
     1
280
     0
  0
ATTDEF
  5
6E
330
5F
100
AcDbEntity
  8
ASHADE
  6
Continuous
 62
     7
100
AcDbText
 10
0.0
 20
-0.3300000000000001
 30
0.0
 40
0.01
  1
0,0,0
100
AcDbAttributeDefinition
280
     0
  3
Look-from XYZ
  2
LFXYZ
 70
     1
280
     0
  0
ATTDEF
  5
6F
330
5F
100
AcDbEntity
  8
ASHADE
  6
Continuous
 62
     7
100
AcDbText
 10
0.0
 20
-0.315
 30
0.0
 40
0.01
  1
0.0
100
AcDbAttributeDefinition
280
     0
  3
Beam Distribution
  2
BEAMDI
 70
     1
280
     0
  0
ATTDEF
  5
70
330
5F
100
AcDbEntity
  8
ASHADE
  6
Continuous
 62
     7
100
AcDbText
 10
0.0
 20
-0.3
 30
0.0
 40
0.01
  1
0.0
100
AcDbAttributeDefinition
280
     0
  3
Cone Delta
  2
CONEDE
 70
     1
280
     0
  0
ATTDEF
  5
71
330
5F
100
AcDbEntity
  8
ASHADE
  6
Continuous
 62
     7
100
AcDbText
 10
0.0
 20
-0.2850000000000001
 30
0.0
 40
0.01
  1
10.0
100
AcDbAttributeDefinition
280
     0
  3
Cone Angle
  2
CONEAN
 70
     1
280
     0
  0
ATTDEF
  5
72
330
5F
100
AcDbEntity
  8
ASHADE
  6
Continuous
 62
     7
100
AcDbText
 10
0.0
 20
-0.27
 30
0.0
 40
0.01
  1
-1
100
AcDbAttributeDefinition
280
     0
  3
*not used*
  2
BIASMAX
 70
     1
280
     0
  0
ATTDEF
  5
73
330
5F
100
AcDbEntity
  8
ASHADE
  6
Continuous
 62
     7
100
AcDbText
 10
0.0
 20
-0.255
 30
0.0
 40
0.01
  1
-1
100
AcDbAttributeDefinition
280
     0
  3
*not used*
  2
BIASMIN
 70
     1
280
     0
  0
ATTDEF
  5
74
330
5F
100
AcDbEntity
  8
ASHADE
  6
Continuous
 62
     7
100
AcDbText
 10
0.0
 20
-0.225
 30
0.0
 40
0.01
  1
1,1,1
100
AcDbAttributeDefinition
280
     0
  3
Light Color (RGB)
  2
COLOR
 70
     1
280
     0
  0
ATTDEF
  5
75
330
5F
100
AcDbEntity
  8
ASHADE
  6
Continuous
 62
     7
100
AcDbText
 10
0.0
 20
-0.21
 30
0.0
 40
0.01
  1
1
100
AcDbAttributeDefinition
280
     0
  3
Light Intensity
  2
INTENSITY
 70
     1
280
     0
  0
ATTDEF
  5
76
330
5F
100
AcDbEntity
  8
ASHADE
  6
Continuous
 62
     7
100
AcDbText
 10
0.0
 20
-0.15
 30
0.0
 40
0.01
  1

100
AcDbAttributeDefinition
280
     0
  3

  2
GNAME
 70
     1
280
     0
  0
ATTDEF
  5
77
330
5F
100
AcDbEntity
  8
ASHADE
  6
Continuous
 62
     7
100
AcDbText
 10
0.0
 20
-0.195
 30
0.0
 40
0.01
  1

100
AcDbAttributeDefinition
280
     0
  3
Look-at Z
  2
LAZ
 70
     1
280
     0
  0
ATTDEF
  5
78
330
5F
100
AcDbEntity
  8
ASHADE
  6
Continuous
 62
     7
100
AcDbText
 10
0.0
 20
-0.18
 30
0.0
 40
0.01
  1

100
AcDbAttributeDefinition
280
     0
  3
Look-at Y
  2
LAY
 70
     1
280
     0
  0
ATTDEF
  5
79
330
5F
100
AcDbEntity
  8
ASHADE
  6
Continuous
 62
     7
100
AcDbText
 10
0.0
 20
-0.165
 30
0.0
 40
0.01
  1

100
AcDbAttributeDefinition
280
     0
  3
Look-at X
  2
LAX
 70
     1
280
     0
  0
LINE
  5
7A
330
5F
100
AcDbEntity
  8
ASHADE
  6
Continuous
 62
     7
100
AcDbLine
 10
0.25
 20
-0.3399999999999999
 30
0.0
 11
0.25
 21
-0.13
 31
0.0
  0
LINE
  5
7B
330
5F
100
AcDbEntity
  8
ASHADE
  6
Continuous
 62
     7
100
AcDbLine
 10
0.25
 20
-0.18
 30
0.0
 11
0.29
 21
-0.18
 31
0.0
  0
LINE
  5
7C
330
5F
100
AcDbEntity
  8
ASHADE
  6
Continuous
 62
     7
100
AcDbLine
 10
0.29
 20
-0.22
 30
0.0
 11
0.25
 21
-0.22
 31
0.0
  0
LINE
  5
7D
330
5F
100
AcDbEntity
  8
ASHADE
  6
Continuous
 62
     7
100
AcDbLine
 10
0.29
 20
-0.18
 30
0.0
 11
0.29
 21
-0.22
 31
0.0
  0
LINE
  5
7E
330
5F
100
AcDbEntity
  8
ASHADE
  6
Continuous
 62
     7
100
AcDbLine
 10
0.21
 20
0.26
 30
0.0
 11
0.301304347826087
 21
0.46
 31
0.0
  0
LINE
  5
7F
330
5F
100
AcDbEntity
  8
ASHADE
  6
Continuous
 62
     7
100
AcDbLine
 10
0.1045454545454545
 20
0.26
 30
0.0
 11
0.15
 21
0.46
 31
0.0
  0
LINE
  5
80
330
5F
100
AcDbEntity
  8
ASHADE
  6
Continuous
 62
     7
100
AcDbLine
 10
0.0
 20
0.26
 30
0.0
 11
0.0
 21
0.46
 31
0.0
  0
LINE
  5
81
330
5F
100
AcDbEntity
  8
ASHADE
  6
Continuous
 62
     7
100
AcDbLine
 10
0.25
 20
0.13
 30
0.0
 11
0.25
 21
0.26
 31
0.0
  0
LINE
  5
82
330
5F
100
AcDbEntity
  8
ASHADE
  6
Continuous
 62
     7
100
AcDbLine
 10
0.25
 20
0.22
 30
0.0
 11
0.29
 21
0.22
 31
0.0
  0
LINE
  5
83
330
5F
100
AcDbEntity
  8
ASHADE
  6
Continuous
 62
     7
100
AcDbLine
 10
0.29
 20
0.1799999999999999
 30
0.0
 11
0.25
 21
0.1799999999999999
 31
0.0
  0
LINE
  5
84
330
5F
100
AcDbEntity
  8
ASHADE
  6
Continuous
 62
     7
100
AcDbLine
 10
0.29
 20
0.22
 30
0.0
 11
0.29
 21
0.1799999999999999
 31
0.0
  0
ENDBLK
  5
86
330
5F
100
AcDbEntity
  8
0
100
AcDbBlockEnd
  0
BLOCK
  5
92
330
91
100
AcDbEntity
  8
ASHADE
100
AcDbBlockBegin
  2
AVE_RENDER
 70
     0
 10
0.0
 20
0.0
 30
0.0
  3
AVE_RENDER
  1
AVE_RENDER
  0
ENDBLK
  5
93
330
91
100
AcDbEntity
  8
0
100
AcDbBlockEnd
  0
BLOCK
  5
A0
330
9F
100
AcDbEntity
  8
ASHADE
100
AcDbBlockBegin
  2
AVE_GLOBAL
 70
     0
 10
0.0
 20
0.0
 30
0.0
  3
AVE_GLOBAL
  1
AVE_GLOBAL
  0
ENDBLK
  5
A1
330
9F
100
AcDbEntity
  8
0
100
AcDbBlockEnd
  0
ENDSEC
  0
SECTION
  2
ENTITIES
  0
INSERT
  5
94
330
1F
100
AcDbEntity
  8
ASHADE
 62
     1
100
AcDbBlockReference
  2
AVE_RENDER
 10
0.0
 20
0.0
 30
0.0
1001
AVE_RENDER
1002
{
1070
     7
1000
Pref
1070
    30
1070
    20
1070
     1
1070
     0
1000

1070
    10
1070
     1
1070
    10
1040
1.0
1070
     1
1040
0.3
1040
0.7
1040
0.0
1040
10.0
1010
-1.0
1020
-1.0
1030
-1.0
1040
0.3
1070
    49
1070
     0
1070
     0
1010
1.0
1020
1.0
1030
1.0
1040
45.0
1070
     1
1070
     0
1000
WCS
1040
0.0
1070
     0
1040
10.0
1002
}
  0
INSERT
  5
95
330
1F
100
AcDbEntity
  8
ASHADE
 62
     3
100
AcDbBlockReference
  2
AVE_RENDER
 10
0.0
 20
0.0
 30
0.0
1001
AVE_RENDER
1002
{
1070
     0
1000
Full Opt
1070
     0
1070
     1
1070
     1
1070
     1
1070
     0
1070
     0
1070
     0
1070
     1
1070
     1
1040
0.0001
1040
0.0001
1002
}
  0
INSERT
  5
96
330
1F
100
AcDbEntity
  8
ASHADE
 62
     4
100
AcDbBlockReference
  2
AVE_RENDER
 10
0.0
 20
0.0
 30
0.0
1001
AVE_RENDER
1002
{
1070
     0
1000
Quick Opt
1070
     0
1070
     1
1070
     1
1070
     1
1070
     0
1070
     0
1070
     1
1002
}
  0
INSERT
  5
97
330
1F
100
AcDbEntity
  8
ASHADE
 62
     5
100
AcDbBlockReference
  2
AVE_RENDER
 10
0.0
 20
0.0
 30
0.0
1001
AVE_RENDER
1002
{
1070
     1
1000
Scanl Opt
1070
     2
1070
     0
1070
     2
1040
2.0
1040
4.0
1070
     0
1070
     1
1070
     0
1040
0.03
1002
}
  0
INSERT
  5
98
330
1F
100
AcDbEntity
  8
ASHADE
 62
     6
100
AcDbBlockReference
  2
AVE_RENDER
 10
0.0
 20
0.0
 30
0.0
1001
AVE_RENDER
1002
{
1070
     2
1000
Raytr Opt
1070
     2
1070
     0
1070
     2
1040
2.0
1040
4.0
1070
     0
1070
     1
1070
     1
1040
0.03
1070
     3
1040
0.03
1002
}
  0
INSERT
  5
99
330
1F
100
AcDbEntity
  8
ASHADE
 62
     7
100
AcDbBlockReference
  2
AVE_RENDER
 10
0.0
 20
0.0
 30
0.0
1001
AVE_RENDER
1002
{
1070
     0
1000
RFile Opt
1070
     1
1070
   640
1070
   480
1070
 10000
1070
     1
1070
     8
1070
     8
1070
     0
1070
     0
1070
     0
1070
     0
1070
     0
1070
     0
1070
     0
1002
}
  0
INSERT
  5
9A
330
1F
100
AcDbEntity
  8
ASHADE
 62
     8
100
AcDbBlockReference
  2
AVE_RENDER
 10
0.0
 20
0.0
 30
0.0
1001
AVE_RENDER
1002
{
1070
     0
1000
Fog Opt
1070
     0
1070
     0
1040
0.0
1040
1.0
1040
0.0
1040
1.0
1010
0.5
1020
0.5
1030
0.5
1002
}
  0
INSERT
  5
9B
330
1F
100
AcDbEntity
  8
ASHADE
 62
     9
100
AcDbBlockReference
  2
AVE_RENDER
 10
0.0
 20
0.0
 30
0.0
1001
AVE_RENDER
1002
{
1070
     0
1000
BG Opt
1070
     0
1070
     1
1010
0.0
1020
0.0
1030
0.0
1010
1.0
1020
0.0
1030
0.0
1010
0.0
1020
1.0
1030
0.0
1010
0.0
1020
0.0
1030
1.0
1040
0.5
1040
0.33
1040
0.0
1000

1070
     1
1000

1070
     1
1070
     1
1040
1.0
1040
1.0
1040
0.0
1040
0.0
1070
     0
1002
}
  0
INSERT
  5
A2
330
1F
100
AcDbEntity
  8
ASHADE
 62
     1
100
AcDbBlockReference
  2
AVE_GLOBAL
 10
0.0
 20
0.0
 30
0.0
1001
AVE_MATERIAL
1002
{
1000
*GLOBAL*
1000
2
1000
Global finish.
1002
{
1002
}
1002
{
1070
    63
1002
{
1002
{
1010
-1.0
1020
-1.0
1030
-1.0
1002
}
1040
0.1000000014901161
1000

1040
0.0
1002
{
1002
}
1040
0.0
1002
{
1002
}
1040
0.0
1002
}
1002
{
1002
{
1010
-1.0
1020
-1.0
1030
-1.0
1002
}
1040
0.6999999880790711
1000

1040
0.0
1002
{
1002
}
1040
0.0
1002
{
1002
}
1040
0.0
1002
}
1002
{
1002
{
1010
-1.0
1020
-1.0
1030
-1.0
1002
}
1040
0.2000000029802322
1000

1040
0.0
1002
{
1002
}
1040
0.0
1002
{
1002
}
1040
0.0
1002
}
1002
{
1070
     0
1002
{
1070
     1
1002
{
1040
1.0
1040
1.0
1000

1040
0.0
1002
{
1002
}
1040
0.0
1002
{
1002
}
1040
0.0
1002
}
1002
}
1040
1.0
1040
0.0
1040
0.0
1002
}
1002
{
1040
1.0
1040
1.0
1000

1040
0.0
1002
{
1002
}
1040
0.0
1002
{
1002
}
1040
0.0
1002
}
1002
{
1040
0.5
1040
1.0
1000

1040
0.0
1002
{
1002
}
1040
0.0
1002
{
1002
}
1040
0.0
1002
}
1002
{
1070
     0
1040
0.0
1002
{
1002
}
1040
1.0
1002
{
1002
}
1040
0.0
1002
}
1002
{
1040
0.0
1002
{
1002
{
1010
0.0
1020
0.0
1030
0.0
1002
}
1040
1.0
1000

1040
0.0
1002
{
1002
}
1040
0.0
1002
{
1002
}
1040
0.0
1002
}
1002
}
1002
{
1002
{
1070
     1
1002
{
1040
0.0
1040
1.0
1000

1040
0.0
1002
{
1002
}
1040
0.0
1002
{
1002
}
1040
0.0
1002
}
1002
}
1040
0.0
1002
{
1002
}
1010
1.0
1020
0.0
1030
0.0
1010
0.0
1020
1.0
1030
0.0
1010
0.0
1020
0.0
1030
1.0
1070
     0
1002
}
1002
{
1002
{
1040
1.0
1040
1.0
1002
{
1070
     1
1002
{
1040
1.0
1040
1.0
1000

1040
0.0
1002
{
1002
}
1040
0.0
1002
{
1002
}
1040
0.0
1002
}
1002
}
1002
}
1070
     0
1040
0.0
1002
{
1002
}
1002
}
1002
{
1002
}
1002
}
1002
{
1071
        3
1070
     3
1070
     0
1002
{
1070
     2
1070
     0
1070
     0
1040
0.0
1002
}
1070
     0
1070
     2
1002
{
1002
}
1002
}
1002
{
1040
8030.0
1040
190.3000030517578
1040
0.3050000071525574
1040
228.0
1040
545.0
1040
14.0
1040
17.39999961853027
1040
0.4560000002384186
1002
}
1002
}
  0
MESH
  5
F9
330
1F
100
AcDbEntity
  8
OracDecor_cornice_mouldings
 62
    74
420
  5812507
160
             21464
310
D8530000540200000C00000013000000020000003C00000006000000020000000000000000408FC0000000000000163F000000000D174DC00000000000408FC0000000000000203F000000807AFF4FC00C000000130000000A0000003C00000006000000020000000000000000408FC0000000000000163F000000000D174D
310
C0000000E0FF3F8F40000000000000123F000000200D174DC00C00000013000000120000003C0000000600000002000000000000E0FF3F8F40000000000000123F000000200D174DC0000000E0FF3F8F400000000000001E3F000000A07AFF4FC00C000000130000001A0000003C0000000600000002000000000000E0FF3F
310
8F400000000000001E3F000000A07AFF4FC00000000000408FC0000000000000203F000000807AFF4FC00C00000013000000220000003C00000006000000020000000000000000408FC0000000000000163F000000000D174DC00000000000408FC00000000040ADE5BF0000006018E54CC00C000000130000002A0000003C
310
00000006000000020000000000000000408FC00000000040ADE5BF0000006018E54CC0000000E0FF3F8F400000000070ADE5BF0000004018E54CC00C00000013000000320000003C0000000600000002000000000000E0FF3F8F400000000070ADE5BF0000004018E54CC0000000E0FF3F8F40000000000000123F00000020
310
0D174DC00C000000130000003A0000003C00000006000000020000000000000000408FC00000000040ADE5BF0000006018E54CC00000000000408FC0000000004060F2BF000000406C914CC00C00000013000000420000003C0000000600000002000000000000E0FF3F8F40000000005060F2BF000000606C914CC0000000
310
0000408FC0000000004060F2BF000000406C914CC00C000000130000004A0000003C0000000600000002000000000000E0FF3F8F400000000070ADE5BF0000004018E54CC0000000E0FF3F8F40000000005060F2BF000000606C914CC00C00000013000000520000003C00000006000000020000000000000000408FC00000
310
00004060F2BF000000406C914CC00000000000408FC000000000204DF5BF000000408E2A4CC00C000000130000005A0000003C0000000600000002000000000000E0FF3F8F4000000000284DF5BF000000408E2A4CC00000000000408FC000000000204DF5BF000000408E2A4CC00C00000013000000620000003C00000006
310
00000002000000000000E0FF3F8F40000000005060F2BF000000606C914CC0000000E0FF3F8F4000000000284DF5BF000000408E2A4CC00C000000130000006A0000003C00000006000000020000000000000000408FC000000000901BF3BF000000405DC24BC00000000000408FC000000000204DF5BF000000408E2A4CC0
310
0C00000013000000720000003C00000006000000020000000000000000408FC000000000901BF3BF000000405DC24BC0000000E0FF3F8F4000000000901BF3BF000000805DC24BC00C000000130000007A0000003C0000000600000002000000000000E0FF3F8F4000000000901BF3BF000000805DC24BC0000000E0FF3F8F
310
4000000000284DF5BF000000408E2A4CC00C00000013000000820000003C00000006000000020000000000000000408FC000000000901BF3BF000000405DC24BC00000000000408FC0000000000000F83E000000600F314AC00C000000130000008A0000003C0000000600000002000000000000E0FF3F8F40000000000000
310
F03E000000800F314AC00000000000408FC0000000000000F83E000000600F314AC00C00000013000000920000003C0000000600000002000000000000E0FF3F8F4000000000901BF3BF000000805DC24BC0000000E0FF3F8F40000000000000F03E000000800F314AC00C000000130000009A0000003C0000000600000002
310
0000000000000000408FC0000000000000F83E000000600F314AC00000000000408FC000000000000000BF00000040F3B847C00C00000013000000A20000003C0000000600000002000000000000E0FF3F8F400000000000000CBF00000040F3B847C00000000000408FC000000000000000BF00000040F3B847C00C000000
310
13000000AA0000003C0000000600000002000000000000E0FF3F8F40000000000000F03E000000800F314AC0000000E0FF3F8F400000000000000CBF00000040F3B847C00C00000013000000B20000003C00000006000000020000000000000000408FC000000000CA2011C0000000A0F4B847C00000000000408FC0000000
310
00000000BF00000040F3B847C00C00000013000000BA0000003C0000000600000002000000000000E0FF3F8F4000000000CA2011C0000000E0F4B847C00000000000408FC000000000CA2011C0000000A0F4B847C00C00000013000000C20000003C0000000600000002000000000000E0FF3F8F4000000000CA2011C00000
310
00E0F4B847C0000000E0FF3F8F400000000000000CBF00000040F3B847C00C00000013000000CA0000003C00000006000000020000000000000000408FC000000000CA2011C0000000A0F4B847C00000000000408FC000000000C25A15C0000000C0C7A947C00C00000013000000D20000003C000000060000000200000000
310
0000E0FF3F8F4000000000C45A15C0000000E0C7A947C00000000000408FC000000000C25A15C0000000C0C7A947C00C00000013000000DA0000003C0000000600000002000000000000E0FF3F8F4000000000C45A15C0000000E0C7A947C0000000E0FF3F8F4000000000CA2011C0000000E0F4B847C00C00000013000000
310
E20000003C00000006000000020000000000000000408FC0000000003A6619C000000020E77C47C00000000000408FC000000000C25A15C0000000C0C7A947C00C00000013000000EA0000003C0000000600000002000000000000E0FF3F8F40000000003A6619C000000040E77C47C00000000000408FC0000000003A6619
310
C000000020E77C47C00C00000013000000F20000003C0000000600000002000000000000E0FF3F8F40000000003A6619C000000040E77C47C0000000E0FF3F8F4000000000C45A15C0000000E0C7A947C00C00000013000000FA0000003C00000006000000020000000000000000408FC0000000003A6619C000000020E77C
310
47C00000000000408FC0000000000DE820C0000000800CFD46C00C00000013000000020100003C0000000600000002000000000000E0FF3F8F40000000000DE820C0000000A00CFD46C00000000000408FC0000000000DE820C0000000800CFD46C00C000000130000000A0100003C0000000600000002000000000000E0FF
310
3F8F40000000000DE820C0000000A00CFD46C0000000E0FF3F8F40000000003A6619C000000040E77C47C00C00000013000000120100003C00000006000000020000000000000000408FC0000000805BA123C000000000BAC746C00000000000408FC0000000000DE820C0000000800CFD46C00C000000130000001A010000
310
3C00000006000000020000000000000000408FC0000000805BA123C000000000BAC746C0000000E0FF3F8F40000000805CA123C000000000BAC746C00C00000013000000220100003C0000000600000002000000000000E0FF3F8F40000000805CA123C000000000BAC746C0000000E0FF3F8F40000000000DE820C0000000
310
A00CFD46C00C000000130000002A0100003C00000006000000020000000000000000408FC0000000805BA123C000000000BAC746C00000000000408FC0000000803F7626C000000040CEC746C00C00000013000000320100003C0000000600000002000000000000E0FF3F8F40000000003F7626C000000080CEC746C00000
310
000000408FC0000000803F7626C000000040CEC746C00C000000130000003A0100003C0000000600000002000000000000E0FF3F8F40000000003F7626C000000080CEC746C0000000E0FF3F8F40000000805CA123C000000000BAC746C00C00000013000000420100003C00000006000000020000000000000000408FC000
310
0000008CD132C000000000D63347C00000000000408FC0000000803F7626C000000040CEC746C00C000000130000004A0100003C00000006000000020000000000000000408FC0000000008CD132C000000000D63347C0000000E0FF3F8F40000000408CD132C000000040D63347C00C00000013000000520100003C000000
310
0600000002000000000000E0FF3F8F40000000003F7626C000000080CEC746C0000000E0FF3F8F40000000408CD132C000000040D63347C00C000000130000005A0100003C00000006000000020000000000000000408FC0000000008CD132C000000000D63347C00000000000408FC0000000409C9E38C0000000E0954747
310
C00C00000013000000620100003C0000000600000002000000000000E0FF3F8F40000000409C9E38C000000000964747C00000000000408FC0000000409C9E38C0000000E0954747C00C000000130000006A0100003C0000000600000002000000000000E0FF3F8F40000000408CD132C000000040D63347C0000000E0FF3F
310
8F40000000409C9E38C000000000964747C00C00000013000000720100003C00000006000000020000000000000000408FC0000000C0FE7C3BC000000060EB1847C00000000000408FC0000000409C9E38C0000000E0954747C00C000000130000007A0100003C0000000600000002000000000000E0FF3F8F40000000C0FE
310
7C3BC000000060EB1847C00000000000408FC0000000C0FE7C3BC000000060EB1847C00C00000013000000820100003C0000000600000002000000000000E0FF3F8F40000000C0FE7C3BC000000060EB1847C0000000E0FF3F8F40000000409C9E38C000000000964747C00C000000130000008A0100003C00000006000000
310
020000000000000000408FC000000040223B3EC0000000C0019C46C00000000000408FC0000000C0FE7C3BC000000060EB1847C00C00000013000000920100003C0000000600000002000000000000E0FF3F8F4000000080223B3EC0000000E0019C46C00000000000408FC000000040223B3EC0000000C0019C46C00C0000
310
00130000009A0100003C0000000600000002000000000000E0FF3F8F40000000C0FE7C3BC000000060EB1847C0000000E0FF3F8F4000000080223B3EC0000000E0019C46C00C00000013000000A20100003C00000006000000020000000000000000408FC000000040223B3EC0000000C0019C46C00000000000408FC00000
310
0080A6DF4AC0000000C0ABF440C00C00000013000000AA0100003C0000000600000002000000000000E0FF3F8F4000000000A7DF4AC0000000C0ABF440C00000000000408FC000000080A6DF4AC0000000C0ABF440C00C00000013000000B20100003C0000000600000002000000000000E0FF3F8F4000000000A7DF4AC000
310
0000C0ABF440C0000000E0FF3F8F4000000080223B3EC0000000E0019C46C00C00000013000000BA0100003C00000006000000020000000000000000408FC000000000B8DE4BC0000000E0ED5E40C00000000000408FC000000080A6DF4AC0000000C0ABF440C00C00000013000000C20100003C0000000600000002000000
310
0000000000408FC000000000B8DE4BC0000000E0ED5E40C0000000E0FF3F8F4000000080B8DE4BC0000000E0ED5E40C00C00000013000000CA0100003C0000000600000002000000000000E0FF3F8F4000000080B8DE4BC0000000E0ED5E40C0000000E0FF3F8F4000000000A7DF4AC0000000C0ABF440C00C000000130000
310
00D20100003C00000006000000020000000000000000408FC000000000B8DE4BC0000000E0ED5E40C00000000000408FC0000000C0A9C44CC0000000E0803F3FC00C00000013000000DA0100003C0000000600000002000000000000E0FF3F8F4000000040AAC44CC0000000E0803F3FC00000000000408FC0000000C0A9C4
310
4CC0000000E0803F3FC00C00000013000000E20100003C0000000600000002000000000000E0FF3F8F4000000040AAC44CC0000000E0803F3FC0000000E0FF3F8F4000000080B8DE4BC0000000E0ED5E40C00C00000013000000EA0100003C00000006000000020000000000000000408FC000000000A6F64EC0000000C0B7
310
FC3AC00000000000408FC0000000C0A9C44CC0000000E0803F3FC00C00000013000000F20100003C0000000600000002000000000000E0FF3F8F4000000040A6F64EC0000000E0B7FC3AC00000000000408FC000000000A6F64EC0000000C0B7FC3AC00C00000013000000FA0100003C0000000600000002000000000000E0
310
FF3F8F4000000040A6F64EC0000000E0B7FC3AC0000000E0FF3F8F4000000040AAC44CC0000000E0803F3FC00C00000013000000020200003C00000006000000020000000000000000408FC0000000E074A850C000000020DCC136C00000000000408FC000000000A6F64EC0000000C0B7FC3AC00C000000130000000A0200
310
003C0000000600000002000000000000E0FF3F8F400000000075A850C000000040DCC136C00000000000408FC0000000E074A850C000000020DCC136C00C00000013000000120200003C0000000600000002000000000000E0FF3F8F400000000075A850C000000040DCC136C0000000E0FF3F8F4000000040A6F64EC00000
310
00E0B7FC3AC00C000000130000001A0200003C00000006000000020000000000000000408FC00000006003D251C0000000E0D21A33C00000000000408FC0000000E074A850C000000020DCC136C00C00000013000000220200003C00000006000000020000000000000000408FC00000006003D251C0000000E0D21A33C000
310
0000E0FF3F8F400000008003D251C000000000D31A33C00C000000130000002A0200003C0000000600000002000000000000E0FF3F8F400000008003D251C000000000D31A33C0000000E0FF3F8F400000000075A850C000000040DCC136C00C00000013000000320200003C00000006000000020000000000000000408FC0
310
0000006003D251C0000000E0D21A33C00000000000408FC00000000084E452C000000040F83330C00C000000130000003A0200003C0000000600000002000000000000E0FF3F8F400000004084E452C000000040F83330C00000000000408FC00000000084E452C000000040F83330C00C00000013000000420200003C0000
310
000600000002000000000000E0FF3F8F400000004084E452C000000040F83330C0000000E0FF3F8F400000008003D251C000000000D31A33C00C000000130000004A0200003C00000006000000020000000000000000408FC00000004020C254C000000000278128C00000000000408FC00000000084E452C000000040F833
310
30C00C00000013000000520200003C0000000600000002000000000000E0FF3F8F400000008020C254C000000080278128C00000000000408FC00000004020C254C000000000278128C00C000000130000005A0200003C0000000600000002000000000000E0FF3F8F400000008020C254C000000080278128C0000000E0FF
310
3F8F400000004084E452C000000040F83330C00C00000013000000620200003C00000006000000020000000000000000408FC0000000C0218F56C000000000EC9723C00000000000408FC00000004020C254C000000000278128C00C000000130000006A0200003C00000006000000020000000000000000408FC0000000C0
310
218F56C000000000EC9723C0000000E0FF3F8F4000000000228F56C000000000EC9723C00C00000013000000720200003C0000000600000002000000000000E0FF3F8F4000000000228F56C000000000EC9723C0000000E0FF3F8F400000008020C254C000000080278128C00C000000130000007A0200003C000000060000
310
00020000000000000000408FC0000000C0218F56C000000000EC9723C00000000000408FC000000000127A58C000000080CE0E21C00C00000013000000820200003C0000000600000002000000000000E0FF3F8F4000000040127A58C000000080CE0E21C00000000000408FC000000000127A58C000000080CE0E21C00C00
310
0000130000008A0200003C0000000600000002000000000000E0FF3F8F4000000040127A58C000000080CE0E21C0000000E0FF3F8F4000000000228F56C000000000EC9723C00C00000013000000920200003C00000006000000020000000000000000408FC000000060A9A75AC000000040430B21C00000000000408FC000
310
000000127A58C000000080CE0E21C00C000000130000009A0200003C0000000600000002000000000000E0FF3F8F4000000080A9A75AC000000080430B21C00000000000408FC000000060A9A75AC000000040430B21C00C00000013000000A20200003C0000000600000002000000000000E0FF3F8F4000000080A9A75AC0
310
00000080430B21C0000000E0FF3F8F4000000040127A58C000000080CE0E21C00C00000013000000AA0200003C00000006000000020000000000000000408FC000000060A9A75AC000000040430B21C00000000000408FC0000000A093025BC0000000C053D320C00C00000013000000B20200003C00000006000000020000
310
00000000E0FF3F8F40000000C093025BC00000000054D320C00000000000408FC0000000A093025BC0000000C053D320C00C00000013000000BA0200003C0000000600000002000000000000E0FF3F8F40000000C093025BC00000000054D320C0000000E0FF3F8F4000000080A9A75AC000000080430B21C00C0000001300
310
0000C20200003C00000006000000020000000000000000408FC0000000002F585BC0000000001B8C1FC00000000000408FC0000000A093025BC0000000C053D320C00C00000013000000CA0200003C00000006000000020000000000000000408FC0000000002F585BC0000000001B8C1FC0000000E0FF3F8F40000000202F
310
585BC0000000001C8C1FC00C00000013000000D20200003C0000000600000002000000000000E0FF3F8F40000000202F585BC0000000001C8C1FC0000000E0FF3F8F40000000C093025BC00000000054D320C00C00000013000000DA0200003C00000006000000020000000000000000408FC0000000A0E1A15BC000000000
310
7DF01BC00000000000408FC0000000002F585BC0000000001B8C1FC00C00000013000000E20200003C00000006000000020000000000000000408FC0000000A0E1A15BC0000000007DF01BC0000000E0FF3F8F40000000A0E1A15BC0000000007EF01BC00C00000013000000EA0200003C0000000600000002000000000000
310
E0FF3F8F40000000A0E1A15BC0000000007EF01BC0000000E0FF3F8F40000000202F585BC0000000001C8C1FC00C00000013000000F20200003C00000006000000020000000000000000408FC0000000A0E1A15BC0000000007DF01BC00000000000408FC000000080FBD95BC000000000F91A17C00C00000013000000FA02
310
00003C0000000600000002000000000000E0FF3F8F40000000A0FBD95BC000000080F91A17C00000000000408FC000000080FBD95BC000000000F91A17C00C00000013000000020300003C0000000600000002000000000000E0FF3F8F40000000A0FBD95BC000000080F91A17C0000000E0FF3F8F40000000A0E1A15BC000
310
0000007EF01BC00C000000130000000A0300003C00000006000000020000000000000000408FC000000080FBD95BC000000000F91A17C00000000000408FC0000000C039A05CC00000000000801E3F0C00000013000000120300003C0000000600000002000000000000E0FF3F8F40000000E039A05CC00000000000801D3F
310
0000000000408FC0000000C039A05CC00000000000801E3F0C000000130000001A0300003C0000000600000002000000000000E0FF3F8F40000000A0FBD95BC000000080F91A17C0000000E0FF3F8F40000000E039A05CC00000000000801D3F0C00000013000000220300003C00000006000000020000000000000000408F
310
C00000004004BD5EC0000000000000023F0000000000408FC0000000C039A05CC00000000000801E3F0C000000130000002A0300003C0000000600000002000000000000E0FF3F8F400000006004BD5EC0000000000000003F0000000000408FC00000004004BD5EC0000000000000023F0C00000013000000320300003C00
310
00000600000002000000000000E0FF3F8F400000006004BD5EC0000000000000003F000000E0FF3F8F40000000E039A05CC00000000000801D3F0C000000130000003A0300003C00000006000000020000000000000000408FC00000004004BD5EC0000000000000023F0000000000408FC000000040A3CC5EC0000000008C
310
1AE0BF0C00000013000000420300003C0000000600000002000000000000E0FF3F8F4000000080A3CC5EC0000000008C1AE0BF0000000000408FC000000040A3CC5EC0000000008C1AE0BF0C000000130000004A0300003C0000000600000002000000000000E0FF3F8F4000000080A3CC5EC0000000008C1AE0BF000000E0
310
FF3F8F400000006004BD5EC0000000000000003F0C00000013000000520300003C00000006000000020000000000000000408FC000000000A2E55EC000000000A854EFBF0000000000408FC000000040A3CC5EC0000000008C1AE0BF0C000000130000005A0300003C00000006000000020000000000000000408FC0000000
310
00A2E55EC000000000A854EFBF000000E0FF3F8F4000000040A2E55EC000000000A454EFBF0C00000013000000620300003C0000000600000002000000000000E0FF3F8F4000000040A2E55EC000000000A454EFBF000000E0FF3F8F4000000080A3CC5EC0000000008C1AE0BF0C000000130000006A0300003C0000000600
310
0000020000000000000000408FC000000000A2E55EC000000000A854EFBF0000000000408FC0000000804F065FC00000000054C1F4BF0C00000013000000720300003C00000006000000020000000000000000408FC0000000804F065FC00000000054C1F4BF000000E0FF3F8F40000000804F065FC00000000056C1F4BF0C
310
000000130000007A0300003C0000000600000002000000000000E0FF3F8F4000000040A2E55EC000000000A454EFBF000000E0FF3F8F40000000804F065FC00000000056C1F4BF0C00000013000000820300003C00000006000000020000000000000000408FC0000000804F065FC00000000054C1F4BF0000000000408FC0
310
000000804A2B5FC00000000086CBF6BF0C000000130000008A0300003C0000000600000002000000000000E0FF3F8F40000000A04A2B5FC00000000084CBF6BF0000000000408FC0000000804A2B5FC00000000086CBF6BF0C00000013000000920300003C0000000600000002000000000000E0FF3F8F40000000A04A2B5F
310
C00000000084CBF6BF000000E0FF3F8F40000000804F065FC00000000056C1F4BF0C000000130000009A0300003C00000006000000020000000000000000408FC0000000804A2B5FC00000000086CBF6BF0000000000408FC000000040C5505FC0000000003493F5BF0C00000013000000A20300003C000000060000000200
310
0000000000E0FF3F8F4000000040C5505FC0000000003693F5BF0000000000408FC000000040C5505FC0000000003493F5BF0C00000013000000AA0300003C0000000600000002000000000000E0FF3F8F4000000040C5505FC0000000003693F5BF000000E0FF3F8F40000000A04A2B5FC00000000084CBF6BF0C00000013
310
000000B20300003C00000006000000020000000000000000408FC000000080E1725FC0000000008638F1BF0000000000408FC000000040C5505FC0000000003493F5BF0C00000013000000BA0300003C00000006000000020000000000000000408FC000000080E1725FC0000000008638F1BF000000E0FF3F8F4000000080
310
E1725FC0000000008838F1BF0C00000013000000C20300003C0000000600000002000000000000E0FF3F8F4000000080E1725FC0000000008838F1BF000000E0FF3F8F4000000040C5505FC0000000003693F5BF0C00000013000000CA0300003C00000006000000020000000000000000408FC000000080E1725FC0000000
310
008638F1BF0000000000408FC0000000C01A8E5FC000000000005DE4BF0C00000013000000D20300003C00000006000000020000000000000000408FC0000000C01A8E5FC000000000005DE4BF000000E0FF3F8F40000000C01A8E5FC000000000045DE4BF0C00000013000000DA0300003C00000006000000020000000000
310
00E0FF3F8F40000000C01A8E5FC000000000045DE4BF000000E0FF3F8F4000000080E1725FC0000000008838F1BF0C00000013000000E20300003C00000006000000020000000000000000408FC0000000C01A8E5FC000000000005DE4BF0000000000408FC00000004082A15FC0000000000000E0BE0C00000013000000EA
310
0300003C00000006000000020000000000000000408FC00000004082A15FC0000000000000E0BE000000E0FF3F8F400000006082A15FC0000000000000D8BE0C00000013000000F20300003C0000000600000002000000000000E0FF3F8F400000006082A15FC0000000000000D8BE000000E0FF3F8F40000000C01A8E5FC0
310
00000000045DE4BF0C00000013000000FA0300003C00000006000000020000000000000000408FC00000004082A15FC0000000000000E0BE0000000000408FC000000000FCDF60C000000000008018BF0C00000013000000020400003C0000000600000002000000000000E0FF3F8F4000000020FCDF60C00000000000001A
310
BF0000000000408FC000000000FCDF60C000000000008018BF0C000000130000000A0400003C0000000600000002000000000000E0FF3F8F4000000020FCDF60C00000000000001ABF000000E0FF3F8F400000006082A15FC0000000000000D8BE0C00000013000000120400003C0000000600000002000000000000000040
310
8FC000000020FBDF60C000000000751126C00000000000408FC000000000FCDF60C000000000008018BF0C000000130000001A0400003C00000006000000020000000000000000408FC000000020FBDF60C000000000751126C0000000E0FF3F8F4000000040FBDF60C000000080751126C00C00000013000000220400003C
310
0000000600000002000000000000E0FF3F8F4000000020FCDF60C00000000000001ABF000000E0FF3F8F4000000040FBDF60C000000080751126C00C000000130000002A0400003C00000006000000020000000000000000408FC000000020FBDF60C000000000751126C00000000000408FC000000000BE295EC000000040
310
611126C00C00000013000000320400003C0000000600000002000000000000E0FF3F8F4000000000BE295EC0000000C0611126C00000000000408FC000000000BE295EC000000040611126C00C000000130000003A0400003C0000000600000002000000000000E0FF3F8F4000000040FBDF60C000000080751126C0000000
310
E0FF3F8F4000000000BE295EC0000000C0611126C00C00000013000000420400003C00000006000000020000000000000000408FC000000000BE295EC000000040611126C00000000000408FC000000080BC295EC00000002074DC33C00C000000130000004A0400003C0000000600000002000000000000E0FF3F8F400000
310
0080BC295EC00000004074DC33C00000000000408FC000000080BC295EC00000002074DC33C00C00000013000000520400003C0000000600000002000000000000E0FF3F8F4000000000BE295EC0000000C0611126C0000000E0FF3F8F4000000080BC295EC00000004074DC33C00C000000130000005A0400003C00000006
310
000000020000000000000000408FC000000000D0965CC0000000403F7532C00000000000408FC000000080BC295EC00000002074DC33C00C00000013000000620400003C0000000600000002000000000000E0FF3F8F4000000040D0965CC0000000803F7532C00000000000408FC000000000D0965CC0000000403F7532C0
310
0C000000130000006A0400003C0000000600000002000000000000E0FF3F8F4000000080BC295EC00000004074DC33C0000000E0FF3F8F4000000040D0965CC0000000803F7532C00C00000013000000720400003C00000006000000020000000000000000408FC000000000D0965CC0000000403F7532C00000000000408F
310
C0000000807E4F5BC0000000A0B7A431C00C000000130000007A0400003C0000000600000002000000000000E0FF3F8F40000000807E4F5BC000000020B8A431C00000000000408FC0000000807E4F5BC0000000A0B7A431C00C00000013000000820400003C0000000600000002000000000000E0FF3F8F4000000040D096
310
5CC0000000803F7532C0000000E0FF3F8F40000000807E4F5BC000000020B8A431C00C000000130000008A0400003C00000006000000020000000000000000408FC0000000A089245AC0000000A0823D31C00000000000408FC0000000807E4F5BC0000000A0B7A431C00C00000013000000920400003C0000000600000002
310
0000000000000000408FC0000000A089245AC0000000A0823D31C0000000E0FF3F8F40000000C089245AC0000000A0823D31C00C000000130000009A0400003C0000000600000002000000000000E0FF3F8F40000000807E4F5BC000000020B8A431C0000000E0FF3F8F40000000C089245AC0000000A0823D31C00C000000
310
13000000A20400003C00000006000000020000000000000000408FC0000000C03E1F59C000000080333731C00000000000408FC0000000A089245AC0000000A0823D31C00C00000013000000AA0400003C00000006000000020000000000000000408FC0000000C03E1F59C000000080333731C0000000E0FF3F8F40000000
310
003F1F59C000000080333731C00C00000013000000B20400003C0000000600000002000000000000E0FF3F8F40000000C089245AC0000000A0823D31C0000000E0FF3F8F40000000003F1F59C000000080333731C00C00000013000000BA0400003C00000006000000020000000000000000408FC000000040195057C00000
310
00806A1D32C00000000000408FC0000000C03E1F59C000000080333731C00C00000013000000C20400003C00000006000000020000000000000000408FC000000040195057C0000000806A1D32C0000000E0FF3F8F4000000080195057C0000000606A1D32C00C00000013000000CA0400003C000000060000000200000000
310
0000E0FF3F8F40000000003F1F59C000000080333731C0000000E0FF3F8F4000000080195057C0000000606A1D32C00C00000013000000D20400003C00000006000000020000000000000000408FC000000040195057C0000000806A1D32C00000000000408FC0000000A0979955C0000000403A5034C00C00000013000000
310
DA0400003C0000000600000002000000000000E0FF3F8F40000000C0979955C0000000203A5034C00000000000408FC0000000A0979955C0000000403A5034C00C00000013000000E20400003C0000000600000002000000000000E0FF3F8F4000000080195057C0000000606A1D32C0000000E0FF3F8F40000000C0979955
310
C0000000203A5034C00C00000013000000EA0400003C00000006000000020000000000000000408FC00000006030BC54C00000000083F835C00000000000408FC0000000A0979955C0000000403A5034C00C00000013000000F20400003C00000006000000020000000000000000408FC00000006030BC54C00000000083F8
310
35C0000000E0FF3F8F400000008030BC54C00000000083F835C00C00000013000000FA0400003C0000000600000002000000000000E0FF3F8F40000000C0979955C0000000203A5034C0000000E0FF3F8F400000008030BC54C00000000083F835C00C00000013000000020500003C00000006000000020000000000000000
310
408FC00000006038C953C000000060E73038C00000000000408FC00000006030BC54C00000000083F835C00C000000130000000A0500003C00000006000000020000000000000000408FC00000006038C953C000000060E73038C0000000E0FF3F8F40000000A038C953C000000080E73038C00C0000001300000012050000
310
3C0000000600000002000000000000E0FF3F8F400000008030BC54C00000000083F835C0000000E0FF3F8F40000000A038C953C000000080E73038C00C000000130000001A0500003C00000006000000020000000000000000408FC00000006038C953C000000060E73038C00000000000408FC0000000E074BA52C0000000
310
00BA223BC00C00000013000000220500003C0000000600000002000000000000E0FF3F8F400000000075BA52C000000020BA223BC00000000000408FC0000000E074BA52C000000000BA223BC00C000000130000002A0500003C0000000600000002000000000000E0FF3F8F400000000075BA52C000000020BA223BC00000
310
00E0FF3F8F40000000A038C953C000000080E73038C00C00000013000000320500003C00000006000000020000000000000000408FC0000000A0569451C00000004075E23EC00000000000408FC0000000E074BA52C000000000BA223BC00C000000130000003A0500003C00000006000000020000000000000000408FC000
310
0000A0569451C00000004075E23EC0000000E0FF3F8F40000000C0569451C00000006075E23EC00C00000013000000420500003C0000000600000002000000000000E0FF3F8F400000000075BA52C000000020BA223BC0000000E0FF3F8F40000000C0569451C00000006075E23EC00C000000130000004A0500003C000000
310
06000000020000000000000000408FC000000000026050C0000000A0B0B041C00000000000408FC0000000A0569451C00000004075E23EC00C00000013000000520500003C00000006000000020000000000000000408FC000000000026050C0000000A0B0B041C0000000E0FF3F8F4000000040026050C0000000A0B0B041
310
C00C000000130000005A0500003C0000000600000002000000000000E0FF3F8F40000000C0569451C00000006075E23EC0000000E0FF3F8F4000000040026050C0000000A0B0B041C00C00000013000000620500003C00000006000000020000000000000000408FC000000000026050C0000000A0B0B041C0000000000040
310
8FC000000000FB674EC00000004060F843C00C000000130000006A0500003C0000000600000002000000000000E0FF3F8F4000000060FB674EC00000004060F843C00000000000408FC000000000FB674EC00000004060F843C00C00000013000000720500003C0000000600000002000000000000E0FF3F8F400000004002
310
6050C0000000A0B0B041C0000000E0FF3F8F4000000060FB674EC00000004060F843C00C000000130000007A0500003C00000006000000020000000000000000408FC000000000FB674EC00000004060F843C00000000000408FC0000000C022454CC00000004052DF45C00C00000013000000820500003C00000006000000
310
02000000000000E0FF3F8F400000002023454CC00000004052DF45C00000000000408FC0000000C022454CC00000004052DF45C00C000000130000008A0500003C0000000600000002000000000000E0FF3F8F4000000060FB674EC00000004060F843C0000000E0FF3F8F400000002023454CC00000004052DF45C00C0000
310
0013000000920500003C00000006000000020000000000000000408FC0000000C0B65C4AC0000000E0F35247C00000000000408FC0000000C022454CC00000004052DF45C00C000000130000009A0500003C0000000600000002000000000000E0FF3F8F4000000040B75C4AC0000000E0F35247C00000000000408FC00000
310
00C0B65C4AC0000000E0F35247C00C00000013000000A20500003C0000000600000002000000000000E0FF3F8F400000002023454CC00000004052DF45C0000000E0FF3F8F4000000040B75C4AC0000000E0F35247C00C00000013000000AA0500003C00000006000000020000000000000000408FC0000000401B8E48C000
310
0000C07F7A48C00000000000408FC0000000C0B65C4AC0000000E0F35247C00C00000013000000B20500003C0000000600000002000000000000E0FF3F8F40000000A01B8E48C0000000C07F7A48C00000000000408FC0000000401B8E48C0000000C07F7A48C00C00000013000000BA0500003C0000000600000002000000
310
000000E0FF3F8F4000000040B75C4AC0000000E0F35247C0000000E0FF3F8F40000000A01B8E48C0000000C07F7A48C00C00000013000000C20500003C00000006000000020000000000000000408FC0000000C022BD46C000000080B76E49C00000000000408FC0000000401B8E48C0000000C07F7A48C00C000000130000
310
00CA0500003C0000000600000002000000000000E0FF3F8F400000004023BD46C000000080B76E49C00000000000408FC0000000C022BD46C000000080B76E49C00C00000013000000D20500003C0000000600000002000000000000E0FF3F8F40000000A01B8E48C0000000C07F7A48C0000000E0FF3F8F400000004023BD
310
46C000000080B76E49C00C00000013000000DA0500003C00000006000000020000000000000000408FC0000000C022BD46C000000080B76E49C00000000000408FC000000080FFD844C00000002074384AC00C00000013000000E20500003C0000000600000002000000000000E0FF3F8F40000000E0FFD844C00000002074
310
384AC00000000000408FC000000080FFD844C00000002074384AC00C00000013000000EA0500003C0000000600000002000000000000E0FF3F8F400000004023BD46C000000080B76E49C0000000E0FF3F8F40000000E0FFD844C00000002074384AC00C00000013000000F20500003C000000060000000200000000000000
310
00408FC0000000A01EE242C000000060F3D54AC00000000000408FC000000080FFD844C00000002074384AC00C00000013000000FA0500003C0000000600000002000000000000E0FF3F8F40000000E01EE242C000000060F3D54AC00000000000408FC0000000A01EE242C000000060F3D54AC00C00000013000000020600
310
003C0000000600000002000000000000E0FF3F8F40000000E01EE242C000000060F3D54AC0000000E0FF3F8F40000000E0FFD844C00000002074384AC00C000000130000000A0600003C00000006000000020000000000000000408FC000000060B9B040C0000000C0694E4BC00000000000408FC0000000A01EE242C00000
310
0060F3D54AC00C00000013000000120600003C00000006000000020000000000000000408FC000000060B9B040C0000000C0694E4BC0000000E0FF3F8F40000000C0B9B040C0000000C0694E4BC00C000000130000001A0600003C0000000600000002000000000000E0FF3F8F40000000C0B9B040C0000000C0694E4BC000
310
0000E0FF3F8F40000000E01EE242C000000060F3D54AC00C00000013000000220600003C00000006000000020000000000000000408FC00000000047A23CC0000000C02B994BC00000000000408FC000000060B9B040C0000000C0694E4BC00C000000130000002A0600003C00000006000000020000000000000000408FC0
310
0000000047A23CC0000000C02B994BC0000000E0FF3F8F400000008047A23CC0000000C02B994BC00C00000013000000320600003C0000000600000002000000000000E0FF3F8F400000008047A23CC0000000C02B994BC0000000E0FF3F8F40000000C0B9B040C0000000C0694E4BC00C000000130000003A0600003C0000
310
0006000000020000000000000000408FC00000000047A23CC0000000C02B994BC00000000000408FC000000040889837C00000008090B24BC00C00000013000000420600003C0000000600000002000000000000E0FF3F8F4000000080889837C0000000A090B24BC00000000000408FC000000040889837C00000008090B2
310
4BC00C000000130000004A0600003C0000000600000002000000000000E0FF3F8F4000000080889837C0000000A090B24BC0000000E0FF3F8F400000008047A23CC0000000C02B994BC00C00000013000000520600003C00000006000000020000000000000000408FC000000080CCA831C0000000809E954BC00000000000
310
408FC000000040889837C00000008090B24BC00C000000130000005A0600003C0000000600000002000000000000E0FF3F8F4000000000CDA831C0000000C09E954BC00000000000408FC000000080CCA831C0000000809E954BC00C00000013000000620600003C0000000600000002000000000000E0FF3F8F4000000000
310
CDA831C0000000C09E954BC0000000E0FF3F8F4000000080889837C0000000A090B24BC00C000000130000006A0600003C00000006000000020000000000000000408FC000000080CCA831C0000000809E954BC00000000000408FC000000040C6A831C00000006080FF4FC00C00000013000000720600003C000000060000
310
0002000000000000E0FF3F8F40000000C0C6A831C00000008080FF4FC00000000000408FC000000040C6A831C00000006080FF4FC00C000000130000007A0600003C0000000600000002000000000000E0FF3F8F4000000000CDA831C0000000C09E954BC0000000E0FF3F8F40000000C0C6A831C00000008080FF4FC00C00
310
000013000000820600003C00000006000000020000000000000000408FC0000000000000203F000000807AFF4FC00000000000408FC000000040C6A831C00000006080FF4FC00C000000130000008A0600003C0000000600000002000000000000E0FF3F8F400000000000001E3F000000A07AFF4FC0000000E0FF3F8F4000
310
0000C0C6A831C00000008080FF4FC00C00000013000000920600003C00000006000000020000000000000000408FC000000020FBDF60C000000000751126C00000000000408FC0000000C01A8E5FC000000000005DE4BF0C000000130000009A0600003C00000006000000020000000000000000408FC000000020FBDF60C0
310
00000000751126C00000000000408FC000000080E1725FC0000000008638F1BF0C00000013000000A20600003C00000006000000020000000000000000408FC000000020FBDF60C000000000751126C00000000000408FC000000040C5505FC0000000003493F5BF0C00000013000000AA0600003C00000006000000020000
310
000000000000408FC000000000BE295EC000000040611126C00000000000408FC0000000804A2B5FC00000000086CBF6BF0C00000013000000B20600003C00000006000000020000000000000000408FC0000000A0E1A15BC0000000007DF01BC00000000000408FC000000000BE295EC000000040611126C00C0000001300
310
0000BA0600003C00000006000000020000000000000000408FC000000080FBD95BC000000000F91A17C00000000000408FC000000000BE295EC000000040611126C00C00000013000000C20600003C00000006000000020000000000000000408FC000000000BE295EC000000040611126C00000000000408FC000000040A3
310
CC5EC0000000008C1AE0BF0C00000013000000CA0600003C00000006000000020000000000000000408FC000000000A2E55EC000000000A854EFBF0000000000408FC000000000BE295EC000000040611126C00C00000013000000D20600003C00000006000000020000000000000000408FC00000004004BD5EC000000000
310
0000023F0000000000408FC000000000BE295EC000000040611126C00C00000013000000DA0600003C00000006000000020000000000000000408FC0000000804F065FC00000000054C1F4BF0000000000408FC000000000BE295EC000000040611126C00C00000013000000E20600003C0000000600000002000000000000
310
0000408FC0000000002F585BC0000000001B8C1FC00000000000408FC000000080BC295EC00000002074DC33C00C00000013000000EA0600003C00000006000000020000000000000000408FC000000000D0965CC0000000403F7532C00000000000408FC0000000A093025BC0000000C053D320C00C00000013000000F206
310
00003C00000006000000020000000000000000408FC000000060A9A75AC000000040430B21C00000000000408FC0000000807E4F5BC0000000A0B7A431C00C00000013000000FA0600003C00000006000000020000000000000000408FC0000000A089245AC0000000A0823D31C00000000000408FC000000060A9A75AC000
310
000040430B21C00C00000013000000020700003C00000006000000020000000000000000408FC0000000C03E1F59C000000080333731C00000000000408FC000000000127A58C000000080CE0E21C00C000000130000000A0700003C00000006000000020000000000000000408FC000000040195057C0000000806A1D32C0
310
0000000000408FC0000000C0218F56C000000000EC9723C00C00000013000000120700003C00000006000000020000000000000000408FC0000000A0979955C0000000403A5034C00000000000408FC00000004020C254C000000000278128C00C000000130000001A0700003C00000006000000020000000000000000408F
310
C00000006030BC54C00000000083F835C00000000000408FC00000000084E452C000000040F83330C00C00000013000000220700003C00000006000000020000000000000000408FC00000006003D251C0000000E0D21A33C00000000000408FC0000000E074BA52C000000000BA223BC00C000000130000002A0700003C00
310
000006000000020000000000000000408FC00000006038C953C000000060E73038C00000000000408FC00000000084E452C000000040F83330C00C00000013000000320700003C00000006000000020000000000000000408FC0000000A0569451C00000004075E23EC00000000000408FC0000000E074A850C000000020DC
310
C136C00C000000130000003A0700003C00000006000000020000000000000000408FC000000000026050C0000000A0B0B041C00000000000408FC000000000A6F64EC0000000C0B7FC3AC00C00000013000000420700003C00000006000000020000000000000000408FC000000000FB674EC00000004060F843C000000000
310
00408FC0000000C0A9C44CC0000000E0803F3FC00C000000130000004A0700003C00000006000000020000000000000000408FC000000000B8DE4BC0000000E0ED5E40C00000000000408FC0000000C022454CC00000004052DF45C00C00000013000000520700003C00000006000000020000000000000000408FC0000000
310
C0B65C4AC0000000E0F35247C00000000000408FC000000080A6DF4AC0000000C0ABF440C00C000000130000005A0700003C00000006000000020000000000000000408FC0000000401B8E48C0000000C07F7A48C00000000000408FC000000080A6DF4AC0000000C0ABF440C00C00000013000000620700003C0000000600
310
0000020000000000000000408FC0000000C022BD46C000000080B76E49C00000000000408FC000000080A6DF4AC0000000C0ABF440C00C000000130000006A0700003C00000006000000020000000000000000408FC0000000805BA123C000000000BAC746C00000000000408FC000000080CCA831C0000000809E954BC00C
310
00000013000000720700003C00000006000000020000000000000000408FC000000080CCA831C0000000809E954BC00000000000408FC0000000803F7626C000000040CEC746C00C000000130000007A0700003C00000006000000020000000000000000408FC0000000008CD132C000000000D63347C00000000000408FC0
310
00000040889837C00000008090B24BC00C00000013000000820700003C00000006000000020000000000000000408FC00000000047A23CC0000000C02B994BC00000000000408FC0000000409C9E38C0000000E0954747C00C000000130000008A0700003C00000006000000020000000000000000408FC00000000047A23C
310
C0000000C02B994BC00000000000408FC0000000C0FE7C3BC000000060EB1847C00C00000013000000920700003C00000006000000020000000000000000408FC000000060B9B040C0000000C0694E4BC00000000000408FC000000040223B3EC0000000C0019C46C00C000000130000009A0700003C000000060000000200
310
00000000000000408FC000000040223B3EC0000000C0019C46C00000000000408FC0000000A01EE242C000000060F3D54AC00C00000013000000A20700003C00000006000000020000000000000000408FC000000040223B3EC0000000C0019C46C00000000000408FC000000080FFD844C00000002074384AC00C00000013
310
000000AA0700003C00000006000000020000000000000000408FC000000080CCA831C0000000809E954BC00000000000408FC0000000000DE820C0000000800CFD46C00C00000013000000B20700003C00000006000000020000000000000000408FC00000000040ADE5BF0000006018E54CC00000000000408FC000000040
310
C6A831C00000006080FF4FC00C00000013000000BA0700003C00000006000000020000000000000000408FC0000000004060F2BF000000406C914CC00000000000408FC000000040C6A831C00000006080FF4FC00C00000013000000C20700003C00000006000000020000000000000000408FC000000080CCA831C0000000
310
809E954BC00000000000408FC000000000204DF5BF000000408E2A4CC00C00000013000000CA0700003C00000006000000020000000000000000408FC000000000901BF3BF000000405DC24BC00000000000408FC000000080CCA831C0000000809E954BC00C00000013000000D20700003C00000006000000020000000000
310
000000408FC000000080CCA831C0000000809E954BC00000000000408FC0000000000000F83E000000600F314AC00C00000013000000DA0700003C00000006000000020000000000000000408FC000000080CCA831C0000000809E954BC00000000000408FC0000000003A6619C000000020E77C47C00C00000013000000E2
310
0700003C00000006000000020000000000000000408FC000000080CCA831C0000000809E954BC00000000000408FC000000000C25A15C0000000C0C7A947C00C00000013000000EA0700003C00000006000000020000000000000000408FC000000080CCA831C0000000809E954BC00000000000408FC000000000CA2011C0
310
000000A0F4B847C00C00000013000000F20700003C0000000600000002000000000000E0FF3F8F40000000C01A8E5FC000000000045DE4BF000000E0FF3F8F4000000040FBDF60C000000080751126C00C00000013000000FA0700003C0000000600000002000000000000E0FF3F8F4000000040FBDF60C000000080751126
310
C0000000E0FF3F8F4000000080E1725FC0000000008838F1BF0C00000013000000020800003C0000000600000002000000000000E0FF3F8F4000000040FBDF60C000000080751126C0000000E0FF3F8F4000000040C5505FC0000000003693F5BF0C000000130000000A0800003C0000000600000002000000000000E0FF3F
310
8F40000000A04A2B5FC00000000084CBF6BF000000E0FF3F8F4000000000BE295EC0000000C0611126C00C00000013000000120800003C0000000600000002000000000000E0FF3F8F4000000000BE295EC0000000C0611126C0000000E0FF3F8F40000000A0FBD95BC000000080F91A17C00C000000130000001A0800003C
310
0000000600000002000000000000E0FF3F8F4000000000BE295EC0000000C0611126C0000000E0FF3F8F40000000A0E1A15BC0000000007EF01BC00C00000013000000220800003C0000000600000002000000000000E0FF3F8F4000000000BE295EC0000000C0611126C0000000E0FF3F8F4000000040A2E55EC000000000
310
A454EFBF0C000000130000002A0800003C0000000600000002000000000000E0FF3F8F4000000000BE295EC0000000C0611126C0000000E0FF3F8F4000000080A3CC5EC0000000008C1AE0BF0C00000013000000320800003C0000000600000002000000000000E0FF3F8F4000000000BE295EC0000000C0611126C0000000
310
E0FF3F8F400000006004BD5EC0000000000000003F0C000000130000003A0800003C0000000600000002000000000000E0FF3F8F4000000000BE295EC0000000C0611126C0000000E0FF3F8F40000000804F065FC00000000056C1F4BF0C00000013000000420800003C0000000600000002000000000000E0FF3F8F400000
310
00202F585BC0000000001C8C1FC0000000E0FF3F8F4000000080BC295EC00000004074DC33C00C000000130000004A0800003C0000000600000002000000000000E0FF3F8F40000000C093025BC00000000054D320C0000000E0FF3F8F4000000040D0965CC0000000803F7532C00C00000013000000520800003C00000006
310
00000002000000000000E0FF3F8F4000000080A9A75AC000000080430B21C0000000E0FF3F8F40000000807E4F5BC000000020B8A431C00C000000130000005A0800003C0000000600000002000000000000E0FF3F8F4000000080A9A75AC000000080430B21C0000000E0FF3F8F40000000C089245AC0000000A0823D31C0
310
0C00000013000000620800003C0000000600000002000000000000E0FF3F8F4000000040127A58C000000080CE0E21C0000000E0FF3F8F40000000003F1F59C000000080333731C00C000000130000006A0800003C0000000600000002000000000000E0FF3F8F4000000000228F56C000000000EC9723C0000000E0FF3F8F
310
4000000080195057C0000000606A1D32C00C00000013000000720800003C0000000600000002000000000000E0FF3F8F400000008020C254C000000080278128C0000000E0FF3F8F40000000C0979955C0000000203A5034C00C000000130000007A0800003C0000000600000002000000000000E0FF3F8F400000004084E4
310
52C000000040F83330C0000000E0FF3F8F400000008030BC54C00000000083F835C00C00000013000000820800003C0000000600000002000000000000E0FF3F8F400000004084E452C000000040F83330C0000000E0FF3F8F40000000A038C953C000000080E73038C00C000000130000008A0800003C0000000600000002
310
000000000000E0FF3F8F400000008003D251C000000000D31A33C0000000E0FF3F8F400000000075BA52C000000020BA223BC00C00000013000000920800003C0000000600000002000000000000E0FF3F8F400000000075A850C000000040DCC136C0000000E0FF3F8F40000000C0569451C00000006075E23EC00C000000
310
130000009A0800003C0000000600000002000000000000E0FF3F8F4000000040A6F64EC0000000E0B7FC3AC0000000E0FF3F8F4000000040026050C0000000A0B0B041C00C00000013000000A20800003C0000000600000002000000000000E0FF3F8F4000000040AAC44CC0000000E0803F3FC0000000E0FF3F8F40000000
310
60FB674EC00000004060F843C00C00000013000000AA0800003C0000000600000002000000000000E0FF3F8F4000000080B8DE4BC0000000E0ED5E40C0000000E0FF3F8F400000002023454CC00000004052DF45C00C00000013000000B20800003C0000000600000002000000000000E0FF3F8F4000000000A7DF4AC00000
310
00C0ABF440C0000000E0FF3F8F4000000040B75C4AC0000000E0F35247C00C00000013000000BA0800003C0000000600000002000000000000E0FF3F8F4000000000A7DF4AC0000000C0ABF440C0000000E0FF3F8F40000000A01B8E48C0000000C07F7A48C00C00000013000000C20800003C000000060000000200000000
310
0000E0FF3F8F4000000000A7DF4AC0000000C0ABF440C0000000E0FF3F8F400000004023BD46C000000080B76E49C00C00000013000000CA0800003C0000000600000002000000000000E0FF3F8F40000000003F7626C000000080CEC746C0000000E0FF3F8F4000000000CDA831C0000000C09E954BC00C00000013000000
310
D20800003C0000000600000002000000000000E0FF3F8F40000000805CA123C000000000BAC746C0000000E0FF3F8F4000000000CDA831C0000000C09E954BC00C00000013000000DA0800003C0000000600000002000000000000E0FF3F8F40000000408CD132C000000040D63347C0000000E0FF3F8F4000000080889837
310
C0000000A090B24BC00C00000013000000E20800003C0000000600000002000000000000E0FF3F8F40000000C0FE7C3BC000000060EB1847C0000000E0FF3F8F400000008047A23CC0000000C02B994BC00C00000013000000EA0800003C0000000600000002000000000000E0FF3F8F40000000409C9E38C0000000009647
310
47C0000000E0FF3F8F400000008047A23CC0000000C02B994BC00C00000013000000F20800003C0000000600000002000000000000E0FF3F8F4000000080223B3EC0000000E0019C46C0000000E0FF3F8F40000000E01EE242C000000060F3D54AC00C00000013000000FA0800003C0000000600000002000000000000E0FF
310
3F8F4000000080223B3EC0000000E0019C46C0000000E0FF3F8F40000000C0B9B040C0000000C0694E4BC00C00000013000000020900003C0000000600000002000000000000E0FF3F8F4000000080223B3EC0000000E0019C46C0000000E0FF3F8F40000000E0FFD844C00000002074384AC00C000000130000000A090000
310
3C0000000600000002000000000000E0FF3F8F4000000000CDA831C0000000C09E954BC0000000E0FF3F8F40000000000DE820C0000000A00CFD46C00C00000013000000120900003C0000000600000002000000000000E0FF3F8F400000000070ADE5BF0000004018E54CC0000000E0FF3F8F40000000C0C6A831C0000000
310
8080FF4FC00C000000130000001A0900003C0000000600000002000000000000E0FF3F8F40000000C0C6A831C00000008080FF4FC0000000E0FF3F8F40000000005060F2BF000000606C914CC00C00000013000000220900003C0000000600000002000000000000E0FF3F8F4000000000CDA831C0000000C09E954BC00000
310
00E0FF3F8F4000000000901BF3BF000000805DC24BC00C000000130000002A0900003C0000000600000002000000000000E0FF3F8F4000000000CDA831C0000000C09E954BC0000000E0FF3F8F4000000000284DF5BF000000408E2A4CC00C00000013000000320900003C0000000600000002000000000000E0FF3F8F4000
310
000000CDA831C0000000C09E954BC0000000E0FF3F8F40000000000000F03E000000800F314AC00C000000130000003A0900003C0000000600000002000000000000E0FF3F8F4000000000CDA831C0000000C09E954BC0000000E0FF3F8F40000000003A6619C000000040E77C47C00C00000013000000420900003C000000
310
0600000002000000000000E0FF3F8F4000000000CDA831C0000000C09E954BC0000000E0FF3F8F4000000000C45A15C0000000E0C7A947C00C000000130000004A0900003C0000000600000002000000000000E0FF3F8F4000000000CDA831C0000000C09E954BC0000000E0FF3F8F4000000000CA2011C0000000E0F4B847
310
C0
100
AcDbSubDMesh
 71
     2
 72
     0
 91
        0
 92
      140
 10
-1000.0
 20
-134.9994049072265
 30
-11.03409576416015
 10
-1000.0
 20
-28.63389587402344
 30
-55.19664764404296
 10
-1000.0
 20
-33.38065719604492
 30
-54.61260223388672
 10
-1000.0
 20
-65.5001220703125
 30
-35.38039016723633
 10
-1000.0
 20
-70.31778717041015
 30
-30.88460159301758
 10
-1000.0
 20
-79.1440658569336
 30
-24.19103050231934
 10
-1000.0
 20
-82.9404525756836
 30
-21.97074890136719
 10
-1000.0
 20
-93.25154113769531
 30
-18.11490631103515
 10
-1000.0
 20
-100.4882049560547
 30
-17.21562957763672
 10
-1000.0
 20
-104.5708999633789
 30
-17.24027442932129
 10
-1000.0
 20
-90.23643493652343
 30
-9.796722412109375
 10
-1000.0
 20
-71.28145599365234
 30
-19.10478019714355
 10
-1000.0
 20
-18.81854248046875
 30
-46.40496826171875
 10
-1000.0
 20
-55.739990234375
 30
-32.74163436889649
 10
-1000.0
 20
-110.5293960571289
 30
-6.984851837158203
 10
-1000.0
 20
-109.3778686523437
 30
-7.886821746826171
 10
-1000.0
 20
-9.815151214599609
 30
-45.56036376953125
 10
-1000.0
 20
0.0000839233398438
 30
-58.18008422851562
 10
-1000.0
 20
-0.677398681640625
 30
-57.7898063659668
 10
-1000.0
 20
-1.194229125976562
 30
-55.51847076416016
 10
-1000.0
 20
-123.5880126953125
 30
-0.9790840148925781
 10
-1000.0
 20
-124.0986022949218
 30
-1.297199249267578
 10
-1000.0
 20
-125.7950134277344
 30
-1.076299667358398
 10
-1000.0
 20
-126.2203826904297
 30
-0.6363525390625
 10
-1000.0
 20
-126.5235748291015
 30
-0.0000076293945313
 10
999.9999389648436
 20
-134.999526977539
 30
-0.0000991821289063
 10
999.9999389648436
 20
-126.5235824584961
 30
-0.0000057220458984
 10
999.9999389648436
 20
-126.2203826904297
 30
-0.6363544464111329
 10
999.9999389648436
 20
-134.9994201660156
 30
-11.03409957885742
 10
999.9999389648436
 20
-125.7950134277344
 30
-1.076301574707031
 10
999.9999389648436
 20
-125.2620391845703
 30
-1.348440170288085
 10
999.9999389648436
 20
-124.6764297485351
 30
-1.424686431884765
 10
999.9999389648436
 20
-120.6522216796875
 30
-11.03394889831543
 10
999.9999389648436
 20
-111.4059829711914
 30
-5.776342391967773
 10
999.9999389648436
 20
-110.5293960571289
 30
-6.984855651855468
 10
999.9999389648436
 20
-123.5880279541015
 30
-0.9790821075439453
 10
999.9999389648436
 20
-123.1974792480468
 30
-0.5032405853271485
 10
999.9999389648436
 20
-122.9533920288086
 30
0.000030517578125
 10
999.9999389648436
 20
-124.0986022949218
 30
-1.29720115661621
 10
999.9999389648436
 20
-114.5035324096679
 30
0.0001125335693359
 10
999.9999389648436
 20
-109.3778762817382
 30
-7.886825561523437
 10
999.9999389648436
 20
-120.6521301269531
 30
-19.86114883422851
 10
999.9999389648436
 20
-108.0402679443359
 30
-8.412750244140625
 10
999.9999389648436
 20
-114.356460571289
 30
-18.45800018310547
 10
999.9999389648436
 20
-106.6197204589844
 30
-8.521999359130859
 10
999.9999389648436
 20
-109.2420959472656
 30
-17.64343452453613
 10
999.9999389648436
 20
-104.5709075927734
 30
-17.24027442932129
 10
999.9999389648436
 20
-97.90736389160157
 30
-8.528919219970703
 10
999.9999389648436
 20
-100.4882202148437
 30
-17.21562957763672
 10
999.9999389648436
 20
-90.23645019531249
 30
-9.796722412109375
 10
999.9999389648436
 20
-93.25155639648437
 30
-18.11490440368652
 10
999.9999389648436
 20
-83.03323364257812
 30
-12.25225448608398
 10
999.9999389648436
 20
-86.39988708496094
 30
-20.31338691711426
 10
999.9999389648436
 20
-75.57057189941406
 30
-16.20300674438476
 10
999.9999389648436
 20
-82.94046020507812
 30
-21.97074890136719
 10
999.9999389648436
 20
-71.28146362304687
 30
-19.10478210449219
 10
999.9999389648436
 20
-74.91339111328125
 30
-27.13565254211426
 10
999.9999389648436
 20
-79.14408111572265
 30
-24.19103240966797
 10
999.9999389648436
 20
-66.63214111328125
 30
-22.75726699829101
 10
999.9999389648436
 20
-70.31779479980468
 30
-30.88460350036621
 10
999.9999389648436
 20
-61.92694854736328
 30
-26.98718070983887
 10
999.9999389648436
 20
-65.50013732910156
 30
-35.38039016723633
 10
999.9999389648436
 20
-57.53644561767578
 30
-31.24806022644043
 10
999.9999389648436
 20
-60.81235885620117
 30
-39.94043731689453
 10
999.9999389648436
 20
-55.74000549316406
 30
-32.74163436889649
 10
999.9999389648436
 20
-56.54013442993164
 30
-43.74469757080078
 10
999.9999389648436
 20
-53.74728393554687
 30
-33.91149139404297
 10
999.9999389648436
 20
-52.7243423461914
 30
-46.64806747436523
 10
999.9999389648436
 20
-49.1102180480957
 30
-48.95702362060546
 10
999.9999389648436
 20
-45.4776382446289
 30
-50.86497497558593
 10
999.9999389648436
 20
-11.23094940185547
 30
-45.56098937988281
 10
999.9999389648436
 20
-9.81515884399414
 30
-45.56036376953125
 10
999.9999389648436
 20
-17.65937805175781
 30
-55.16890716552734
 10
999.9999389648436
 20
-18.81854629516601
 30
-46.40497589111328
 10
999.9999389648436
 20
-23.59583282470703
 30
-55.39503860473633
 10
999.9999389648436
 20
-27.48826217651367
 30
-46.19468307495117
 10
999.9999389648436
 20
-24.61957168579102
 30
-46.55926513671874
 10
999.9999389648436
 20
-28.63390350341797
 30
-55.19664764404296
 10
999.9999389648436
 20
-30.23099517822266
 30
-45.21880722045898
 10
999.9999389648436
 20
-33.38066864013672
 30
-54.61260223388672
 10
999.9999389648436
 20
-37.76656723022461
 30
-53.67148971557617
 10
999.9999389648436
 20
-41.69530868530273
 30
-52.44104385375976
 10
999.9999389648436
 20
-8.453224182128906
 30
-45.97694778442383
 10
999.9999389648436
 20
-0.6774215698242188
 30
-57.78980255126953
 10
999.9999389648436
 20
0.0000686645507813
 30
-58.18008804321289
 10
999.9999389648436
 20
0.0001144409179688
 30
-63.99592971801758
 10
999.9999389648436
 20
-17.65928268432617
 30
-63.99610900878906
 10
999.9999389648436
 20
-1.148513793945312
 30
-57.1361198425293
 10
999.9999389648436
 20
-1.194229125976562
 30
-55.51847839355469
 10
999.9999389648436
 20
-1.331336975097656
 30
-56.33246612548828
 10
999.9999389648436
 20
0.0000152587890625
 30
-52.38328552246094
 10
999.9999389648436
 20
-6.349830627441406
 30
-46.9758071899414
 10
999.9999389648436
 20
-5.338638305664062
 30
-47.32641220092773
 10
999.9999389648436
 20
-4.282020568847656
 30
-47.44497299194335
 10
999.9999389648436
 20
-0.0000534057617188
 30
-47.4449234008789
 10
-1000.0
 20
-17.65937042236328
 30
-55.16889953613281
 10
-1000.0
 20
-60.81234741210938
 30
-39.94043731689453
 10
-1000.0
 20
-74.91338348388672
 30
-27.13565063476563
 10
-1000.0
 20
-114.3564453125
 30
-18.4579963684082
 10
-1000.0
 20
0.0001220703125
 30
-63.99592590332031
 10
-1000.0
 20
-111.4059753417969
 30
-5.77634048461914
 10
-1000.0
 20
-106.6197128295898
 30
-8.521997451782226
 10
-1000.0
 20
-97.90734863281251
 30
-8.528919219970703
 10
-1000.0
 20
-66.63213348388672
 30
-22.75726509094238
 10
-1000.0
 20
-61.92694091796875
 30
-26.98717880249024
 10
-1000.0
 20
-4.282020568847656
 30
-47.44496536254882
 10
-1000.0
 20
-30.23099136352539
 30
-45.21880340576172
 10
-1000.0
 20
-27.48826217651367
 30
-46.19468307495117
 10
-1000.0
 20
0.0000228881835938
 30
-52.38328170776367
 10
-1000.0
 20
-122.953384399414
 30
0.0000343322753906
 10
-1000.0
 20
-134.99951171875
 30
-0.0000934600830078
 10
-1000.0
 20
-120.6522216796875
 30
-11.03394508361816
 10
-1000.0
 20
-37.76655960083008
 30
-53.67148971557617
 10
-1000.0
 20
-45.47762298583984
 30
-50.86497497558593
 10
-1000.0
 20
-49.1102066040039
 30
-48.95702362060546
 10
-1000.0
 20
-86.3998794555664
 30
-20.31338882446289
 10
-1000.0
 20
-109.2420959472656
 30
-17.6434268951416
 10
-1000.0
 20
-83.03321838378906
 30
-12.25225067138672
 10
-1000.0
 20
-24.61957168579102
 30
-46.55926132202148
 10
-1000.0
 20
-6.349830627441406
 30
-46.97580337524414
 10
-1000.0
 20
-108.0402603149414
 30
-8.412748336791992
 10
-1000.0
 20
-1.14849853515625
 30
-57.13611602783203
 10
-1000.0
 20
-123.1974639892578
 30
-0.5032405853271485
 10
-1000.0
 20
-120.6521301269531
 30
-19.86114692687988
 10
-1000.0
 20
-23.59582901000977
 30
-55.39503479003906
 10
-1000.0
 20
-41.69529724121093
 30
-52.44104385375976
 10
-1000.0
 20
-52.72432708740234
 30
-46.64806747436523
 10
-1000.0
 20
-56.54012298583984
 30
-43.74469757080078
 10
-1000.0
 20
-17.65927505493164
 30
-63.99610519409179
 10
-1000.0
 20
-114.5035247802734
 30
0.0001163482666016
 10
-1000.0
 20
-75.570556640625
 30
-16.20300674438476
 10
-1000.0
 20
-57.53643035888671
 30
-31.24806022644043
 10
-1000.0
 20
-11.23095321655273
 30
-45.56098175048828
 10
-1000.0
 20
-8.453224182128906
 30
-45.97694396972656
 10
-1000.0
 20
-0.000030517578125
 30
-47.4449234008789
 10
-1000.0
 20
-53.74726867675781
 30
-33.91149139404297
 10
-1000.0
 20
-5.338630676269531
 30
-47.32640838623047
 10
-1000.0
 20
-1.331329345703125
 30
-56.33246612548828
 10
-1000.0
 20
-124.6764221191406
 30
-1.424688339233398
 10
-1000.0
 20
-125.2620391845703
 30
-1.348438262939453
 93
      756
 90
        4
 90
       99
 90
       17
 90
       84
 90
       85
 90
        4
 90
       17
 90
       18
 90
       83
 90
       84
 90
        4
 90
       18
 90
      121
 90
       87
 90
       83
 90
        4
 90
      121
 90
      137
 90
       89
 90
       87
 90
        4
 90
      137
 90
       19
 90
       88
 90
       89
 90
        4
 90
       19
 90
      108
 90
       90
 90
       88
 90
        4
 90
      108
 90
      134
 90
       94
 90
       90
 90
        4
 90
      134
 90
      105
 90
       93
 90
       94
 90
        4
 90
      105
 90
      136
 90
       92
 90
       93
 90
        4
 90
      136
 90
      119
 90
       91
 90
       92
 90
        4
 90
      119
 90
      133
 90
       82
 90
       91
 90
        4
 90
      133
 90
       16
 90
       71
 90
       82
 90
        4
 90
       16
 90
      132
 90
       70
 90
       71
 90
        4
 90
      132
 90
       12
 90
       73
 90
       70
 90
        4
 90
       12
 90
      118
 90
       76
 90
       73
 90
        4
 90
      118
 90
      107
 90
       75
 90
       76
 90
        4
 90
      107
 90
      106
 90
       78
 90
       75
 90
        4
 90
      106
 90
      135
 90
       66
 90
       78
 90
        4
 90
      135
 90
       13
 90
       64
 90
       66
 90
        4
 90
       13
 90
      131
 90
       62
 90
       64
 90
        4
 90
      131
 90
      104
 90
       60
 90
       62
 90
        4
 90
      104
 90
      103
 90
       58
 90
       60
 90
        4
 90
      103
 90
       11
 90
       55
 90
       58
 90
        4
 90
       11
 90
      130
 90
       53
 90
       55
 90
        4
 90
      130
 90
      117
 90
       51
 90
       53
 90
        4
 90
      117
 90
       10
 90
       49
 90
       51
 90
        4
 90
       10
 90
      102
 90
       47
 90
       49
 90
        4
 90
      102
 90
      101
 90
       44
 90
       47
 90
        4
 90
      101
 90
      120
 90
       42
 90
       44
 90
        4
 90
      120
 90
       15
 90
       40
 90
       42
 90
        4
 90
       15
 90
       14
 90
       34
 90
       40
 90
        4
 90
       14
 90
      100
 90
       33
 90
       34
 90
        4
 90
      100
 90
      129
 90
       39
 90
       33
 90
        4
 90
      129
 90
      109
 90
       37
 90
       39
 90
        4
 90
      109
 90
      122
 90
       36
 90
       37
 90
        4
 90
      122
 90
       20
 90
       35
 90
       36
 90
        4
 90
       20
 90
       21
 90
       38
 90
       35
 90
        4
 90
       21
 90
      138
 90
       31
 90
       38
 90
        4
 90
      138
 90
      139
 90
       30
 90
       31
 90
        4
 90
      139
 90
       22
 90
       29
 90
       30
 90
        4
 90
       22
 90
       23
 90
       27
 90
       29
 90
        4
 90
       23
 90
       24
 90
       26
 90
       27
 90
        4
 90
       24
 90
      110
 90
       25
 90
       26
 90
        4
 90
      110
 90
        0
 90
       28
 90
       25
 90
        4
 90
        0
 90
      111
 90
       32
 90
       28
 90
        4
 90
      111
 90
      123
 90
       41
 90
       32
 90
        4
 90
      123
 90
       98
 90
       43
 90
       41
 90
        4
 90
       98
 90
      116
 90
       45
 90
       43
 90
        4
 90
      116
 90
        9
 90
       46
 90
       45
 90
        4
 90
        9
 90
        8
 90
       48
 90
       46
 90
        4
 90
        8
 90
        7
 90
       50
 90
       48
 90
        4
 90
        7
 90
      115
 90
       52
 90
       50
 90
        4
 90
      115
 90
        6
 90
       54
 90
       52
 90
        4
 90
        6
 90
        5
 90
       57
 90
       54
 90
        4
 90
        5
 90
       97
 90
       56
 90
       57
 90
        4
 90
       97
 90
        4
 90
       59
 90
       56
 90
        4
 90
        4
 90
        3
 90
       61
 90
       59
 90
        4
 90
        3
 90
       96
 90
       63
 90
       61
 90
        4
 90
       96
 90
      127
 90
       65
 90
       63
 90
        4
 90
      127
 90
      126
 90
       67
 90
       65
 90
        4
 90
      126
 90
      114
 90
       68
 90
       67
 90
        4
 90
      114
 90
      113
 90
       69
 90
       68
 90
        4
 90
      113
 90
      125
 90
       81
 90
       69
 90
        4
 90
      125
 90
      112
 90
       80
 90
       81
 90
        4
 90
      112
 90
        2
 90
       79
 90
       80
 90
        4
 90
        2
 90
        1
 90
       77
 90
       79
 90
        4
 90
        1
 90
      124
 90
       74
 90
       77
 90
        4
 90
      124
 90
       95
 90
       72
 90
       74
 90
        4
 90
       95
 90
      128
 90
       86
 90
       72
 90
        4
 90
      128
 90
       99
 90
       85
 90
       86
 90
        4
 90
      110
 90
       24
 90
       23
 90
        0
 90
        3
 90
       23
 90
       22
 90
        0
 90
        3
 90
       22
 90
      139
 90
        0
 90
        4
 90
      139
 90
      138
 90
      111
 90
        0
 90
        3
 90
      100
 90
       14
 90
      111
 90
        3
 90
       20
 90
      122
 90
      111
 90
        3
 90
      122
 90
      109
 90
      111
 90
        3
 90
       21
 90
       20
 90
      111
 90
        4
 90
      109
 90
      129
 90
      100
 90
      111
 90
        3
 90
      138
 90
       21
 90
      111
 90
        4
 90
       14
 90
       15
 90
      123
 90
      111
 90
        4
 90
       15
 90
      120
 90
       98
 90
      123
 90
        4
 90
      120
 90
      101
 90
      116
 90
       98
 90
        3
 90
      101
 90
        9
 90
      116
 90
        4
 90
      101
 90
      102
 90
        8
 90
        9
 90
        4
 90
      102
 90
       10
 90
        7
 90
        8
 90
        4
 90
       10
 90
      117
 90
      115
 90
        7
 90
        4
 90
      117
 90
      130
 90
        6
 90
      115
 90
        4
 90
      130
 90
       11
 90
       97
 90
        5
 90
        3
 90
      130
 90
        5
 90
        6
 90
        4
 90
       11
 90
      103
 90
        4
 90
       97
 90
        4
 90
      103
 90
      104
 90
        3
 90
        4
 90
        4
 90
      104
 90
      131
 90
       96
 90
        3
 90
        4
 90
      131
 90
       13
 90
      127
 90
       96
 90
        4
 90
       13
 90
      135
 90
      126
 90
      127
 90
        3
 90
      135
 90
      114
 90
      126
 90
        3
 90
      135
 90
      113
 90
      114
 90
        3
 90
      132
 90
       16
 90
       95
 90
        4
 90
       12
 90
      132
 90
       95
 90
      124
 90
        3
 90
      107
 90
      118
 90
        1
 90
        4
 90
      118
 90
       12
 90
      124
 90
        1
 90
        3
 90
      106
 90
        2
 90
      112
 90
        4
 90
      106
 90
      107
 90
        1
 90
        2
 90
        3
 90
      106
 90
      112
 90
      125
 90
        4
 90
      135
 90
      106
 90
      125
 90
      113
 90
        3
 90
       16
 90
      133
 90
       95
 90
        4
 90
       18
 90
       17
 90
       99
 90
      128
 90
        3
 90
      121
 90
       18
 90
      128
 90
        3
 90
       19
 90
      137
 90
       95
 90
        4
 90
      137
 90
      121
 90
      128
 90
       95
 90
        3
 90
      108
 90
       19
 90
       95
 90
        3
 90
      133
 90
      119
 90
       95
 90
        3
 90
      119
 90
      136
 90
       95
 90
        3
 90
      136
 90
      105
 90
       95
 90
        4
 90
      105
 90
      134
 90
      108
 90
       95
 90
        4
 90
       25
 90
       28
 90
       27
 90
       26
 90
        3
 90
       27
 90
       28
 90
       29
 90
        3
 90
       29
 90
       28
 90
       30
 90
        4
 90
       30
 90
       28
 90
       32
 90
       31
 90
        3
 90
       33
 90
       32
 90
       34
 90
        3
 90
       35
 90
       32
 90
       36
 90
        3
 90
       36
 90
       32
 90
       37
 90
        3
 90
       38
 90
       32
 90
       35
 90
        4
 90
       37
 90
       32
 90
       33
 90
       39
 90
        3
 90
       31
 90
       32
 90
       38
 90
        4
 90
       34
 90
       32
 90
       41
 90
       40
 90
        4
 90
       40
 90
       41
 90
       43
 90
       42
 90
        4
 90
       42
 90
       43
 90
       45
 90
       44
 90
        3
 90
       44
 90
       45
 90
       46
 90
        4
 90
       44
 90
       46
 90
       48
 90
       47
 90
        4
 90
       47
 90
       48
 90
       50
 90
       49
 90
        4
 90
       49
 90
       50
 90
       52
 90
       51
 90
        4
 90
       51
 90
       52
 90
       54
 90
       53
 90
        4
 90
       53
 90
       57
 90
       56
 90
       55
 90
        3
 90
       53
 90
       54
 90
       57
 90
        4
 90
       55
 90
       56
 90
       59
 90
       58
 90
        4
 90
       58
 90
       59
 90
       61
 90
       60
 90
        4
 90
       60
 90
       61
 90
       63
 90
       62
 90
        4
 90
       62
 90
       63
 90
       65
 90
       64
 90
        4
 90
       64
 90
       65
 90
       67
 90
       66
 90
        3
 90
       66
 90
       67
 90
       68
 90
        3
 90
       66
 90
       68
 90
       69
 90
        3
 90
       70
 90
       72
 90
       71
 90
        4
 90
       73
 90
       74
 90
       72
 90
       70
 90
        3
 90
       75
 90
       77
 90
       76
 90
        4
 90
       76
 90
       77
 90
       74
 90
       73
 90
        3
 90
       78
 90
       80
 90
       79
 90
        4
 90
       78
 90
       79
 90
       77
 90
       75
 90
        3
 90
       78
 90
       81
 90
       80
 90
        4
 90
       66
 90
       69
 90
       81
 90
       78
 90
        3
 90
       71
 90
       72
 90
       82
 90
        4
 90
       83
 90
       86
 90
       85
 90
       84
 90
        3
 90
       87
 90
       86
 90
       83
 90
        3
 90
       88
 90
       72
 90
       89
 90
        4
 90
       89
 90
       72
 90
       86
 90
       87
 90
        3
 90
       90
 90
       72
 90
       88
 90
        3
 90
       82
 90
       72
 90
       91
 90
        3
 90
       91
 90
       72
 90
       92
 90
        3
 90
       92
 90
       72
 90
       93
 90
        4
 90
       93
 90
       72
 90
       90
 90
       94
 94
      298
 90
       17
 90
       99
 90
       17
 90
       84
 90
       84
 90
       85
 90
       85
 90
       99
 90
       17
 90
       18
 90
       18
 90
       83
 90
       83
 90
       84
 90
       18
 90
      121
 90
       87
 90
      121
 90
       83
 90
       87
 90
      121
 90
      137
 90
       89
 90
      137
 90
       87
 90
       89
 90
       19
 90
      137
 90
       19
 90
       88
 90
       88
 90
       89
 90
       19
 90
      108
 90
       90
 90
      108
 90
       88
 90
       90
 90
      108
 90
      134
 90
       94
 90
      134
 90
       90
 90
       94
 90
      105
 90
      134
 90
       93
 90
      105
 90
       93
 90
       94
 90
      105
 90
      136
 90
       92
 90
      136
 90
       92
 90
       93
 90
      119
 90
      136
 90
       91
 90
      119
 90
       91
 90
       92
 90
      119
 90
      133
 90
       82
 90
      133
 90
       82
 90
       91
 90
       16
 90
      133
 90
       16
 90
       71
 90
       71
 90
       82
 90
       16
 90
      132
 90
       70
 90
      132
 90
       70
 90
       71
 90
       12
 90
      132
 90
       12
 90
       73
 90
       70
 90
       73
 90
       12
 90
      118
 90
       76
 90
      118
 90
       73
 90
       76
 90
      107
 90
      118
 90
       75
 90
      107
 90
       75
 90
       76
 90
      106
 90
      107
 90
       78
 90
      106
 90
       75
 90
       78
 90
      106
 90
      135
 90
       66
 90
      135
 90
       66
 90
       78
 90
       13
 90
      135
 90
       13
 90
       64
 90
       64
 90
       66
 90
       13
 90
      131
 90
       62
 90
      131
 90
       62
 90
       64
 90
      104
 90
      131
 90
       60
 90
      104
 90
       60
 90
       62
 90
      103
 90
      104
 90
       58
 90
      103
 90
       58
 90
       60
 90
       11
 90
      103
 90
       11
 90
       55
 90
       55
 90
       58
 90
       11
 90
      130
 90
       53
 90
      130
 90
       53
 90
       55
 90
      117
 90
      130
 90
       51
 90
      117
 90
       51
 90
       53
 90
       10
 90
      117
 90
       10
 90
       49
 90
       49
 90
       51
 90
       10
 90
      102
 90
       47
 90
      102
 90
       47
 90
       49
 90
      101
 90
      102
 90
       44
 90
      101
 90
       44
 90
       47
 90
      101
 90
      120
 90
       42
 90
      120
 90
       42
 90
       44
 90
       15
 90
      120
 90
       15
 90
       40
 90
       40
 90
       42
 90
       14
 90
       15
 90
       14
 90
       34
 90
       34
 90
       40
 90
       14
 90
      100
 90
       33
 90
      100
 90
       33
 90
       34
 90
      100
 90
      129
 90
       39
 90
      129
 90
       33
 90
       39
 90
      109
 90
      129
 90
       37
 90
      109
 90
       37
 90
       39
 90
      109
 90
      122
 90
       36
 90
      122
 90
       36
 90
       37
 90
       20
 90
      122
 90
       20
 90
       35
 90
       35
 90
       36
 90
       20
 90
       21
 90
       21
 90
       38
 90
       35
 90
       38
 90
       21
 90
      138
 90
       31
 90
      138
 90
       31
 90
       38
 90
      138
 90
      139
 90
       30
 90
      139
 90
       30
 90
       31
 90
       22
 90
      139
 90
       22
 90
       29
 90
       29
 90
       30
 90
       22
 90
       23
 90
       23
 90
       27
 90
       27
 90
       29
 90
       23
 90
       24
 90
       24
 90
       26
 90
       26
 90
       27
 90
       24
 90
      110
 90
       25
 90
      110
 90
       25
 90
       26
 90
        0
 90
      110
 90
        0
 90
       28
 90
       25
 90
       28
 90
        0
 90
      111
 90
       32
 90
      111
 90
       28
 90
       32
 90
      111
 90
      123
 90
       41
 90
      123
 90
       32
 90
       41
 90
       98
 90
      123
 90
       43
 90
       98
 90
       41
 90
       43
 90
       98
 90
      116
 90
       45
 90
      116
 90
       43
 90
       45
 90
        9
 90
      116
 90
        9
 90
       46
 90
       45
 90
       46
 90
        8
 90
        9
 90
        8
 90
       48
 90
       46
 90
       48
 90
        7
 90
        8
 90
        7
 90
       50
 90
       48
 90
       50
 90
        7
 90
      115
 90
       52
 90
      115
 90
       50
 90
       52
 90
        6
 90
      115
 90
        6
 90
       54
 90
       52
 90
       54
 90
        5
 90
        6
 90
        5
 90
       57
 90
       54
 90
       57
 90
        5
 90
       97
 90
       56
 90
       97
 90
       56
 90
       57
 90
        4
 90
       97
 90
        4
 90
       59
 90
       56
 90
       59
 90
        3
 90
        4
 90
        3
 90
       61
 90
       59
 90
       61
 90
        3
 90
       96
 90
       63
 90
       96
 90
       61
 90
       63
 90
       96
 90
      127
 90
       65
 90
      127
 90
       63
 90
       65
 90
      126
 90
      127
 90
       67
 90
      126
 90
       65
 90
       67
 90
      114
 90
      126
 90
       68
 90
      114
 90
       67
 90
       68
 90
      113
 90
      114
 90
       69
 90
      113
 90
       68
 90
       69
 90
      113
 90
      125
 90
       81
 90
      125
 90
       69
 90
       81
 90
      112
 90
      125
 90
       80
 90
      112
 90
       80
 90
       81
 90
        2
 90
      112
 90
        2
 90
       79
 90
       79
 90
       80
 90
        1
 90
        2
 90
        1
 90
       77
 90
       77
 90
       79
 90
        1
 90
      124
 90
       74
 90
      124
 90
       74
 90
       77
 90
       95
 90
      124
 90
       72
 90
       95
 90
       72
 90
       74
 90
       95
 90
      128
 90
       86
 90
      128
 90
       72
 90
       86
 90
       99
 90
      128
 90
       85
 90
       86
 90
        0
 90
       23
 90
        0
 90
       22
 90
        0
 90
      139
 90
      111
 90
      138
 90
       14
 90
      111
 90
      100
 90
      111
 90
      111
 90
      122
 90
       20
 90
      111
 90
      109
 90
      111
 90
       21
 90
      111
 90
       15
 90
      123
 90
       98
 90
      120
 90
      101
 90
      116
 90
        9
 90
      101
 90
        8
 90
      102
 90
        7
 90
       10
 90
      115
 90
      117
 90
        6
 90
      130
 90
       11
 90
       97
 90
        5
 90
      130
 90
        4
 90
      103
 90
        3
 90
      104
 90
       96
 90
      131
 90
       13
 90
      127
 90
      126
 90
      135
 90
      114
 90
      135
 90
      113
 90
      135
 90
       16
 90
       95
 90
       95
 90
      132
 90
       12
 90
      124
 90
        1
 90
      118
 90
        1
 90
      107
 90
        2
 90
      106
 90
      106
 90
      112
 90
      106
 90
      125
 90
       95
 90
      133
 90
       18
 90
      128
 90
      121
 90
      128
 90
       95
 90
      137
 90
       19
 90
       95
 90
       95
 90
      108
 90
       95
 90
      119
 90
       95
 90
      136
 90
       95
 90
      105
 90
       27
 90
       28
 90
       28
 90
       29
 90
       28
 90
       30
 90
       31
 90
       32
 90
       32
 90
       33
 90
       32
 90
       34
 90
       32
 90
       35
 90
       32
 90
       36
 90
       32
 90
       37
 90
       32
 90
       38
 90
       40
 90
       41
 90
       42
 90
       43
 90
       44
 90
       45
 90
       44
 90
       46
 90
       47
 90
       48
 90
       49
 90
       50
 90
       51
 90
       52
 90
       53
 90
       54
 90
       53
 90
       57
 90
       55
 90
       56
 90
       58
 90
       59
 90
       60
 90
       61
 90
       62
 90
       63
 90
       64
 90
       65
 90
       66
 90
       67
 90
       66
 90
       68
 90
       66
 90
       69
 90
       70
 90
       72
 90
       71
 90
       72
 90
       73
 90
       74
 90
       75
 90
       77
 90
       76
 90
       77
 90
       78
 90
       80
 90
       78
 90
       79
 90
       78
 90
       81
 90
       72
 90
       82
 90
       83
 90
       86
 90
       86
 90
       87
 90
       72
 90
       88
 90
       72
 90
       89
 90
       72
 90
       90
 90
       72
 90
       91
 90
       72
 90
       92
 90
       72
 90
       93
 95
      298
140
0.0
140
0.0
140
0.0
140
0.0
140
0.0
140
0.0
140
0.0
140
0.0
140
0.0
140
0.0
140
0.0
140
0.0
140
0.0
140
0.0
140
0.0
140
0.0
140
0.0
140
0.0
140
0.0
140
0.0
140
0.0
140
0.0
140
0.0
140
0.0
140
0.0
140
0.0
140
0.0
140
0.0
140
0.0
140
0.0
140
0.0
140
0.0
140
0.0
140
0.0
140
0.0
140
0.0
140
0.0
140
0.0
140
0.0
140
0.0
140
0.0
140
0.0
140
0.0
140
0.0
140
0.0
140
0.0
140
0.0
140
0.0
140
0.0
140
0.0
140
0.0
140
0.0
140
0.0
140
0.0
140
0.0
140
0.0
140
0.0
140
0.0
140
0.0
140
0.0
140
0.0
140
0.0
140
0.0
140
0.0
140
0.0
140
0.0
140
0.0
140
0.0
140
0.0
140
0.0
140
0.0
140
0.0
140
0.0
140
0.0
140
0.0
140
0.0
140
0.0
140
0.0
140
0.0
140
0.0
140
0.0
140
0.0
140
0.0
140
0.0
140
0.0
140
0.0
140
0.0
140
0.0
140
0.0
140
0.0
140
0.0
140
0.0
140
0.0
140
0.0
140
0.0
140
0.0
140
0.0
140
0.0
140
0.0
140
0.0
140
0.0
140
0.0
140
0.0
140
0.0
140
0.0
140
0.0
140
0.0
140
0.0
140
0.0
140
0.0
140
0.0
140
0.0
140
0.0
140
0.0
140
0.0
140
0.0
140
0.0
140
0.0
140
0.0
140
0.0
140
0.0
140
0.0
140
0.0
140
0.0
140
0.0
140
0.0
140
0.0
140
0.0
140
0.0
140
0.0
140
0.0
140
0.0
140
0.0
140
0.0
140
0.0
140
0.0
140
0.0
140
0.0
140
0.0
140
0.0
140
0.0
140
0.0
140
0.0
140
0.0
140
0.0
140
0.0
140
0.0
140
0.0
140
0.0
140
0.0
140
0.0
140
0.0
140
0.0
140
0.0
140
0.0
140
0.0
140
0.0
140
0.0
140
0.0
140
0.0
140
0.0
140
0.0
140
0.0
140
0.0
140
0.0
140
0.0
140
0.0
140
0.0
140
0.0
140
0.0
140
0.0
140
0.0
140
0.0
140
0.0
140
0.0
140
0.0
140
0.0
140
0.0
140
0.0
140
0.0
140
0.0
140
0.0
140
0.0
140
0.0
140
0.0
140
0.0
140
0.0
140
0.0
140
0.0
140
0.0
140
0.0
140
0.0
140
0.0
140
0.0
140
0.0
140
0.0
140
0.0
140
0.0
140
0.0
140
0.0
140
0.0
140
0.0
140
0.0
140
0.0
140
0.0
140
0.0
140
0.0
140
0.0
140
0.0
140
0.0
140
0.0
140
0.0
140
0.0
140
0.0
140
0.0
140
0.0
140
0.0
140
0.0
140
0.0
140
0.0
140
0.0
140
0.0
140
0.0
140
0.0
140
0.0
140
0.0
140
0.0
140
0.0
140
0.0
140
0.0
140
0.0
140
0.0
140
0.0
140
0.0
140
0.0
140
0.0
140
0.0
140
0.0
140
0.0
140
0.0
140
0.0
140
0.0
140
0.0
140
0.0
140
0.0
140
0.0
140
0.0
140
0.0
140
0.0
140
0.0
140
0.0
140
0.0
140
0.0
140
0.0
140
0.0
140
0.0
140
0.0
140
0.0
140
0.0
140
0.0
140
0.0
140
0.0
140
0.0
140
0.0
140
0.0
140
0.0
140
0.0
140
0.0
140
0.0
140
0.0
140
0.0
140
0.0
140
0.0
140
0.0
140
0.0
140
0.0
140
0.0
140
0.0
140
0.0
140
0.0
140
0.0
140
0.0
140
0.0
140
0.0
140
0.0
140
0.0
140
0.0
140
0.0
140
0.0
140
0.0
140
0.0
140
0.0
140
0.0
140
0.0
140
0.0
140
0.0
140
0.0
140
0.0
 90
        0
  0
POLYLINE
  5
FA
330
1F
100
AcDbEntity
  8
OracDecor_cornice_mouldings
 62
   111
420
 10085560
100
AcDb2dPolyline
 66
     1
 10
0.0
 20
0.0
 30
-0.0000080465979408
 70
     1
210
-0.9999999999999769
220
0.0000001788139343
230
-0.0000001192092896
  0
VERTEX
  5
FB
330
FA
100
AcDbEntity
  8
OracDecor_cornice_mouldings
 62
   111
420
 10085560
100
AcDbVertex
100
AcDb2dVertex
 10
-134.9996032714843
 20
-0.000089704648417
 30
-0.0000080465979408
  0
VERTEX
  5
FC
330
FA
100
AcDbEntity
  8
OracDecor_cornice_mouldings
 62
   111
420
 10085560
100
AcDbVertex
100
AcDb2dVertex
 10
-134.9994964599609
 20
-11.03409194946289
 30
-0.0000080465979408
  0
VERTEX
  5
FD
330
FA
100
AcDbEntity
  8
OracDecor_cornice_mouldings
 62
   111
420
 10085560
100
AcDbVertex
100
AcDb2dVertex
 10
-120.6523056030273
 20
-11.03394222259521
 30
-0.0000080465979408
  0
VERTEX
  5
FE
330
FA
100
AcDbEntity
  8
OracDecor_cornice_mouldings
 62
   111
420
 10085560
100
AcDbVertex
100
AcDb2dVertex
 10
-120.6522140502929
 20
-19.86114501953125
 30
-0.0000080465979408
  0
VERTEX
  5
FF
330
FA
100
AcDbEntity
  8
OracDecor_cornice_mouldings
 62
   111
420
 10085560
100
AcDbVertex
100
AcDb2dVertex
 10
-114.3565292358398
 20
-18.45799446105957
 30
-0.0000080465979408
  0
VERTEX
  5
100
330
FA
100
AcDbEntity
  8
OracDecor_cornice_mouldings
 62
   111
420
 10085560
100
AcDbVertex
100
AcDb2dVertex
 10
-109.2421798706054
 20
-17.64342308044433
 30
-0.0000080465979408
  0
VERTEX
  5
101
330
FA
100
AcDbEntity
  8
OracDecor_cornice_mouldings
 62
   111
420
 10085560
100
AcDbVertex
100
AcDb2dVertex
 10
-104.5709838867187
 20
-17.24027061462402
 30
-0.0000080465979408
  0
VERTEX
  5
102
330
FA
100
AcDbEntity
  8
OracDecor_cornice_mouldings
 62
   111
420
 10085560
100
AcDbVertex
100
AcDb2dVertex
 10
-100.4882888793945
 20
-17.21562576293945
 30
-0.0000080465979408
  0
VERTEX
  5
103
330
FA
100
AcDbEntity
  8
OracDecor_cornice_mouldings
 62
   111
420
 10085560
100
AcDbVertex
100
AcDb2dVertex
 10
-93.25162506103515
 20
-18.11490440368652
 30
-0.0000080465979408
  0
VERTEX
  5
104
330
FA
100
AcDbEntity
  8
OracDecor_cornice_mouldings
 62
   111
420
 10085560
100
AcDbVertex
100
AcDb2dVertex
 10
-86.39996337890625
 20
-20.31338691711426
 30
-0.0000080465979408
  0
VERTEX
  5
105
330
FA
100
AcDbEntity
  8
OracDecor_cornice_mouldings
 62
   111
420
 10085560
100
AcDbVertex
100
AcDb2dVertex
 10
-82.94053649902343
 20
-21.97074699401856
 30
-0.0000080465979408
  0
VERTEX
  5
106
330
FA
100
AcDbEntity
  8
OracDecor_cornice_mouldings
 62
   111
420
 10085560
100
AcDbVertex
100
AcDb2dVertex
 10
-79.14414978027344
 20
-24.19102668762207
 30
-0.0000080465979408
  0
VERTEX
  5
107
330
FA
100
AcDbEntity
  8
OracDecor_cornice_mouldings
 62
   111
420
 10085560
100
AcDbVertex
100
AcDb2dVertex
 10
-74.91346740722656
 20
-27.13564872741699
 30
-0.0000080465979408
  0
VERTEX
  5
108
330
FA
100
AcDbEntity
  8
OracDecor_cornice_mouldings
 62
   111
420
 10085560
100
AcDbVertex
100
AcDb2dVertex
 10
-70.31787109375
 20
-30.88459968566894
 30
-0.0000080465979408
  0
VERTEX
  5
109
330
FA
100
AcDbEntity
  8
OracDecor_cornice_mouldings
 62
   111
420
 10085560
100
AcDbVertex
100
AcDb2dVertex
 10
-65.50020599365234
 20
-35.38038635253907
 30
-0.0000080465979408
  0
VERTEX
  5
10A
330
FA
100
AcDbEntity
  8
OracDecor_cornice_mouldings
 62
   111
420
 10085560
100
AcDbVertex
100
AcDb2dVertex
 10
-60.81243896484375
 20
-39.94043350219726
 30
-0.0000080465979408
  0
VERTEX
  5
10B
330
FA
100
AcDbEntity
  8
OracDecor_cornice_mouldings
 62
   111
420
 10085560
100
AcDbVertex
100
AcDb2dVertex
 10
-56.54021453857422
 20
-43.74469375610352
 30
-0.0000080465979408
  0
VERTEX
  5
10C
330
FA
100
AcDbEntity
  8
OracDecor_cornice_mouldings
 62
   111
420
 10085560
100
AcDbVertex
100
AcDb2dVertex
 10
-52.72441864013671
 20
-46.64806365966796
 30
-0.0000080465979408
  0
VERTEX
  5
10D
330
FA
100
AcDbEntity
  8
OracDecor_cornice_mouldings
 62
   111
420
 10085560
100
AcDbVertex
100
AcDb2dVertex
 10
-49.11029815673828
 20
-48.9570198059082
 30
-0.0000080465979408
  0
VERTEX
  5
10E
330
FA
100
AcDbEntity
  8
OracDecor_cornice_mouldings
 62
   111
420
 10085560
100
AcDbVertex
100
AcDb2dVertex
 10
-45.47771453857421
 20
-50.86497116088867
 30
-0.0000080465979408
  0
VERTEX
  5
10F
330
FA
100
AcDbEntity
  8
OracDecor_cornice_mouldings
 62
   111
420
 10085560
100
AcDbVertex
100
AcDb2dVertex
 10
-41.69538879394531
 20
-52.44104385375976
 30
-0.0000080465979408
  0
VERTEX
  5
110
330
FA
100
AcDbEntity
  8
OracDecor_cornice_mouldings
 62
   111
420
 10085560
100
AcDbVertex
100
AcDb2dVertex
 10
-37.76665115356446
 20
-53.67148971557617
 30
-0.0000080465979408
  0
VERTEX
  5
111
330
FA
100
AcDbEntity
  8
OracDecor_cornice_mouldings
 62
   111
420
 10085560
100
AcDbVertex
100
AcDb2dVertex
 10
-33.3807487487793
 20
-54.61260223388672
 30
-0.0000080465979408
  0
VERTEX
  5
112
330
FA
100
AcDbEntity
  8
OracDecor_cornice_mouldings
 62
   111
420
 10085560
100
AcDbVertex
100
AcDb2dVertex
 10
-28.63398742675781
 20
-55.1966438293457
 30
-0.0000080465979408
  0
VERTEX
  5
113
330
FA
100
AcDbEntity
  8
OracDecor_cornice_mouldings
 62
   111
420
 10085560
100
AcDbVertex
100
AcDb2dVertex
 10
-23.59592056274414
 20
-55.39503097534179
 30
-0.0000080465979408
  0
VERTEX
  5
114
330
FA
100
AcDbEntity
  8
OracDecor_cornice_mouldings
 62
   111
420
 10085560
100
AcDbVertex
100
AcDb2dVertex
 10
-17.65946197509765
 20
-55.16889572143554
 30
-0.0000080465979408
  0
VERTEX
  5
115
330
FA
100
AcDbEntity
  8
OracDecor_cornice_mouldings
 62
   111
420
 10085560
100
AcDbVertex
100
AcDb2dVertex
 10
-17.65936660766601
 20
-63.99610137939453
 30
-0.0000080465979408
  0
VERTEX
  5
116
330
FA
100
AcDbEntity
  8
OracDecor_cornice_mouldings
 62
   111
420
 10085560
100
AcDbVertex
100
AcDb2dVertex
 10
0.0000290528259939
 20
-63.99592590332031
 30
-0.0000080465979408
  0
VERTEX
  5
117
330
FA
100
AcDbEntity
  8
OracDecor_cornice_mouldings
 62
   111
420
 10085560
100
AcDbVertex
100
AcDb2dVertex
 10
-0.0000085857036538
 20
-58.18008422851562
 30
-0.0000080465979408
  0
VERTEX
  5
118
330
FA
100
AcDbEntity
  8
OracDecor_cornice_mouldings
 62
   111
420
 10085560
100
AcDbVertex
100
AcDb2dVertex
 10
-0.6774911284446717
 20
-57.7898063659668
 30
-0.0000080465979408
  0
VERTEX
  5
119
330
FA
100
AcDbEntity
  8
OracDecor_cornice_mouldings
 62
   111
420
 10085560
100
AcDbVertex
100
AcDb2dVertex
 10
-1.148591041564941
 20
-57.13611602783203
 30
-0.0000080465979408
  0
VERTEX
  5
11A
330
FA
100
AcDbEntity
  8
OracDecor_cornice_mouldings
 62
   111
420
 10085560
100
AcDbVertex
100
AcDb2dVertex
 10
-1.331421732902526
 20
-56.33246612548828
 30
-0.0000080465979408
  0
VERTEX
  5
11B
330
FA
100
AcDbEntity
  8
OracDecor_cornice_mouldings
 62
   111
420
 10085560
100
AcDbVertex
100
AcDb2dVertex
 10
-1.194321513175964
 20
-55.51847076416016
 30
-0.0000080465979408
  0
VERTEX
  5
11C
330
FA
100
AcDbEntity
  8
OracDecor_cornice_mouldings
 62
   111
420
 10085560
100
AcDbVertex
100
AcDb2dVertex
 10
-0.0000691140885465
 20
-52.38328170776367
 30
-0.0000080465979408
  0
VERTEX
  5
11D
330
FA
100
AcDbEntity
  8
OracDecor_cornice_mouldings
 62
   111
420
 10085560
100
AcDbVertex
100
AcDb2dVertex
 10
-0.0001220881240442
 20
-47.4449234008789
 30
-0.0000080465979408
  0
VERTEX
  5
11E
330
FA
100
AcDbEntity
  8
OracDecor_cornice_mouldings
 62
   111
420
 10085560
100
AcDbVertex
100
AcDb2dVertex
 10
-4.282112598419189
 20
-47.44496154785156
 30
-0.0000080465979408
  0
VERTEX
  5
11F
330
FA
100
AcDbEntity
  8
OracDecor_cornice_mouldings
 62
   111
420
 10085560
100
AcDbVertex
100
AcDb2dVertex
 10
-5.338722705841064
 20
-47.3264045715332
 30
-0.0000080465979408
  0
VERTEX
  5
120
330
FA
100
AcDbEntity
  8
OracDecor_cornice_mouldings
 62
   111
420
 10085560
100
AcDbVertex
100
AcDb2dVertex
 10
-6.349922657012939
 20
-46.97579956054688
 30
-0.0000080465979408
  0
VERTEX
  5
121
330
FA
100
AcDbEntity
  8
OracDecor_cornice_mouldings
 62
   111
420
 10085560
100
AcDbVertex
100
AcDb2dVertex
 10
-8.453315734863281
 20
-45.9769401550293
 30
-0.0000080465979408
  0
VERTEX
  5
122
330
FA
100
AcDbEntity
  8
OracDecor_cornice_mouldings
 62
   111
420
 10085560
100
AcDbVertex
100
AcDb2dVertex
 10
-9.815242767333984
 20
-45.56035995483398
 30
-0.0000080465979408
  0
VERTEX
  5
123
330
FA
100
AcDbEntity
  8
OracDecor_cornice_mouldings
 62
   111
420
 10085560
100
AcDbVertex
100
AcDb2dVertex
 10
-11.23104476928711
 20
-45.56097793579101
 30
-0.0000080465979408
  0
VERTEX
  5
124
330
FA
100
AcDbEntity
  8
OracDecor_cornice_mouldings
 62
   111
420
 10085560
100
AcDbVertex
100
AcDb2dVertex
 10
-18.81863212585449
 20
-46.40496444702148
 30
-0.0000080465979408
  0
VERTEX
  5
125
330
FA
100
AcDbEntity
  8
OracDecor_cornice_mouldings
 62
   111
420
 10085560
100
AcDbVertex
100
AcDb2dVertex
 10
-24.61966133117676
 20
-46.55925750732421
 30
-0.0000080465979408
  0
VERTEX
  5
126
330
FA
100
AcDbEntity
  8
OracDecor_cornice_mouldings
 62
   111
420
 10085560
100
AcDbVertex
100
AcDb2dVertex
 10
-27.48835182189941
 20
-46.1946792602539
 30
-0.0000080465979408
  0
VERTEX
  5
127
330
FA
100
AcDbEntity
  8
OracDecor_cornice_mouldings
 62
   111
420
 10085560
100
AcDbVertex
100
AcDb2dVertex
 10
-30.23108100891113
 20
-45.21879959106445
 30
-0.0000080465979408
  0
VERTEX
  5
128
330
FA
100
AcDbEntity
  8
OracDecor_cornice_mouldings
 62
   111
420
 10085560
100
AcDbVertex
100
AcDb2dVertex
 10
-53.74736022949218
 20
-33.9114875793457
 30
-0.0000080465979408
  0
VERTEX
  5
129
330
FA
100
AcDbEntity
  8
OracDecor_cornice_mouldings
 62
   111
420
 10085560
100
AcDbVertex
100
AcDb2dVertex
 10
-55.74008178710937
 20
-32.74163055419922
 30
-0.0000080465979408
  0
VERTEX
  5
12A
330
FA
100
AcDbEntity
  8
OracDecor_cornice_mouldings
 62
   111
420
 10085560
100
AcDbVertex
100
AcDb2dVertex
 10
-57.53652191162109
 20
-31.2480583190918
 30
-0.0000080465979408
  0
VERTEX
  5
12B
330
FA
100
AcDbEntity
  8
OracDecor_cornice_mouldings
 62
   111
420
 10085560
100
AcDbVertex
100
AcDb2dVertex
 10
-61.92703247070312
 20
-26.9871768951416
 30
-0.0000080465979408
  0
VERTEX
  5
12C
330
FA
100
AcDbEntity
  8
OracDecor_cornice_mouldings
 62
   111
420
 10085560
100
AcDbVertex
100
AcDb2dVertex
 10
-66.63221740722656
 20
-22.75726318359375
 30
-0.0000080465979408
  0
VERTEX
  5
12D
330
FA
100
AcDbEntity
  8
OracDecor_cornice_mouldings
 62
   111
420
 10085560
100
AcDbVertex
100
AcDb2dVertex
 10
-71.28153991699218
 20
-19.10477828979492
 30
-0.0000080465979408
  0
VERTEX
  5
12E
330
FA
100
AcDbEntity
  8
OracDecor_cornice_mouldings
 62
   111
420
 10085560
100
AcDbVertex
100
AcDb2dVertex
 10
-75.57064056396484
 20
-16.20300483703613
 30
-0.0000080465979408
  0
VERTEX
  5
12F
330
FA
100
AcDbEntity
  8
OracDecor_cornice_mouldings
 62
   111
420
 10085560
100
AcDbVertex
100
AcDb2dVertex
 10
-83.03330230712891
 20
-12.25224876403808
 30
-0.0000080465979408
  0
VERTEX
  5
130
330
FA
100
AcDbEntity
  8
OracDecor_cornice_mouldings
 62
   111
420
 10085560
100
AcDbVertex
100
AcDb2dVertex
 10
-90.23651885986328
 20
-9.796720504760742
 30
-0.0000080465979408
  0
VERTEX
  5
131
330
FA
100
AcDbEntity
  8
OracDecor_cornice_mouldings
 62
   111
420
 10085560
100
AcDbVertex
100
AcDb2dVertex
 10
-97.90743255615234
 20
-8.528916358947753
 30
-0.0000080465979408
  0
VERTEX
  5
132
330
FA
100
AcDbEntity
  8
OracDecor_cornice_mouldings
 62
   111
420
 10085560
100
AcDbVertex
100
AcDb2dVertex
 10
-106.6197967529297
 20
-8.521994590759277
 30
-0.0000080465979408
  0
VERTEX
  5
133
330
FA
100
AcDbEntity
  8
OracDecor_cornice_mouldings
 62
   111
420
 10085560
100
AcDbVertex
100
AcDb2dVertex
 10
-108.0403442382812
 20
-8.412745475769042
 30
-0.0000080465979408
  0
VERTEX
  5
134
330
FA
100
AcDbEntity
  8
OracDecor_cornice_mouldings
 62
   111
420
 10085560
100
AcDbVertex
100
AcDb2dVertex
 10
-109.3779525756836
 20
-7.886818885803222
 30
-0.0000080465979408
  0
VERTEX
  5
135
330
FA
100
AcDbEntity
  8
OracDecor_cornice_mouldings
 62
   111
420
 10085560
100
AcDbVertex
100
AcDb2dVertex
 10
-110.5294799804687
 20
-6.984848976135253
 30
-0.0000080465979408
  0
VERTEX
  5
136
330
FA
100
AcDbEntity
  8
OracDecor_cornice_mouldings
 62
   111
420
 10085560
100
AcDbVertex
100
AcDb2dVertex
 10
-111.4060592651367
 20
-5.776337623596191
 30
-0.0000080465979408
  0
VERTEX
  5
137
330
FA
100
AcDbEntity
  8
OracDecor_cornice_mouldings
 62
   111
420
 10085560
100
AcDbVertex
100
AcDb2dVertex
 10
-114.5036087036133
 20
0.0001195335353259
 30
-0.0000080465979408
  0
VERTEX
  5
138
330
FA
100
AcDbEntity
  8
OracDecor_cornice_mouldings
 62
   111
420
 10085560
100
AcDbVertex
100
AcDb2dVertex
 10
-122.9534683227539
 20
0.0000377526048396
 30
-0.0000080465979408
  0
VERTEX
  5
139
330
FA
100
AcDbEntity
  8
OracDecor_cornice_mouldings
 62
   111
420
 10085560
100
AcDbVertex
100
AcDb2dVertex
 10
-123.1975479125976
 20
-0.5032371282577515
 30
-0.0000080465979408
  0
VERTEX
  5
13A
330
FA
100
AcDbEntity
  8
OracDecor_cornice_mouldings
 62
   111
420
 10085560
100
AcDbVertex
100
AcDb2dVertex
 10
-123.5880966186523
 20
-0.9790805578231811
 30
-0.0000080465979408
  0
VERTEX
  5
13B
330
FA
100
AcDbEntity
  8
OracDecor_cornice_mouldings
 62
   111
420
 10085560
100
AcDbVertex
100
AcDb2dVertex
 10
-124.0986862182617
 20
-1.297195792198181
 30
-0.0000080465979408
  0
VERTEX
  5
13C
330
FA
100
AcDbEntity
  8
OracDecor_cornice_mouldings
 62
   111
420
 10085560
100
AcDbVertex
100
AcDb2dVertex
 10
-124.6765060424804
 20
-1.424684882164001
 30
-0.0000080465979408
  0
VERTEX
  5
13D
330
FA
100
AcDbEntity
  8
OracDecor_cornice_mouldings
 62
   111
420
 10085560
100
AcDbVertex
100
AcDb2dVertex
 10
-125.2621231079101
 20
-1.348434805870056
 30
-0.0000080465979408
  0
VERTEX
  5
13E
330
FA
100
AcDbEntity
  8
OracDecor_cornice_mouldings
 62
   111
420
 10085560
100
AcDbVertex
100
AcDb2dVertex
 10
-125.7950973510742
 20
-1.076296210289001
 30
-0.0000080465979408
  0
VERTEX
  5
13F
330
FA
100
AcDbEntity
  8
OracDecor_cornice_mouldings
 62
   111
420
 10085560
100
AcDbVertex
100
AcDb2dVertex
 10
-126.2204666137695
 20
-0.6363490223884583
 30
-0.0000080465979408
  0
VERTEX
  5
140
330
FA
100
AcDbEntity
  8
OracDecor_cornice_mouldings
 62
   111
420
 10085560
100
AcDbVertex
100
AcDb2dVertex
 10
-126.5236587524414
 20
-0.0000041097478061
 30
-0.0000080465979408
  0
SEQEND
  5
141
330
FA
100
AcDbEntity
  8
OracDecor_cornice_mouldings
 62
   111
420
 10085560
  0
ENDSEC
  0
SECTION
  2
OBJECTS
  0
DICTIONARY
  5
C
330
0
100
AcDbDictionary
281
     1
  3
ACAD_COLOR
350
DC
  3
ACAD_DETAILVIEWSTYLE
350
F5
  3
ACAD_GROUP
350
D
  3
ACAD_LAYOUT
350
1A
  3
ACAD_MATERIAL
350
AA
  3
ACAD_MLEADERSTYLE
350
F1
  3
ACAD_MLINESTYLE
350
17
  3
ACAD_PLOTSETTINGS
350
19
  3
ACAD_PLOTSTYLENAME
350
E
  3
ACAD_SCALELIST
350
DF
  3
ACAD_SECTIONVIEWSTYLE
350
F3
  3
ACAD_TABLESTYLE
350
DD
  3
ACAD_VISUALSTYLE
350
C3
  3
ACDB_RECOMPOSE_DATA
350
14E
  3
AcDbVariableDictionary
350
142
  0
DICTIONARY
  5
DC
102
{ACAD_REACTORS
330
C
102
}
330
C
100
AcDbDictionary
281
     1
  0
DICTIONARY
  5
F5
102
{ACAD_REACTORS
330
C
102
}
330
C
100
AcDbDictionary
281
     1
  3
Imperial24
350
F6
  0
DICTIONARY
  5
D
102
{ACAD_REACTORS
330
C
102
}
330
C
100
AcDbDictionary
281
     1
  0
DICTIONARY
  5
1A
102
{ACAD_REACTORS
330
C
102
}
330
C
100
AcDbDictionary
281
     1
  3
Layout1
350
1E
  3
Layout2
350
26
  3
Model
350
22
  0
DICTIONARY
  5
AA
102
{ACAD_REACTORS
330
C
102
}
330
C
100
AcDbDictionary
281
     1
  3
ByBlock
350
B3
  3
ByLayer
350
AB
  3
Global
350
BB
  0
DICTIONARY
  5
F1
102
{ACAD_REACTORS
330
C
102
}
330
C
100
AcDbDictionary
281
     1
  3
Standard
350
F2
  0
DICTIONARY
  5
17
102
{ACAD_REACTORS
330
C
102
}
330
C
100
AcDbDictionary
281
     1
  3
Standard
350
18
  0
DICTIONARY
  5
19
102
{ACAD_REACTORS
330
C
102
}
330
C
100
AcDbDictionary
281
     1
  0
ACDBDICTIONARYWDFLT
  5
E
102
{ACAD_REACTORS
330
C
102
}
330
C
100
AcDbDictionary
281
     1
  3
ByLayer
350
2D
  3
Normal
350
F
100
AcDbDictionaryWithDefault
340
F
  0
DICTIONARY
  5
DF
102
{ACAD_REACTORS
330
C
102
}
330
C
100
AcDbDictionary
281
     1
  3
A0
350
E0
  3
A1
350
E1
  3
A2
350
E2
  3
A3
350
E3
  3
A4
350
E4
  3
A5
350
E5
  3
A6
350
E6
  3
A7
350
E7
  3
A8
350
E8
  3
A9
350
E9
  3
B0
350
EA
  3
B1
350
EB
  3
B2
350
EC
  3
B3
350
ED
  3
B4
350
EE
  3
B5
350
EF
  3
B6
350
F0
  0
DICTIONARY
  5
F3
102
{ACAD_REACTORS
330
C
102
}
330
C
100
AcDbDictionary
281
     1
  3
Imperial24
350
F4
  0
DICTIONARY
  5
DD
102
{ACAD_REACTORS
330
C
102
}
330
C
100
AcDbDictionary
281
     1
  3
Standard
350
DE
  0
DICTIONARY
  5
C3
102
{ACAD_REACTORS
330
C
102
}
330
C
100
AcDbDictionary
281
     1
  3
2dWireframe
350
C9
  3
Basic
350
C8
  3
Brighten
350
CF
  3
ColorChange
350
D3
  3
Conceptual
350
CC
  3
Dim
350
CE
  3
EdgeColorOff
350
DB
  3
Facepattern
350
D2
  3
Flat
350
C4
  3
FlatWithEdges
350
C5
  3
Gouraud
350
C6
  3
GouraudWithEdges
350
C7
  3
Hidden
350
CB
  3
JitterOff
350
D9
  3
Linepattern
350
D1
  3
OverhangOff
350
DA
  3
Realistic
350
CD
  3
Shaded
350
D8
  3
Shaded with edges
350
D7
  3
Shades of Gray
350
D4
  3
Sketchy
350
D5
  3
Thicken
350
D0
  3
Wireframe
350
CA
  3
X-Ray
350
D6
  0
XRECORD
  5
14E
102
{ACAD_REACTORS
330
C
102
}
330
C
100
AcDbXrecord
280
     1
 90
        1
330
DE
  0
DICTIONARY
  5
142
102
{ACAD_REACTORS
330
C
102
}
330
C
100
AcDbDictionary
281
     1
  3
CANNOSCALE
350
148
  3
CMLEADERSTYLE
350
144
  3
CTABLESTYLE
350
143
  3
CVIEWDETAILSTYLE
350
145
  3
CVIEWSECTIONSTYLE
350
146
  3
LAYEREVAL
350
14A
  3
LAYERNOTIFY
350
14B
  3
LIGHTINGUNITS
350
149
  3
MSLTSCALE
350
147
  0
ACDBDETAILVIEWSTYLE
  5
F6
102
{ACAD_XDICTIONARY
360
183
102
}
102
{ACAD_REACTORS
330
F5
102
}
330
F5
100
AcDbModelDocViewStyle
 70
     0
  3
Imperial24
290
     0
100
AcDbDetailViewStyle
 70
     0
 71
     0
 90
        3
 71
     1
340
11
 62
   256
 40
0.24
340
0
 62
   256
 40
0.24
300

 40
0.36
280
     3
 71
     2
340
16
 90
       25
 62
   256
 71
     3
340
11
 62
   256
 40
0.24
 90
        1
 40
0.75
 90
        1
300
%<\AcVar ViewType \f "%tc1">% %<\AcVar ViewDetailId>%\PSCALE %<\AcVar ViewScale \f "%sn">%
 71
     4
340
16
 90
       25
 62
   256
340
16
 90
       25
 62
   256
280
     0
  0
LAYOUT
  5
1E
102
{ACAD_REACTORS
330
1A
102
}
330
1A
100
AcDbPlotSettings
  1

  2
\\KTXNTBDC\CASF2PN1
  4

  6

 40
0.0
 41
0.0
 42
0.0
 43
0.0
 44
0.0
 45
0.0
 46
0.0
 47
0.0
 48
0.0
 49
0.0
140
0.0
141
0.0
142
1.0
143
1.0
 70
   688
 72
     0
 73
     0
 74
     5
  7

 75
    16
147
1.0
 76
     0
 77
     2
 78
   300
148
0.0
149
0.0
100
AcDbLayout
  1
Layout1
 70
     1
 71
     1
 10
0.0
 20
0.0
 11
12.0
 21
9.0
 12
0.0
 22
0.0
 32
0.0
 14
1.000000000000000E+20
 24
1.000000000000000E+20
 34
1.000000000000000E+20
 15
-1.000000000000000E+20
 25
-1.000000000000000E+20
 35
-1.000000000000000E+20
146
0.0
 13
0.0
 23
0.0
 33
0.0
 16
1.0
 26
0.0
 36
0.0
 17
0.0
 27
1.0
 37
0.0
 76
     0
330
1B
  0
LAYOUT
  5
26
102
{ACAD_REACTORS
330
1A
102
}
330
1A
100
AcDbPlotSettings
  1

  2
\\KTXNTBDC\CASF2PN1
  4

  6

 40
0.0
 41
0.0
 42
0.0
 43
0.0
 44
0.0
 45
0.0
 46
0.0
 47
0.0
 48
0.0
 49
0.0
140
0.0
141
0.0
142
1.0
143
1.0
 70
   688
 72
     0
 73
     0
 74
     5
  7

 75
    16
147
1.0
 76
     0
 77
     2
 78
   300
148
0.0
149
0.0
100
AcDbLayout
  1
Layout2
 70
     1
 71
     2
 10
0.0
 20
0.0
 11
12.0
 21
9.0
 12
0.0
 22
0.0
 32
0.0
 14
0.0
 24
0.0
 34
0.0
 15
0.0
 25
0.0
 35
0.0
146
0.0
 13
0.0
 23
0.0
 33
0.0
 16
1.0
 26
0.0
 36
0.0
 17
0.0
 27
1.0
 37
0.0
 76
     0
330
23
  0
LAYOUT
  5
22
102
{ACAD_REACTORS
330
1A
102
}
330
1A
100
AcDbPlotSettings
  1

  2
\\KTXNTBDC\CASF2PN1
  4

  6

 40
0.0
 41
0.0
 42
0.0
 43
0.0
 44
0.0
 45
0.0
 46
0.0
 47
0.0
 48
0.0
 49
0.0
140
0.0
141
0.0
142
1.0
143
1.0
 70
  1712
 72
     0
 73
     0
 74
     0
  7

 75
     0
147
1.0
 76
     0
 77
     2
 78
   300
148
0.0
149
0.0
100
AcDbLayout
  1
Model
 70
     1
 71
     0
 10
0.0
 20
0.0
 11
12.0
 21
9.0
 12
0.0
 22
0.0
 32
0.0
 14
0.0
 24
0.0
 34
0.0
 15
0.0
 25
0.0
 35
0.0
146
0.0
 13
0.0
 23
0.0
 33
0.0
 16
1.0
 26
0.0
 36
0.0
 17
0.0
 27
1.0
 37
0.0
 76
     0
330
1F
  0
MATERIAL
  5
B3
102
{ACAD_XDICTIONARY
360
B4
102
}
102
{ACAD_REACTORS
330
AA
102
}
330
AA
100
AcDbMaterial
  1
ByBlock
 72
     0
 43
0.0208333333333333
 43
0.0
 43
0.0
 43
0.0
 43
0.0
 43
0.0208333333333333
 43
0.0
 43
0.0
 43
0.0
 43
0.0
 43
1.0
 43
0.0
 43
0.0
 43
0.0
 43
0.0
 43
1.0
 77
     0
 47
0.0208333333333333
 47
0.0
 47
0.0
 47
0.0
 47
0.0
 47
0.0208333333333333
 47
0.0
 47
0.0
 47
0.0
 47
0.0
 47
1.0
 47
0.0
 47
0.0
 47
0.0
 47
0.0
 47
1.0
171
     0
 49
0.0208333333333333
 49
0.0
 49
0.0
 49
0.0
 49
0.0
 49
0.0208333333333333
 49
0.0
 49
0.0
 49
0.0
 49
0.0
 49
1.0
 49
0.0
 49
0.0
 49
0.0
 49
0.0
 49
1.0
175
     0
142
0.0208333333333333
142
0.0
142
0.0
142
0.0
142
0.0
142
0.0208333333333333
142
0.0
142
0.0
142
0.0
142
0.0
142
1.0
142
0.0
142
0.0
142
0.0
142
0.0
142
1.0
179
     0
144
0.0208333333333333
144
0.0
144
0.0
144
0.0
144
0.0
144
0.0208333333333333
144
0.0
144
0.0
144
0.0
144
0.0
144
1.0
144
0.0
144
0.0
144
0.0
144
0.0
144
1.0
147
0.0208333333333333
147
0.0
147
0.0
147
0.0
147
0.0
147
0.0208333333333333
147
0.0
147
0.0
147
0.0
147
0.0
147
1.0
147
0.0
147
0.0
147
0.0
147
0.0
147
1.0
  0
MATERIAL
  5
AB
102
{ACAD_XDICTIONARY
360
AC
102
}
102
{ACAD_REACTORS
330
AA
102
}
330
AA
100
AcDbMaterial
  1
ByLayer
 72
     0
 43
0.0208333333333333
 43
0.0
 43
0.0
 43
0.0
 43
0.0
 43
0.0208333333333333
 43
0.0
 43
0.0
 43
0.0
 43
0.0
 43
1.0
 43
0.0
 43
0.0
 43
0.0
 43
0.0
 43
1.0
 77
     0
 47
0.0208333333333333
 47
0.0
 47
0.0
 47
0.0
 47
0.0
 47
0.0208333333333333
 47
0.0
 47
0.0
 47
0.0
 47
0.0
 47
1.0
 47
0.0
 47
0.0
 47
0.0
 47
0.0
 47
1.0
171
     0
 49
0.0208333333333333
 49
0.0
 49
0.0
 49
0.0
 49
0.0
 49
0.0208333333333333
 49
0.0
 49
0.0
 49
0.0
 49
0.0
 49
1.0
 49
0.0
 49
0.0
 49
0.0
 49
0.0
 49
1.0
175
     0
142
0.0208333333333333
142
0.0
142
0.0
142
0.0
142
0.0
142
0.0208333333333333
142
0.0
142
0.0
142
0.0
142
0.0
142
1.0
142
0.0
142
0.0
142
0.0
142
0.0
142
1.0
179
     0
144
0.0208333333333333
144
0.0
144
0.0
144
0.0
144
0.0
144
0.0208333333333333
144
0.0
144
0.0
144
0.0
144
0.0
144
1.0
144
0.0
144
0.0
144
0.0
144
0.0
144
1.0
147
0.0208333333333333
147
0.0
147
0.0
147
0.0
147
0.0
147
0.0208333333333333
147
0.0
147
0.0
147
0.0
147
0.0
147
1.0
147
0.0
147
0.0
147
0.0
147
0.0
147
1.0
  0
MATERIAL
  5
BB
102
{ACAD_XDICTIONARY
360
BC
102
}
102
{ACAD_REACTORS
330
AA
102
}
330
AA
100
AcDbMaterial
  1
Global
 72
     0
 43
0.0208333333333333
 43
0.0
 43
0.0
 43
0.0
 43
0.0
 43
0.0208333333333333
 43
0.0
 43
0.0
 43
0.0
 43
0.0
 43
1.0
 43
0.0
 43
0.0
 43
0.0
 43
0.0
 43
1.0
 77
     0
 47
0.0208333333333333
 47
0.0
 47
0.0
 47
0.0
 47
0.0
 47
0.0208333333333333
 47
0.0
 47
0.0
 47
0.0
 47
0.0
 47
1.0
 47
0.0
 47
0.0
 47
0.0
 47
0.0
 47
1.0
171
     0
 49
0.0208333333333333
 49
0.0
 49
0.0
 49
0.0
 49
0.0
 49
0.0208333333333333
 49
0.0
 49
0.0
 49
0.0
 49
0.0
 49
1.0
 49
0.0
 49
0.0
 49
0.0
 49
0.0
 49
1.0
175
     0
142
0.0208333333333333
142
0.0
142
0.0
142
0.0
142
0.0
142
0.0208333333333333
142
0.0
142
0.0
142
0.0
142
0.0
142
1.0
142
0.0
142
0.0
142
0.0
142
0.0
142
1.0
179
     0
144
0.0208333333333333
144
0.0
144
0.0
144
0.0
144
0.0
144
0.0208333333333333
144
0.0
144
0.0
144
0.0
144
0.0
144
1.0
144
0.0
144
0.0
144
0.0
144
0.0
144
1.0
147
0.0208333333333333
147
0.0
147
0.0
147
0.0
147
0.0
147
0.0208333333333333
147
0.0
147
0.0
147
0.0
147
0.0
147
1.0
147
0.0
147
0.0
147
0.0
147
0.0
147
1.0
  0
MLEADERSTYLE
  5
F2
102
{ACAD_XDICTIONARY
360
17F
102
}
102
{ACAD_REACTORS
330
F1
102
}
330
F1
100
AcDbMLeaderStyle
179
     2
170
     2
171
     1
172
     0
 90
        2
 40
0.0
 41
0.0
173
     1
 91
-1056964608
340
14
 92
       -2
290
     1
 42
0.09
291
     1
 43
0.36
  3
Standard
 44
0.18
300

342
11
174
     1
178
     6
175
     1
176
     0
 93
-1056964608
 45
0.18
292
     0
297
     0
 46
0.18
 94
-1056964608
 47
1.0
 49
1.0
140
1.0
293
     1
141
0.0
294
     1
177
     0
142
1.0
295
     0
296
     0
143
0.125
271
     0
272
     9
273
     9
  0
MLINESTYLE
  5
18
102
{ACAD_REACTORS
330
17
102
}
330
17
100
AcDbMlineStyle
  2
STANDARD
 70
     0
  3

 62
   256
 51
90.0
 52
90.0
 71
     2
 49
0.5
 62
   256
  6
BYLAYER
 49
-0.5
 62
   256
  6
BYLAYER
  0
ACDBPLACEHOLDER
  5
2D
102
{ACAD_REACTORS
330
E
102
}
330
E
  0
ACDBPLACEHOLDER
  5
F
102
{ACAD_REACTORS
330
E
102
}
330
E
  0
SCALE
  5
E0
102
{ACAD_REACTORS
330
DF
102
}
330
DF
100
AcDbScale
 70
     0
300
1:1
140
1.0
141
1.0
290
     1
  0
SCALE
  5
E1
102
{ACAD_REACTORS
330
DF
102
}
330
DF
100
AcDbScale
 70
     0
300
1/128" = 1'-0"
140
0.0078125
141
12.0
290
     0
  0
SCALE
  5
E2
102
{ACAD_REACTORS
330
DF
102
}
330
DF
100
AcDbScale
 70
     0
300
1/64" = 1'-0"
140
0.015625
141
12.0
290
     0
  0
SCALE
  5
E3
102
{ACAD_REACTORS
330
DF
102
}
330
DF
100
AcDbScale
 70
     0
300
1/32" = 1'-0"
140
0.03125
141
12.0
290
     0
  0
SCALE
  5
E4
102
{ACAD_REACTORS
330
DF
102
}
330
DF
100
AcDbScale
 70
     0
300
1/16" = 1'-0"
140
0.0625
141
12.0
290
     0
  0
SCALE
  5
E5
102
{ACAD_REACTORS
330
DF
102
}
330
DF
100
AcDbScale
 70
     0
300
3/32" = 1'-0"
140
0.09375
141
12.0
290
     0
  0
SCALE
  5
E6
102
{ACAD_REACTORS
330
DF
102
}
330
DF
100
AcDbScale
 70
     0
300
1/8" = 1'-0"
140
0.125
141
12.0
290
     0
  0
SCALE
  5
E7
102
{ACAD_REACTORS
330
DF
102
}
330
DF
100
AcDbScale
 70
     0
300
3/16" = 1'-0"
140
0.1875
141
12.0
290
     0
  0
SCALE
  5
E8
102
{ACAD_REACTORS
330
DF
102
}
330
DF
100
AcDbScale
 70
     0
300
1/4" = 1'-0"
140
0.25
141
12.0
290
     0
  0
SCALE
  5
E9
102
{ACAD_REACTORS
330
DF
102
}
330
DF
100
AcDbScale
 70
     0
300
3/8" = 1'-0"
140
0.375
141
12.0
290
     0
  0
SCALE
  5
EA
102
{ACAD_REACTORS
330
DF
102
}
330
DF
100
AcDbScale
 70
     0
300
1/2" = 1'-0"
140
0.5
141
12.0
290
     0
  0
SCALE
  5
EB
102
{ACAD_REACTORS
330
DF
102
}
330
DF
100
AcDbScale
 70
     0
300
3/4" = 1'-0"
140
0.75
141
12.0
290
     0
  0
SCALE
  5
EC
102
{ACAD_REACTORS
330
DF
102
}
330
DF
100
AcDbScale
 70
     0
300
1" = 1'-0"
140
1.0
141
12.0
290
     0
  0
SCALE
  5
ED
102
{ACAD_REACTORS
330
DF
102
}
330
DF
100
AcDbScale
 70
     0
300
1-1/2" = 1'-0"
140
1.5
141
12.0
290
     0
  0
SCALE
  5
EE
102
{ACAD_REACTORS
330
DF
102
}
330
DF
100
AcDbScale
 70
     0
300
3" = 1'-0"
140
3.0
141
12.0
290
     0
  0
SCALE
  5
EF
102
{ACAD_REACTORS
330
DF
102
}
330
DF
100
AcDbScale
 70
     0
300
6" = 1'-0"
140
6.0
141
12.0
290
     0
  0
SCALE
  5
F0
102
{ACAD_REACTORS
330
DF
102
}
330
DF
100
AcDbScale
 70
     0
300
1'-0" = 1'-0"
140
12.0
141
12.0
290
     0
  0
ACDBSECTIONVIEWSTYLE
  5
F4
102
{ACAD_XDICTIONARY
360
181
102
}
102
{ACAD_REACTORS
330
F3
102
}
330
F3
100
AcDbModelDocViewStyle
 70
     0
  3
Imperial24
290
     0
100
AcDbSectionViewStyle
 70
     0
 71
     0
 90
       78
 71
     1
340
11
 62
   256
 40
0.24
340
0
340
0
 62
   256
 40
0.24
300
I, O, Q, S, X, Z
 40
0.48
 90
        3
 40
0.18
 90
        1
 71
     2
340
16
 90
       25
 62
   256
340
16
 90
       50
 62
   256
 40
0.24
 40
0.0
 40
0.24
 71
     3
340
11
 62
   256
 40
0.24
 90
        1
 40
0.75
 90
        1
300
%<\AcVar ViewType \f "%tc1">% %<\AcVar ViewSectionStartId>%-%<\AcVar ViewSectionEndId>%\PSCALE %<\AcVar ViewScale \f "%sn">%
 71
     4
 62
   256
 62
   257
300
ANSI31
 40
1.0
 90
        0
290
     0
290
     0
 90
        6
 40
0.0
 40
1.570796326794896
 40
0.2617993877991494
 40
1.308996938995747
 40
-0.2617993877991494
 40
1.832595714594046
  0
TABLESTYLE
  5
DE
102
{ACAD_XDICTIONARY
360
14C
102
}
102
{ACAD_REACTORS
330
DD
102
}
330
DD
100
AcDbTableStyle
280
     0
  3
Standard
 70
     0
 71
     0
 40
0.06
 41
0.06
280
     0
281
     0
  7
Standard
140
0.18
170
     2
 62
     0
 63
     7
283
     0
 90
      512
 91
        0
  1

274
    -2
284
     1
 64
     0
275
    -2
285
     1
 65
     0
276
    -2
286
     1
 66
     0
277
    -2
287
     1
 67
     0
278
    -2
288
     1
 68
     0
279
    -2
289
     1
 69
     0
  7
Standard
140
0.25
170
     5
 62
     0
 63
     7
283
     0
 90
      512
 91
        0
  1

274
    -2
284
     1
 64
     0
275
    -2
285
     1
 65
     0
276
    -2
286
     1
 66
     0
277
    -2
287
     1
 67
     0
278
    -2
288
     1
 68
     0
279
    -2
289
     1
 69
     0
  7
Standard
140
0.18
170
     5
 62
     0
 63
     7
283
     0
 90
      512
 91
        0
  1

274
    -2
284
     1
 64
     0
275
    -2
285
     1
 65
     0
276
    -2
286
     1
 66
     0
277
    -2
287
     1
 67
     0
278
    -2
288
     1
 68
     0
279
    -2
289
     1
 69
     0
  0
VISUALSTYLE
  5
C9
102
{ACAD_XDICTIONARY
360
159
102
}
102
{ACAD_REACTORS
330
C3
102
}
330
C3
100
AcDbVisualStyle
  2
2dWireframe
 70
     4
177
     2
291
     0
 71
     0
176
     1
 72
     2
176
     1
 73
     0
176
     1
 90
        0
176
     1
 40
0.6
176
     1
 41
30.0
176
     1
 63
     7
421
 16777215
176
     1
 74
     1
176
     1
 91
        4
176
     1
 64
     7
176
     1
 65
   257
176
     1
 75
     1
176
     1
175
     1
176
     1
 42
1.0
176
     1
 92
        0
176
     1
 66
   257
176
     1
 43
1.0
176
     1
 76
     1
176
     1
 77
     6
176
     1
 78
     2
176
     1
 67
     7
176
     1
 79
     5
176
     1
170
     0
176
     1
171
     0
176
     1
290
     0
176
     1
 93
        1
176
     1
 44
0.0
176
     1
173
     0
176
     1
1001
ACAD
1000
AcDbSavedByObjectVersion
1070
     0
  0
VISUALSTYLE
  5
C8
102
{ACAD_XDICTIONARY
360
157
102
}
102
{ACAD_REACTORS
330
C3
102
}
330
C3
100
AcDbVisualStyle
  2
Basic
 70
     7
177
     2
291
     1
 71
     1
176
     1
 72
     0
176
     1
 73
     1
176
     1
 90
        0
176
     1
 40
0.6
176
     1
 41
30.0
176
     1
 63
     7
421
 16777215
176
     1
 74
     0
176
     1
 91
        4
176
     1
 64
     7
176
     1
 65
   257
176
     1
 75
     1
176
     1
175
     1
176
     1
 42
1.0
176
     1
 92
        8
176
     1
 66
     7
176
     1
 43
1.0
176
     1
 76
     1
176
     1
 77
     6
176
     1
 78
     2
176
     1
 67
     7
176
     1
 79
     5
176
     1
170
     0
176
     1
171
     0
176
     1
290
     0
176
     1
 93
        1
176
     1
 44
0.0
176
     1
173
     0
176
     1
1001
ACAD
1000
AcDbSavedByObjectVersion
1070
     0
  0
VISUALSTYLE
  5
CF
102
{ACAD_XDICTIONARY
360
165
102
}
102
{ACAD_REACTORS
330
C3
102
}
330
C3
100
AcDbVisualStyle
  2
Brighten
 70
    12
177
     2
291
     1
 71
     2
176
     1
 72
     2
176
     1
 73
     0
176
     1
 90
        0
176
     1
 40
0.6
176
     1
 41
30.0
176
     1
 63
     7
421
 16777215
176
     1
 74
     1
176
     1
 91
        4
176
     1
 64
     7
176
     1
 65
   257
176
     1
 75
     1
176
     1
175
     1
176
     1
 42
1.0
176
     1
 92
        8
176
     1
 66
     7
176
     1
 43
1.0
176
     1
 76
     1
176
     1
 77
     6
176
     1
 78
     2
176
     1
 67
     7
176
     1
 79
     5
176
     1
170
     0
176
     1
171
     0
176
     1
290
     0
176
     1
 93
        1
176
     1
 44
50.0
176
     1
173
     0
176
     1
1001
ACAD
1000
AcDbSavedByObjectVersion
1070
     0
  0
VISUALSTYLE
  5
D3
102
{ACAD_XDICTIONARY
360
16D
102
}
102
{ACAD_REACTORS
330
C3
102
}
330
C3
100
AcDbVisualStyle
  2
ColorChange
 70
    16
177
     2
291
     1
 71
     2
176
     1
 72
     2
176
     1
 73
     3
176
     1
 90
        0
176
     1
 40
0.6
176
     1
 41
30.0
176
     1
 63
     8
421
  8421504
176
     1
 74
     1
176
     1
 91
        4
176
     1
 64
     7
176
     1
 65
   257
176
     1
 75
     1
176
     1
175
     1
176
     1
 42
1.0
176
     1
 92
        8
176
     1
 66
     8
424
  8421504
176
     1
 43
1.0
176
     1
 76
     1
176
     1
 77
     6
176
     1
 78
     2
176
     1
 67
     7
176
     1
 79
     5
176
     1
170
     0
176
     1
171
     0
176
     1
290
     0
176
     1
 93
        1
176
     1
 44
0.0
176
     1
173
     0
176
     1
1001
ACAD
1000
AcDbSavedByObjectVersion
1070
     0
  0
VISUALSTYLE
  5
CC
102
{ACAD_XDICTIONARY
360
15F
102
}
102
{ACAD_REACTORS
330
C3
102
}
330
C3
100
AcDbVisualStyle
  2
Conceptual
 70
     9
177
     2
291
     0
 71
     3
176
     1
 72
     2
176
     1
 73
     0
176
     1
 90
        0
176
     1
 40
0.6
176
     1
 41
30.0
176
     1
 63
     7
421
 16777215
176
     1
 74
     2
176
     1
 91
        2
176
     1
 64
     7
176
     1
 65
   257
176
     1
 75
     1
176
     1
175
     1
176
     1
 42
179.0
176
     1
 92
        8
176
     1
 66
     7
176
     1
 43
1.0
176
     1
 76
     1
176
     1
 77
     6
176
     1
 78
     2
176
     1
 67
     7
176
     1
 79
     3
176
     1
170
     0
176
     1
171
     0
176
     1
290
     0
176
     1
 93
        1
176
     1
 44
0.0
176
     1
173
     0
176
     1
1001
ACAD
1000
AcDbSavedByObjectVersion
1070
     0
  0
VISUALSTYLE
  5
CE
102
{ACAD_XDICTIONARY
360
163
102
}
102
{ACAD_REACTORS
330
C3
102
}
330
C3
100
AcDbVisualStyle
  2
Dim
 70
    11
177
     2
291
     1
 71
     2
176
     1
 72
     2
176
     1
 73
     0
176
     1
 90
        0
176
     1
 40
0.6
176
     1
 41
30.0
176
     1
 63
     7
421
 16777215
176
     1
 74
     1
176
     1
 91
        4
176
     1
 64
     7
176
     1
 65
   257
176
     1
 75
     1
176
     1
175
     1
176
     1
 42
1.0
176
     1
 92
        8
176
     1
 66
     7
176
     1
 43
1.0
176
     1
 76
     1
176
     1
 77
     6
176
     1
 78
     2
176
     1
 67
     7
176
     1
 79
     5
176
     1
170
     0
176
     1
171
     0
176
     1
290
     0
176
     1
 93
        1
176
     1
 44
-50.0
176
     1
173
     0
176
     1
1001
ACAD
1000
AcDbSavedByObjectVersion
1070
     0
  0
VISUALSTYLE
  5
DB
102
{ACAD_XDICTIONARY
360
17D
102
}
102
{ACAD_REACTORS
330
C3
102
}
330
C3
100
AcDbVisualStyle
  2
EdgeColorOff
 70
    22
177
     2
291
     1
 71
     2
176
     0
 72
     2
176
     0
 73
     0
176
     0
 90
        0
176
     0
 40
0.6
176
     0
 41
30.0
176
     0
 63
     7
421
 16777215
176
     0
 74
     1
176
     0
 91
        4
176
     0
 64
     7
176
     0
 65
   257
176
     0
 75
     1
176
     0
175
     1
176
     0
 42
1.0
176
     0
 92
        8
176
     2
 66
     7
176
     0
 43
1.0
176
     0
 76
     1
176
     0
 77
     6
176
     0
 78
     2
176
     0
 67
     7
176
     0
 79
     5
176
     0
170
     0
176
     0
171
     0
176
     0
290
     0
176
     0
 93
        1
176
     0
 44
0.0
176
     0
173
     0
176
     0
1001
ACAD
1000
AcDbSavedByObjectVersion
1070
     0
  0
VISUALSTYLE
  5
D2
102
{ACAD_XDICTIONARY
360
16B
102
}
102
{ACAD_REACTORS
330
C3
102
}
330
C3
100
AcDbVisualStyle
  2
Facepattern
 70
    15
177
     2
291
     1
 71
     2
176
     1
 72
     2
176
     1
 73
     0
176
     1
 90
        0
176
     1
 40
0.6
176
     1
 41
30.0
176
     1
 63
     7
421
 16777215
176
     1
 74
     1
176
     1
 91
        4
176
     1
 64
     7
176
     1
 65
   257
176
     1
 75
     1
176
     1
175
     1
176
     1
 42
1.0
176
     1
 92
        8
176
     1
 66
     7
176
     1
 43
1.0
176
     1
 76
     1
176
     1
 77
     6
176
     1
 78
     2
176
     1
 67
     7
176
     1
 79
     5
176
     1
170
     0
176
     1
171
     0
176
     1
290
     0
176
     1
 93
        1
176
     1
 44
0.0
176
     1
173
     0
176
     1
1001
ACAD
1000
AcDbSavedByObjectVersion
1070
     0
  0
VISUALSTYLE
  5
C4
102
{ACAD_XDICTIONARY
360
14F
102
}
102
{ACAD_REACTORS
330
C3
102
}
330
C3
100
AcDbVisualStyle
  2
Flat
 70
     0
177
     2
291
     1
 71
     2
176
     1
 72
     1
176
     1
 73
     1
176
     1
 90
        2
176
     1
 40
0.6
176
     1
 41
30.0
176
     1
 63
     7
421
 16777215
176
     1
 74
     0
176
     1
 91
        0
176
     1
 64
     7
176
     1
 65
   257
176
     1
 75
     1
176
     1
175
     1
176
     1
 42
1.0
176
     1
 92
        8
176
     1
 66
     7
176
     1
 43
1.0
176
     1
 76
     1
176
     1
 77
     6
176
     1
 78
     2
176
     1
 67
     7
176
     1
 79
     5
176
     1
170
     0
176
     1
171
     0
176
     1
290
     0
176
     1
 93
       13
176
     1
 44
0.0
176
     1
173
     0
176
     1
1001
ACAD
1000
AcDbSavedByObjectVersion
1070
     0
  0
VISUALSTYLE
  5
C5
102
{ACAD_XDICTIONARY
360
151
102
}
102
{ACAD_REACTORS
330
C3
102
}
330
C3
100
AcDbVisualStyle
  2
FlatWithEdges
 70
     1
177
     2
291
     1
 71
     2
176
     1
 72
     1
176
     1
 73
     1
176
     1
 90
        2
176
     1
 40
0.6
176
     1
 41
30.0
176
     1
 63
     7
421
 16777215
176
     1
 74
     1
176
     1
 91
        0
176
     1
 64
     7
176
     1
 65
   257
176
     1
 75
     1
176
     1
175
     1
176
     1
 42
1.0
176
     1
 92
        0
176
     1
 66
   257
176
     1
 43
1.0
176
     1
 76
     1
176
     1
 77
     6
176
     1
 78
     2
176
     1
 67
     7
176
     1
 79
     5
176
     1
170
     0
176
     1
171
     0
176
     1
290
     0
176
     1
 93
       13
176
     1
 44
0.0
176
     1
173
     0
176
     1
1001
ACAD
1000
AcDbSavedByObjectVersion
1070
     0
  0
VISUALSTYLE
  5
C6
102
{ACAD_XDICTIONARY
360
153
102
}
102
{ACAD_REACTORS
330
C3
102
}
330
C3
100
AcDbVisualStyle
  2
Gouraud
 70
     2
177
     2
291
     1
 71
     2
176
     1
 72
     2
176
     1
 73
     1
176
     1
 90
        2
176
     1
 40
0.6
176
     1
 41
30.0
176
     1
 63
     7
421
 16777215
176
     1
 74
     0
176
     1
 91
        0
176
     1
 64
     7
176
     1
 65
   257
176
     1
 75
     1
176
     1
175
     1
176
     1
 42
1.0
176
     1
 92
        0
176
     1
 66
     7
176
     1
 43
1.0
176
     1
 76
     1
176
     1
 77
     6
176
     1
 78
     2
176
     1
 67
     7
176
     1
 79
     5
176
     1
170
     0
176
     1
171
     0
176
     1
290
     0
176
     1
 93
       13
176
     1
 44
0.0
176
     1
173
     0
176
     1
1001
ACAD
1000
AcDbSavedByObjectVersion
1070
     0
  0
VISUALSTYLE
  5
C7
102
{ACAD_XDICTIONARY
360
155
102
}
102
{ACAD_REACTORS
330
C3
102
}
330
C3
100
AcDbVisualStyle
  2
GouraudWithEdges
 70
     3
177
     2
291
     1
 71
     2
176
     1
 72
     2
176
     1
 73
     1
176
     1
 90
        2
176
     1
 40
0.6
176
     1
 41
30.0
176
     1
 63
     7
421
 16777215
176
     1
 74
     1
176
     1
 91
        0
176
     1
 64
     7
176
     1
 65
   257
176
     1
 75
     1
176
     1
175
     1
176
     1
 42
1.0
176
     1
 92
        0
176
     1
 66
   257
176
     1
 43
1.0
176
     1
 76
     1
176
     1
 77
     6
176
     1
 78
     2
176
     1
 67
     7
176
     1
 79
     5
176
     1
170
     0
176
     1
171
     0
176
     1
290
     0
176
     1
 93
       13
176
     1
 44
0.0
176
     1
173
     0
176
     1
1001
ACAD
1000
AcDbSavedByObjectVersion
1070
     0
  0
VISUALSTYLE
  5
CB
102
{ACAD_XDICTIONARY
360
15D
102
}
102
{ACAD_REACTORS
330
C3
102
}
330
C3
100
AcDbVisualStyle
  2
Hidden
 70
     6
177
     2
291
     0
 71
     1
176
     1
 72
     2
176
     1
 73
     2
176
     1
 90
        0
176
     1
 40
0.6
176
     1
 41
30.0
176
     1
 63
     7
421
 16777215
176
     1
 74
     2
176
     1
 91
        2
176
     1
 64
     7
176
     1
 65
   257
176
     1
 75
     2
176
     1
175
     1
176
     1
 42
40.0
176
     1
 92
        0
176
     1
 66
   257
176
     1
 43
1.0
176
     1
 76
     1
176
     1
 77
     6
176
     1
 78
     2
176
     1
 67
     7
176
     1
 79
     3
176
     1
170
     0
176
     1
171
     0
176
     1
290
     0
176
     1
 93
        1
176
     1
 44
0.0
176
     1
173
     0
176
     1
1001
ACAD
1000
AcDbSavedByObjectVersion
1070
     0
  0
VISUALSTYLE
  5
D9
102
{ACAD_XDICTIONARY
360
179
102
}
102
{ACAD_REACTORS
330
C3
102
}
330
C3
100
AcDbVisualStyle
  2
JitterOff
 70
    20
177
     2
291
     1
 71
     2
176
     0
 72
     2
176
     0
 73
     0
176
     0
 90
        0
176
     0
 40
0.6
176
     0
 41
30.0
176
     0
 63
     7
421
 16777215
176
     0
 74
     1
176
     0
 91
        4
176
     0
 64
     7
176
     0
 65
   257
176
     0
 75
     1
176
     0
175
     1
176
     0
 42
1.0
176
     0
 92
       10
176
     2
 66
     7
176
     0
 43
1.0
176
     0
 76
     1
176
     0
 77
     6
176
     0
 78
     2
176
     0
 67
     7
176
     0
 79
     5
176
     0
170
     0
176
     0
171
     0
176
     0
290
     0
176
     0
 93
        1
176
     0
 44
0.0
176
     0
173
     0
176
     0
1001
ACAD
1000
AcDbSavedByObjectVersion
1070
     0
  0
VISUALSTYLE
  5
D1
102
{ACAD_XDICTIONARY
360
169
102
}
102
{ACAD_REACTORS
330
C3
102
}
330
C3
100
AcDbVisualStyle
  2
Linepattern
 70
    14
177
     2
291
     1
 71
     2
176
     1
 72
     2
176
     1
 73
     0
176
     1
 90
        0
176
     1
 40
0.6
176
     1
 41
30.0
176
     1
 63
     7
421
 16777215
176
     1
 74
     1
176
     1
 91
        4
176
     1
 64
     7
176
     1
 65
   257
176
     1
 75
     7
176
     1
175
     7
176
     1
 42
1.0
176
     1
 92
        8
176
     1
 66
     7
176
     1
 43
1.0
176
     1
 76
     1
176
     1
 77
     6
176
     1
 78
     2
176
     1
 67
     7
176
     1
 79
     5
176
     1
170
     0
176
     1
171
     0
176
     1
290
     0
176
     1
 93
        1
176
     1
 44
0.0
176
     1
173
     0
176
     1
1001
ACAD
1000
AcDbSavedByObjectVersion
1070
     0
  0
VISUALSTYLE
  5
DA
102
{ACAD_XDICTIONARY
360
17B
102
}
102
{ACAD_REACTORS
330
C3
102
}
330
C3
100
AcDbVisualStyle
  2
OverhangOff
 70
    21
177
     2
291
     1
 71
     2
176
     0
 72
     2
176
     0
 73
     0
176
     0
 90
        0
176
     0
 40
0.6
176
     0
 41
30.0
176
     0
 63
     7
421
 16777215
176
     0
 74
     1
176
     0
 91
        4
176
     0
 64
     7
176
     0
 65
   257
176
     0
 75
     1
176
     0
175
     1
176
     0
 42
1.0
176
     0
 92
        9
176
     2
 66
     7
176
     0
 43
1.0
176
     0
 76
     1
176
     0
 77
     6
176
     0
 78
     2
176
     0
 67
     7
176
     0
 79
     5
176
     0
170
     0
176
     0
171
     0
176
     0
290
     0
176
     0
 93
        1
176
     0
 44
0.0
176
     0
173
     0
176
     0
1001
ACAD
1000
AcDbSavedByObjectVersion
1070
     0
  0
VISUALSTYLE
  5
CD
102
{ACAD_XDICTIONARY
360
161
102
}
102
{ACAD_REACTORS
330
C3
102
}
330
C3
100
AcDbVisualStyle
  2
Realistic
 70
     8
177
     2
291
     0
 71
     2
176
     1
 72
     3
176
     1
 73
     0
176
     1
 90
        2
176
     1
 40
0.6
176
     1
 41
30.0
176
     1
 63
     7
421
 16777215
176
     1
 74
     0
176
     1
 91
        0
176
     1
 64
     7
176
     1
 65
   257
176
     1
 75
     1
176
     1
175
     1
176
     1
 42
1.0
176
     1
 92
        8
176
     1
 66
   257
176
     1
 43
1.0
176
     1
 76
     1
176
     1
 77
     6
176
     1
 78
     2
176
     1
 67
     7
176
     1
 79
     3
176
     1
170
     0
176
     1
171
     0
176
     1
290
     0
176
     1
 93
       13
176
     1
 44
0.0
176
     1
173
     0
176
     1
1001
ACAD
1000
AcDbSavedByObjectVersion
1070
     0
  0
VISUALSTYLE
  5
D8
102
{ACAD_XDICTIONARY
360
177
102
}
102
{ACAD_REACTORS
330
C3
102
}
330
C3
100
AcDbVisualStyle
  2
Shaded
 70
    27
177
     2
291
     0
 71
     2
176
     1
 72
     2
176
     1
 73
     1
176
     1
 90
        2
176
     1
 40
0.6
176
     1
 41
30.0
176
     1
 63
     7
421
 16777215
176
     1
 74
     0
176
     1
 91
        4
176
     1
 64
     7
176
     1
 65
   257
176
     1
 75
     1
176
     1
175
     1
176
     1
 42
1.0
176
     1
 92
        8
176
     1
 66
   257
176
     1
 43
1.0
176
     1
 76
     1
176
     1
 77
     6
176
     1
 78
     2
176
     1
 67
     8
425
  7895160
176
     1
 79
     3
176
     1
170
     0
176
     1
171
     0
176
     1
290
     0
176
     1
 93
        5
176
     1
 44
0.0
176
     1
173
     0
176
     1
1001
ACAD
1000
AcDbSavedByObjectVersion
1070
     0
  0
VISUALSTYLE
  5
D7
102
{ACAD_XDICTIONARY
360
175
102
}
102
{ACAD_REACTORS
330
C3
102
}
330
C3
100
AcDbVisualStyle
  2
Shaded with edges
 70
    26
177
     2
291
     0
 71
     2
176
     1
 72
     2
176
     1
 73
     1
176
     1
 90
        2
176
     1
 40
0.6
176
     1
 41
30.0
176
     1
 63
     7
421
 16777215
176
     1
 74
     1
176
     1
 91
       10
176
     1
 64
     7
176
     1
 65
   257
176
     1
 75
     2
176
     1
175
     1
176
     1
 42
1.0
176
     1
 92
        8
176
     1
 66
   257
176
     1
 43
1.0
176
     1
 76
     1
176
     1
 77
     6
176
     1
 78
     2
176
     1
 67
     7
176
     1
 79
     3
176
     1
170
     0
176
     1
171
     0
176
     1
290
     0
176
     1
 93
        5
176
     1
 44
0.0
176
     1
173
     0
176
     1
1001
ACAD
1000
AcDbSavedByObjectVersion
1070
     0
  0
VISUALSTYLE
  5
D4
102
{ACAD_XDICTIONARY
360
16F
102
}
102
{ACAD_REACTORS
330
C3
102
}
330
C3
100
AcDbVisualStyle
  2
Shades of Gray
 70
    23
177
     2
291
     0
 71
     2
176
     1
 72
     2
176
     1
 73
     3
176
     1
 90
        0
176
     1
 40
0.6
176
     1
 41
30.0
176
     1
 63
     7
421
 16777215
176
     1
 74
     2
176
     1
 91
        2
176
     1
 64
     7
176
     1
 65
     7
176
     1
 75
     1
176
     1
175
     1
176
     1
 42
40.0
176
     1
 92
        8
176
     1
 66
     7
176
     1
 43
1.0
176
     1
 76
     1
176
     1
 77
     6
176
     1
 78
     2
176
     1
 67
     7
176
     1
 79
     3
176
     1
170
     0
176
     1
171
     0
176
     1
290
     0
176
     1
 93
        1
176
     1
 44
0.0
176
     1
173
     0
176
     1
1001
ACAD
1000
AcDbSavedByObjectVersion
1070
     0
  0
VISUALSTYLE
  5
D5
102
{ACAD_XDICTIONARY
360
171
102
}
102
{ACAD_REACTORS
330
C3
102
}
330
C3
100
AcDbVisualStyle
  2
Sketchy
 70
    24
177
     2
291
     0
 71
     1
176
     1
 72
     2
176
     1
 73
     2
176
     1
 90
        0
176
     1
 40
0.6
176
     1
 41
30.0
176
     1
 63
     7
421
 16777215
176
     1
 74
     2
176
     1
 91
        2
176
     1
 64
     7
176
     1
 65
     7
176
     1
 75
     1
176
     1
175
     1
176
     1
 42
40.0
176
     1
 92
       11
176
     1
 66
     7
176
     1
 43
1.0
176
     1
 76
     1
176
     1
 77
     6
176
     1
 78
     2
176
     1
 67
     7
176
     1
 79
     6
176
     1
170
     0
176
     1
171
     0
176
     1
290
     0
176
     1
 93
        1
176
     1
 44
0.0
176
     1
173
     0
176
     1
1001
ACAD
1000
AcDbSavedByObjectVersion
1070
     0
  0
VISUALSTYLE
  5
D0
102
{ACAD_XDICTIONARY
360
167
102
}
102
{ACAD_REACTORS
330
C3
102
}
330
C3
100
AcDbVisualStyle
  2
Thicken
 70
    13
177
     2
291
     1
 71
     2
176
     1
 72
     2
176
     1
 73
     0
176
     1
 90
        0
176
     1
 40
0.6
176
     1
 41
30.0
176
     1
 63
     7
421
 16777215
176
     1
 74
     1
176
     1
 91
        4
176
     1
 64
     7
176
     1
 65
   257
176
     1
 75
     1
176
     1
175
     1
176
     1
 42
1.0
176
     1
 92
       12
176
     1
 66
     7
176
     1
 43
1.0
176
     1
 76
     1
176
     1
 77
     6
176
     1
 78
     2
176
     1
 67
     7
176
     1
 79
     5
176
     1
170
     0
176
     1
171
     0
176
     1
290
     0
176
     1
 93
        1
176
     1
 44
0.0
176
     1
173
     0
176
     1
1001
ACAD
1000
AcDbSavedByObjectVersion
1070
     0
  0
VISUALSTYLE
  5
CA
102
{ACAD_XDICTIONARY
360
15B
102
}
102
{ACAD_REACTORS
330
C3
102
}
330
C3
100
AcDbVisualStyle
  2
Wireframe
 70
     5
177
     2
291
     0
 71
     0
176
     1
 72
     2
176
     1
 73
     0
176
     1
 90
        0
176
     1
 40
0.6
176
     1
 41
30.0
176
     1
 63
     7
421
 16777215
176
     1
 74
     1
176
     1
 91
        4
176
     1
 64
     7
176
     1
 65
   257
176
     1
 75
     1
176
     1
175
     1
176
     1
 42
1.0
176
     1
 92
        0
176
     1
 66
   257
176
     1
 43
1.0
176
     1
 76
     1
176
     1
 77
     6
176
     1
 78
     2
176
     1
 67
     7
176
     1
 79
     3
176
     1
170
     0
176
     1
171
     0
176
     1
290
     0
176
     1
 93
        1
176
     1
 44
0.0
176
     1
173
     0
176
     1
1001
ACAD
1000
AcDbSavedByObjectVersion
1070
     0
  0
VISUALSTYLE
  5
D6
102
{ACAD_XDICTIONARY
360
173
102
}
102
{ACAD_REACTORS
330
C3
102
}
330
C3
100
AcDbVisualStyle
  2
X-Ray
 70
    25
177
     2
291
     0
 71
     2
176
     1
 72
     2
176
     1
 73
     1
176
     1
 90
        1
176
     1
 40
0.5
176
     1
 41
30.0
176
     1
 63
     7
421
 16777215
176
     1
 74
     1
176
     1
 91
        0
176
     1
 64
     7
176
     1
 65
   257
176
     1
 75
     1
176
     1
175
     1
176
     1
 42
1.0
176
     1
 92
        8
176
     1
 66
     7
176
     1
 43
1.0
176
     1
 76
     1
176
     1
 77
     6
176
     1
 78
     2
176
     1
 67
     7
176
     1
 79
     3
176
     1
170
     0
176
     1
171
     0
176
     1
290
     0
176
     1
 93
       13
176
     1
 44
0.0
176
     1
173
     0
176
     1
1001
ACAD
1000
AcDbSavedByObjectVersion
1070
     0
  0
DICTIONARYVAR
  5
148
102
{ACAD_REACTORS
330
142
102
}
330
142
100
DictionaryVariables
280
     0
  1
1:1
  0
DICTIONARYVAR
  5
144
102
{ACAD_REACTORS
330
142
102
}
330
142
100
DictionaryVariables
280
     0
  1
STANDARD
  0
DICTIONARYVAR
  5
143
102
{ACAD_REACTORS
330
142
102
}
330
142
100
DictionaryVariables
280
     0
  1
STANDARD
  0
DICTIONARYVAR
  5
145
102
{ACAD_REACTORS
330
142
102
}
330
142
100
DictionaryVariables
280
     0
  1
Imperial24
  0
DICTIONARYVAR
  5
146
102
{ACAD_REACTORS
330
142
102
}
330
142
100
DictionaryVariables
280
     0
  1
Imperial24
  0
DICTIONARYVAR
  5
14A
102
{ACAD_REACTORS
330
142
102
}
330
142
100
DictionaryVariables
280
     0
  1
1
  0
DICTIONARYVAR
  5
14B
102
{ACAD_REACTORS
330
142
102
}
330
142
100
DictionaryVariables
280
     0
  1
15
  0
DICTIONARYVAR
  5
149
102
{ACAD_REACTORS
330
142
102
}
330
142
100
DictionaryVariables
280
     0
  1
0
  0
DICTIONARYVAR
  5
147
102
{ACAD_REACTORS
330
142
102
}
330
142
100
DictionaryVariables
280
     0
  1
0
  0
DICTIONARY
  5
183
330
F6
100
AcDbDictionary
280
     1
281
     1
  3
ACAD_XREC_ROUNDTRIP
360
184
  0
DICTIONARY
  5
B4
330
B3
100
AcDbDictionary
280
     1
281
     1
  3
BUMPTILE
360
B6
  3
DIFFUSETILE
360
B5
  3
OPACITYTILE
360
B9
  3
REFLECTIONTILE
360
B8
  3
REFRACTIONTILE
360
BA
  3
SPECULARTILE
360
B7
  0
DICTIONARY
  5
AC
330
AB
100
AcDbDictionary
280
     1
281
     1
  3
BUMPTILE
360
AE
  3
DIFFUSETILE
360
AD
  3
OPACITYTILE
360
B1
  3
REFLECTIONTILE
360
B0
  3
REFRACTIONTILE
360
B2
  3
SPECULARTILE
360
AF
  0
DICTIONARY
  5
BC
330
BB
100
AcDbDictionary
280
     1
281
     1
  3
BUMPTILE
360
BE
  3
DIFFUSETILE
360
BD
  3
OPACITYTILE
360
C1
  3
REFLECTIONTILE
360
C0
  3
REFRACTIONTILE
360
C2
  3
SPECULARTILE
360
BF
  0
DICTIONARY
  5
17F
330
F2
100
AcDbDictionary
280
     1
281
     1
  3
ACAD_XREC_ROUNDTRIP
360
180
  0
DICTIONARY
  5
181
330
F4
100
AcDbDictionary
280
     1
281
     1
  3
ACAD_XREC_ROUNDTRIP
360
182
  0
DICTIONARY
  5
14C
330
DE
100
AcDbDictionary
280
     1
281
     1
  3
ACAD_ROUNDTRIP_2008_TABLESTYLE_CELLSTYLEMAP
360
14D
  0
DICTIONARY
  5
159
330
C9
100
AcDbDictionary
280
     1
281
     1
  3
ACAD_XREC_ROUNDTRIP
360
15A
  0
DICTIONARY
  5
157
330
C8
100
AcDbDictionary
280
     1
281
     1
  3
ACAD_XREC_ROUNDTRIP
360
158
  0
DICTIONARY
  5
165
330
CF
100
AcDbDictionary
280
     1
281
     1
  3
ACAD_XREC_ROUNDTRIP
360
166
  0
DICTIONARY
  5
16D
330
D3
100
AcDbDictionary
280
     1
281
     1
  3
ACAD_XREC_ROUNDTRIP
360
16E
  0
DICTIONARY
  5
15F
330
CC
100
AcDbDictionary
280
     1
281
     1
  3
ACAD_XREC_ROUNDTRIP
360
160
  0
DICTIONARY
  5
163
330
CE
100
AcDbDictionary
280
     1
281
     1
  3
ACAD_XREC_ROUNDTRIP
360
164
  0
DICTIONARY
  5
17D
330
DB
100
AcDbDictionary
280
     1
281
     1
  3
ACAD_XREC_ROUNDTRIP
360
17E
  0
DICTIONARY
  5
16B
330
D2
100
AcDbDictionary
280
     1
281
     1
  3
ACAD_XREC_ROUNDTRIP
360
16C
  0
DICTIONARY
  5
14F
330
C4
100
AcDbDictionary
280
     1
281
     1
  3
ACAD_XREC_ROUNDTRIP
360
150
  0
DICTIONARY
  5
151
330
C5
100
AcDbDictionary
280
     1
281
     1
  3
ACAD_XREC_ROUNDTRIP
360
152
  0
DICTIONARY
  5
153
330
C6
100
AcDbDictionary
280
     1
281
     1
  3
ACAD_XREC_ROUNDTRIP
360
154
  0
DICTIONARY
  5
155
330
C7
100
AcDbDictionary
280
     1
281
     1
  3
ACAD_XREC_ROUNDTRIP
360
156
  0
DICTIONARY
  5
15D
330
CB
100
AcDbDictionary
280
     1
281
     1
  3
ACAD_XREC_ROUNDTRIP
360
15E
  0
DICTIONARY
  5
179
330
D9
100
AcDbDictionary
280
     1
281
     1
  3
ACAD_XREC_ROUNDTRIP
360
17A
  0
DICTIONARY
  5
169
330
D1
100
AcDbDictionary
280
     1
281
     1
  3
ACAD_XREC_ROUNDTRIP
360
16A
  0
DICTIONARY
  5
17B
330
DA
100
AcDbDictionary
280
     1
281
     1
  3
ACAD_XREC_ROUNDTRIP
360
17C
  0
DICTIONARY
  5
161
330
CD
100
AcDbDictionary
280
     1
281
     1
  3
ACAD_XREC_ROUNDTRIP
360
162
  0
DICTIONARY
  5
177
330
D8
100
AcDbDictionary
280
     1
281
     1
  3
ACAD_XREC_ROUNDTRIP
360
178
  0
DICTIONARY
  5
175
330
D7
100
AcDbDictionary
280
     1
281
     1
  3
ACAD_XREC_ROUNDTRIP
360
176
  0
DICTIONARY
  5
16F
330
D4
100
AcDbDictionary
280
     1
281
     1
  3
ACAD_XREC_ROUNDTRIP
360
170
  0
DICTIONARY
  5
171
330
D5
100
AcDbDictionary
280
     1
281
     1
  3
ACAD_XREC_ROUNDTRIP
360
172
  0
DICTIONARY
  5
167
330
D0
100
AcDbDictionary
280
     1
281
     1
  3
ACAD_XREC_ROUNDTRIP
360
168
  0
DICTIONARY
  5
15B
330
CA
100
AcDbDictionary
280
     1
281
     1
  3
ACAD_XREC_ROUNDTRIP
360
15C
  0
DICTIONARY
  5
173
330
D6
100
AcDbDictionary
280
     1
281
     1
  3
ACAD_XREC_ROUNDTRIP
360
174
  0
XRECORD
  5
184
102
{ACAD_REACTORS
330
183
102
}
330
183
100
AcDbXrecord
280
     1
102
DISPLAYNAME
  1
Imperial24
102
FLAGS
 90
        0
  0
XRECORD
  5
B6
102
{ACAD_REACTORS
330
B4
102
}
330
B4
100
AcDbXrecord
280
     1
270
     1
271
     1
  0
XRECORD
  5
B5
102
{ACAD_REACTORS
330
B4
102
}
330
B4
100
AcDbXrecord
280
     1
270
     1
271
     1
  0
XRECORD
  5
B9
102
{ACAD_REACTORS
330
B4
102
}
330
B4
100
AcDbXrecord
280
     1
270
     1
271
     1
  0
XRECORD
  5
B8
102
{ACAD_REACTORS
330
B4
102
}
330
B4
100
AcDbXrecord
280
     1
270
     1
271
     1
  0
XRECORD
  5
BA
102
{ACAD_REACTORS
330
B4
102
}
330
B4
100
AcDbXrecord
280
     1
270
     1
271
     1
  0
XRECORD
  5
B7
102
{ACAD_REACTORS
330
B4
102
}
330
B4
100
AcDbXrecord
280
     1
270
     1
271
     1
  0
XRECORD
  5
AE
102
{ACAD_REACTORS
330
AC
102
}
330
AC
100
AcDbXrecord
280
     1
270
     1
271
     1
  0
XRECORD
  5
AD
102
{ACAD_REACTORS
330
AC
102
}
330
AC
100
AcDbXrecord
280
     1
270
     1
271
     1
  0
XRECORD
  5
B1
102
{ACAD_REACTORS
330
AC
102
}
330
AC
100
AcDbXrecord
280
     1
270
     1
271
     1
  0
XRECORD
  5
B0
102
{ACAD_REACTORS
330
AC
102
}
330
AC
100
AcDbXrecord
280
     1
270
     1
271
     1
  0
XRECORD
  5
B2
102
{ACAD_REACTORS
330
AC
102
}
330
AC
100
AcDbXrecord
280
     1
270
     1
271
     1
  0
XRECORD
  5
AF
102
{ACAD_REACTORS
330
AC
102
}
330
AC
100
AcDbXrecord
280
     1
270
     1
271
     1
  0
XRECORD
  5
BE
102
{ACAD_REACTORS
330
BC
102
}
330
BC
100
AcDbXrecord
280
     1
270
     1
271
     1
  0
XRECORD
  5
BD
102
{ACAD_REACTORS
330
BC
102
}
330
BC
100
AcDbXrecord
280
     1
270
     1
271
     1
  0
XRECORD
  5
C1
102
{ACAD_REACTORS
330
BC
102
}
330
BC
100
AcDbXrecord
280
     1
270
     1
271
     1
  0
XRECORD
  5
C0
102
{ACAD_REACTORS
330
BC
102
}
330
BC
100
AcDbXrecord
280
     1
270
     1
271
     1
  0
XRECORD
  5
C2
102
{ACAD_REACTORS
330
BC
102
}
330
BC
100
AcDbXrecord
280
     1
270
     1
271
     1
  0
XRECORD
  5
BF
102
{ACAD_REACTORS
330
BC
102
}
330
BC
100
AcDbXrecord
280
     1
270
     1
271
     1
  0
XRECORD
  5
180
102
{ACAD_REACTORS
330
17F
102
}
330
17F
100
AcDbXrecord
280
     1
102
ACAD_ROUNDTRIP_2012_MLEADER_STYLE
298
     1
  0
XRECORD
  5
182
102
{ACAD_REACTORS
330
181
102
}
330
181
100
AcDbXrecord
280
     1
102
DISPLAYNAME
  1
Imperial24
102
FLAGS
 90
        0
  0
CELLSTYLEMAP
  5
14D
102
{ACAD_REACTORS
330
14C
102
}
330
14C
100
AcDbCellStyleMap
 90
        3
300
CELLSTYLE
  1
TABLEFORMAT_BEGIN
 90
        5
170
     1
 91
        0
 92
    32768
 62
   257
 93
        1
300
CONTENTFORMAT
  1
CONTENTFORMAT_BEGIN
 90
        0
 91
        0
 92
      512
 93
        0
300

 40
0.0
140
1.0
 94
        5
 62
     0
340
11
144
0.25
309
CONTENTFORMAT_END
171
     0
 94
        0
309
TABLEFORMAT_END
  1
CELLSTYLE_BEGIN
 90
        1
 91
        1
300
_TITLE
309
CELLSTYLE_END
300
CELLSTYLE
  1
TABLEFORMAT_BEGIN
 90
        5
170
     1
 91
        0
 92
        0
 62
   257
 93
        1
300
CONTENTFORMAT
  1
CONTENTFORMAT_BEGIN
 90
        0
 91
        0
 92
      512
 93
        0
300

 40
0.0
140
1.0
 94
        5
 62
     0
340
11
144
0.18
309
CONTENTFORMAT_END
171
     0
 94
        0
309
TABLEFORMAT_END
  1
CELLSTYLE_BEGIN
 90
        2
 91
        1
300
_HEADER
309
CELLSTYLE_END
300
CELLSTYLE
  1
TABLEFORMAT_BEGIN
 90
        5
170
     1
 91
        0
 92
        0
 62
   257
 93
        1
300
CONTENTFORMAT
  1
CONTENTFORMAT_BEGIN
 90
        0
 91
        0
 92
      512
 93
        0
300

 40
0.0
140
1.0
 94
        2
 62
     0
340
11
144
0.18
309
CONTENTFORMAT_END
171
     0
 94
        0
309
TABLEFORMAT_END
  1
CELLSTYLE_BEGIN
 90
        3
 91
        2
300
_DATA
309
CELLSTYLE_END
  0
XRECORD
  5
15A
102
{ACAD_REACTORS
330
159
102
}
330
159
100
AcDbXrecord
280
     1
102
RTVSPost2010Prop28
280
     1
102
RTVSPost2010PropOp28
 70
     1
102
RTVSPost2010Prop29
280
     1
102
RTVSPost2010PropOp29
 70
     1
102
RTVSPost2010Prop30
280
     0
102
RTVSPost2010PropOp30
 70
     1
102
RTVSPost2010Prop31
280
     0
102
RTVSPost2010PropOp31
 70
     1
102
RTVSPost2010Prop32
280
     0
102
RTVSPost2010PropOp32
 70
     1
102
RTVSPost2010Prop33
280
     0
102
RTVSPost2010PropOp33
 70
     1
102
RTVSPost2010Prop34
280
     0
102
RTVSPost2010PropOp34
 70
     1
102
RTVSPost2010Prop35
280
     0
102
RTVSPost2010PropOp35
 70
     1
102
RTVSPost2010Prop36
280
     0
102
RTVSPost2010PropOp36
 70
     1
102
RTVSPost2010Prop37
 90
       50
102
RTVSPost2010PropOp37
 70
     1
102
RTVSPost2010Prop38
140
0.0
102
RTVSPost2010PropOp38
 70
     1
102
RTVSPost2010Prop39
140
1.0
102
RTVSPost2010PropOp39
 70
     1
102
RTVSPost2010Prop40
 90
        0
102
RTVSPost2010PropOp40
 70
     1
102
RTVSPost2010Prop41ColorIndex
 90
       18
102
RTVSPost2010Prop41ColorRGB
 90
        0
102
RTVSPost2010PropOp41
 70
     1
102
RTVSPost2010Prop42
 90
       50
102
RTVSPost2010PropOp42
 70
     1
102
RTVSPost2010Prop43
 90
        3
102
RTVSPost2010PropOp43
 70
     1
102
RTVSPost2010Prop44ColorIndex
 90
        5
102
RTVSPost2010Prop44ColorRGB
 90
      255
102
RTVSPost2010PropOp44
 70
     1
102
RTVSPost2010Prop45
280
     0
102
RTVSPost2010PropOp45
 70
     1
102
RTVSPost2010Prop46
 90
       50
102
RTVSPost2010PropOp46
 70
     1
102
RTVSPost2010Prop47
 90
       50
102
RTVSPost2010PropOp47
 70
     1
102
RTVSPost2010Prop48
 90
       50
102
RTVSPost2010PropOp48
 70
     1
102
RTVSPost2010Prop49
280
     0
102
RTVSPost2010PropOp49
 70
     1
102
RTVSPost2010Prop50
 90
       50
102
RTVSPost2010PropOp50
 70
     1
102
RTVSPost2010Prop51ColorIndex
 90
      256
102
RTVSPost2010Prop51ColorRGB
 90
-16777216
102
RTVSPost2010PropOp51
 70
     0
102
RTVSPost2010Prop52
140
1.0
102
RTVSPost2010PropOp52
 70
     0
102
RTVSPost2010Prop53
 90
        2
102
RTVSPost2010PropOp53
 70
     1
102
RTVSPost2010Prop54
  1
strokes_ogs.tif
102
RTVSPost2010PropOp54
 70
     1
102
RTVSPost2010Prop55
280
     0
102
RTVSPost2010PropOp55
 70
     1
102
RTVSPost2010Prop56
140
1.0
102
RTVSPost2010PropOp56
 70
     1
102
RTVSPost2010Prop57
140
1.0
102
RTVSPost2010PropOp57
 70
     1
  0
XRECORD
  5
158
102
{ACAD_REACTORS
330
157
102
}
330
157
100
AcDbXrecord
280
     1
102
RTVSPost2010Prop28
280
     0
102
RTVSPost2010PropOp28
 70
     1
102
RTVSPost2010Prop29
280
     1
102
RTVSPost2010PropOp29
 70
     1
102
RTVSPost2010Prop30
280
     1
102
RTVSPost2010PropOp30
 70
     1
102
RTVSPost2010Prop31
280
     0
102
RTVSPost2010PropOp31
 70
     1
102
RTVSPost2010Prop32
280
     0
102
RTVSPost2010PropOp32
 70
     1
102
RTVSPost2010Prop33
280
     0
102
RTVSPost2010PropOp33
 70
     1
102
RTVSPost2010Prop34
280
     0
102
RTVSPost2010PropOp34
 70
     1
102
RTVSPost2010Prop35
280
     0
102
RTVSPost2010PropOp35
 70
     1
102
RTVSPost2010Prop36
280
     0
102
RTVSPost2010PropOp36
 70
     1
102
RTVSPost2010Prop37
 90
       50
102
RTVSPost2010PropOp37
 70
     1
102
RTVSPost2010Prop38
140
0.0
102
RTVSPost2010PropOp38
 70
     1
102
RTVSPost2010Prop39
140
1.0
102
RTVSPost2010PropOp39
 70
     1
102
RTVSPost2010Prop40
 90
        0
102
RTVSPost2010PropOp40
 70
     1
102
RTVSPost2010Prop41ColorIndex
 90
       18
102
RTVSPost2010Prop41ColorRGB
 90
        0
102
RTVSPost2010PropOp41
 70
     1
102
RTVSPost2010Prop42
 90
       50
102
RTVSPost2010PropOp42
 70
     1
102
RTVSPost2010Prop43
 90
        3
102
RTVSPost2010PropOp43
 70
     1
102
RTVSPost2010Prop44ColorIndex
 90
        5
102
RTVSPost2010Prop44ColorRGB
 90
      255
102
RTVSPost2010PropOp44
 70
     1
102
RTVSPost2010Prop45
280
     0
102
RTVSPost2010PropOp45
 70
     1
102
RTVSPost2010Prop46
 90
       50
102
RTVSPost2010PropOp46
 70
     1
102
RTVSPost2010Prop47
 90
       50
102
RTVSPost2010PropOp47
 70
     1
102
RTVSPost2010Prop48
 90
       50
102
RTVSPost2010PropOp48
 70
     1
102
RTVSPost2010Prop49
280
     0
102
RTVSPost2010PropOp49
 70
     1
102
RTVSPost2010Prop50
 90
       50
102
RTVSPost2010PropOp50
 70
     1
102
RTVSPost2010Prop51ColorIndex
 90
      256
102
RTVSPost2010Prop51ColorRGB
 90
-16777216
102
RTVSPost2010PropOp51
 70
     0
102
RTVSPost2010Prop52
140
1.0
102
RTVSPost2010PropOp52
 70
     0
102
RTVSPost2010Prop53
 90
        2
102
RTVSPost2010PropOp53
 70
     1
102
RTVSPost2010Prop54
  1
strokes_ogs.tif
102
RTVSPost2010PropOp54
 70
     1
102
RTVSPost2010Prop55
280
     0
102
RTVSPost2010PropOp55
 70
     1
102
RTVSPost2010Prop56
140
1.0
102
RTVSPost2010PropOp56
 70
     1
102
RTVSPost2010Prop57
140
1.0
102
RTVSPost2010PropOp57
 70
     1
  0
XRECORD
  5
166
102
{ACAD_REACTORS
330
165
102
}
330
165
100
AcDbXrecord
280
     1
102
RTVSPost2010Prop28
280
     0
102
RTVSPost2010PropOp28
 70
     1
102
RTVSPost2010Prop29
280
     1
102
RTVSPost2010PropOp29
 70
     1
102
RTVSPost2010Prop30
280
     1
102
RTVSPost2010PropOp30
 70
     1
102
RTVSPost2010Prop31
280
     0
102
RTVSPost2010PropOp31
 70
     1
102
RTVSPost2010Prop32
280
     0
102
RTVSPost2010PropOp32
 70
     1
102
RTVSPost2010Prop33
280
     0
102
RTVSPost2010PropOp33
 70
     1
102
RTVSPost2010Prop34
280
     0
102
RTVSPost2010PropOp34
 70
     1
102
RTVSPost2010Prop35
280
     0
102
RTVSPost2010PropOp35
 70
     1
102
RTVSPost2010Prop36
280
     0
102
RTVSPost2010PropOp36
 70
     1
102
RTVSPost2010Prop37
 90
       50
102
RTVSPost2010PropOp37
 70
     1
102
RTVSPost2010Prop38
140
0.0
102
RTVSPost2010PropOp38
 70
     1
102
RTVSPost2010Prop39
140
1.0
102
RTVSPost2010PropOp39
 70
     1
102
RTVSPost2010Prop40
 90
        0
102
RTVSPost2010PropOp40
 70
     1
102
RTVSPost2010Prop41ColorIndex
 90
       18
102
RTVSPost2010Prop41ColorRGB
 90
        0
102
RTVSPost2010PropOp41
 70
     1
102
RTVSPost2010Prop42
 90
       50
102
RTVSPost2010PropOp42
 70
     1
102
RTVSPost2010Prop43
 90
        3
102
RTVSPost2010PropOp43
 70
     1
102
RTVSPost2010Prop44ColorIndex
 90
        5
102
RTVSPost2010Prop44ColorRGB
 90
      255
102
RTVSPost2010PropOp44
 70
     1
102
RTVSPost2010Prop45
280
     0
102
RTVSPost2010PropOp45
 70
     1
102
RTVSPost2010Prop46
 90
       50
102
RTVSPost2010PropOp46
 70
     1
102
RTVSPost2010Prop47
 90
       50
102
RTVSPost2010PropOp47
 70
     1
102
RTVSPost2010Prop48
 90
       50
102
RTVSPost2010PropOp48
 70
     1
102
RTVSPost2010Prop49
280
     0
102
RTVSPost2010PropOp49
 70
     1
102
RTVSPost2010Prop50
 90
       50
102
RTVSPost2010PropOp50
 70
     1
102
RTVSPost2010Prop51ColorIndex
 90
      256
102
RTVSPost2010Prop51ColorRGB
 90
-16777216
102
RTVSPost2010PropOp51
 70
     0
102
RTVSPost2010Prop52
140
1.0
102
RTVSPost2010PropOp52
 70
     0
102
RTVSPost2010Prop53
 90
        2
102
RTVSPost2010PropOp53
 70
     1
102
RTVSPost2010Prop54
  1
strokes_ogs.tif
102
RTVSPost2010PropOp54
 70
     1
102
RTVSPost2010Prop55
280
     0
102
RTVSPost2010PropOp55
 70
     1
102
RTVSPost2010Prop56
140
1.0
102
RTVSPost2010PropOp56
 70
     1
102
RTVSPost2010Prop57
140
1.0
102
RTVSPost2010PropOp57
 70
     1
  0
XRECORD
  5
16E
102
{ACAD_REACTORS
330
16D
102
}
330
16D
100
AcDbXrecord
280
     1
102
RTVSPost2010Prop28
280
     0
102
RTVSPost2010PropOp28
 70
     1
102
RTVSPost2010Prop29
280
     1
102
RTVSPost2010PropOp29
 70
     1
102
RTVSPost2010Prop30
280
     1
102
RTVSPost2010PropOp30
 70
     1
102
RTVSPost2010Prop31
280
     0
102
RTVSPost2010PropOp31
 70
     1
102
RTVSPost2010Prop32
280
     0
102
RTVSPost2010PropOp32
 70
     1
102
RTVSPost2010Prop33
280
     0
102
RTVSPost2010PropOp33
 70
     1
102
RTVSPost2010Prop34
280
     0
102
RTVSPost2010PropOp34
 70
     1
102
RTVSPost2010Prop35
280
     0
102
RTVSPost2010PropOp35
 70
     1
102
RTVSPost2010Prop36
280
     0
102
RTVSPost2010PropOp36
 70
     1
102
RTVSPost2010Prop37
 90
       50
102
RTVSPost2010PropOp37
 70
     1
102
RTVSPost2010Prop38
140
0.0
102
RTVSPost2010PropOp38
 70
     1
102
RTVSPost2010Prop39
140
1.0
102
RTVSPost2010PropOp39
 70
     1
102
RTVSPost2010Prop40
 90
        0
102
RTVSPost2010PropOp40
 70
     1
102
RTVSPost2010Prop41ColorIndex
 90
       18
102
RTVSPost2010Prop41ColorRGB
 90
        0
102
RTVSPost2010PropOp41
 70
     1
102
RTVSPost2010Prop42
 90
       50
102
RTVSPost2010PropOp42
 70
     1
102
RTVSPost2010Prop43
 90
        3
102
RTVSPost2010PropOp43
 70
     1
102
RTVSPost2010Prop44ColorIndex
 90
        5
102
RTVSPost2010Prop44ColorRGB
 90
      255
102
RTVSPost2010PropOp44
 70
     1
102
RTVSPost2010Prop45
280
     0
102
RTVSPost2010PropOp45
 70
     1
102
RTVSPost2010Prop46
 90
       50
102
RTVSPost2010PropOp46
 70
     1
102
RTVSPost2010Prop47
 90
       50
102
RTVSPost2010PropOp47
 70
     1
102
RTVSPost2010Prop48
 90
       50
102
RTVSPost2010PropOp48
 70
     1
102
RTVSPost2010Prop49
280
     0
102
RTVSPost2010PropOp49
 70
     1
102
RTVSPost2010Prop50
 90
       50
102
RTVSPost2010PropOp50
 70
     1
102
RTVSPost2010Prop51ColorIndex
 90
      256
102
RTVSPost2010Prop51ColorRGB
 90
-16777216
102
RTVSPost2010PropOp51
 70
     0
102
RTVSPost2010Prop52
140
1.0
102
RTVSPost2010PropOp52
 70
     0
102
RTVSPost2010Prop53
 90
        2
102
RTVSPost2010PropOp53
 70
     1
102
RTVSPost2010Prop54
  1
strokes_ogs.tif
102
RTVSPost2010PropOp54
 70
     1
102
RTVSPost2010Prop55
280
     0
102
RTVSPost2010PropOp55
 70
     1
102
RTVSPost2010Prop56
140
1.0
102
RTVSPost2010PropOp56
 70
     1
102
RTVSPost2010Prop57
140
1.0
102
RTVSPost2010PropOp57
 70
     1
  0
XRECORD
  5
160
102
{ACAD_REACTORS
330
15F
102
}
330
15F
100
AcDbXrecord
280
     1
102
RTVSPost2010Prop28
280
     0
102
RTVSPost2010PropOp28
 70
     1
102
RTVSPost2010Prop29
280
     1
102
RTVSPost2010PropOp29
 70
     1
102
RTVSPost2010Prop30
280
     1
102
RTVSPost2010PropOp30
 70
     1
102
RTVSPost2010Prop31
280
     0
102
RTVSPost2010PropOp31
 70
     1
102
RTVSPost2010Prop32
280
     0
102
RTVSPost2010PropOp32
 70
     1
102
RTVSPost2010Prop33
280
     0
102
RTVSPost2010PropOp33
 70
     1
102
RTVSPost2010Prop34
280
     0
102
RTVSPost2010PropOp34
 70
     1
102
RTVSPost2010Prop35
280
     0
102
RTVSPost2010PropOp35
 70
     1
102
RTVSPost2010Prop36
280
     0
102
RTVSPost2010PropOp36
 70
     1
102
RTVSPost2010Prop37
 90
       50
102
RTVSPost2010PropOp37
 70
     1
102
RTVSPost2010Prop38
140
0.0
102
RTVSPost2010PropOp38
 70
     1
102
RTVSPost2010Prop39
140
1.0
102
RTVSPost2010PropOp39
 70
     1
102
RTVSPost2010Prop40
 90
        0
102
RTVSPost2010PropOp40
 70
     1
102
RTVSPost2010Prop41ColorIndex
 90
       18
102
RTVSPost2010Prop41ColorRGB
 90
        0
102
RTVSPost2010PropOp41
 70
     1
102
RTVSPost2010Prop42
 90
       50
102
RTVSPost2010PropOp42
 70
     1
102
RTVSPost2010Prop43
 90
        3
102
RTVSPost2010PropOp43
 70
     1
102
RTVSPost2010Prop44ColorIndex
 90
        5
102
RTVSPost2010Prop44ColorRGB
 90
      255
102
RTVSPost2010PropOp44
 70
     1
102
RTVSPost2010Prop45
280
     0
102
RTVSPost2010PropOp45
 70
     1
102
RTVSPost2010Prop46
 90
       50
102
RTVSPost2010PropOp46
 70
     1
102
RTVSPost2010Prop47
 90
       50
102
RTVSPost2010PropOp47
 70
     1
102
RTVSPost2010Prop48
 90
       50
102
RTVSPost2010PropOp48
 70
     1
102
RTVSPost2010Prop49
280
     0
102
RTVSPost2010PropOp49
 70
     1
102
RTVSPost2010Prop50
 90
       50
102
RTVSPost2010PropOp50
 70
     1
102
RTVSPost2010Prop51ColorIndex
 90
      256
102
RTVSPost2010Prop51ColorRGB
 90
-16777216
102
RTVSPost2010PropOp51
 70
     0
102
RTVSPost2010Prop52
140
1.0
102
RTVSPost2010PropOp52
 70
     0
102
RTVSPost2010Prop53
 90
        2
102
RTVSPost2010PropOp53
 70
     1
102
RTVSPost2010Prop54
  1
strokes_ogs.tif
102
RTVSPost2010PropOp54
 70
     1
102
RTVSPost2010Prop55
280
     0
102
RTVSPost2010PropOp55
 70
     1
102
RTVSPost2010Prop56
140
1.0
102
RTVSPost2010PropOp56
 70
     1
102
RTVSPost2010Prop57
140
1.0
102
RTVSPost2010PropOp57
 70
     1
  0
XRECORD
  5
164
102
{ACAD_REACTORS
330
163
102
}
330
163
100
AcDbXrecord
280
     1
102
RTVSPost2010Prop28
280
     0
102
RTVSPost2010PropOp28
 70
     1
102
RTVSPost2010Prop29
280
     1
102
RTVSPost2010PropOp29
 70
     1
102
RTVSPost2010Prop30
280
     1
102
RTVSPost2010PropOp30
 70
     1
102
RTVSPost2010Prop31
280
     0
102
RTVSPost2010PropOp31
 70
     1
102
RTVSPost2010Prop32
280
     0
102
RTVSPost2010PropOp32
 70
     1
102
RTVSPost2010Prop33
280
     0
102
RTVSPost2010PropOp33
 70
     1
102
RTVSPost2010Prop34
280
     0
102
RTVSPost2010PropOp34
 70
     1
102
RTVSPost2010Prop35
280
     0
102
RTVSPost2010PropOp35
 70
     1
102
RTVSPost2010Prop36
280
     0
102
RTVSPost2010PropOp36
 70
     1
102
RTVSPost2010Prop37
 90
       50
102
RTVSPost2010PropOp37
 70
     1
102
RTVSPost2010Prop38
140
0.0
102
RTVSPost2010PropOp38
 70
     1
102
RTVSPost2010Prop39
140
1.0
102
RTVSPost2010PropOp39
 70
     1
102
RTVSPost2010Prop40
 90
        0
102
RTVSPost2010PropOp40
 70
     1
102
RTVSPost2010Prop41ColorIndex
 90
       18
102
RTVSPost2010Prop41ColorRGB
 90
        0
102
RTVSPost2010PropOp41
 70
     1
102
RTVSPost2010Prop42
 90
       50
102
RTVSPost2010PropOp42
 70
     1
102
RTVSPost2010Prop43
 90
        3
102
RTVSPost2010PropOp43
 70
     1
102
RTVSPost2010Prop44ColorIndex
 90
        5
102
RTVSPost2010Prop44ColorRGB
 90
      255
102
RTVSPost2010PropOp44
 70
     1
102
RTVSPost2010Prop45
280
     0
102
RTVSPost2010PropOp45
 70
     1
102
RTVSPost2010Prop46
 90
       50
102
RTVSPost2010PropOp46
 70
     1
102
RTVSPost2010Prop47
 90
       50
102
RTVSPost2010PropOp47
 70
     1
102
RTVSPost2010Prop48
 90
       50
102
RTVSPost2010PropOp48
 70
     1
102
RTVSPost2010Prop49
280
     0
102
RTVSPost2010PropOp49
 70
     1
102
RTVSPost2010Prop50
 90
       50
102
RTVSPost2010PropOp50
 70
     1
102
RTVSPost2010Prop51ColorIndex
 90
      256
102
RTVSPost2010Prop51ColorRGB
 90
-16777216
102
RTVSPost2010PropOp51
 70
     0
102
RTVSPost2010Prop52
140
1.0
102
RTVSPost2010PropOp52
 70
     0
102
RTVSPost2010Prop53
 90
        2
102
RTVSPost2010PropOp53
 70
     1
102
RTVSPost2010Prop54
  1
strokes_ogs.tif
102
RTVSPost2010PropOp54
 70
     1
102
RTVSPost2010Prop55
280
     0
102
RTVSPost2010PropOp55
 70
     1
102
RTVSPost2010Prop56
140
1.0
102
RTVSPost2010PropOp56
 70
     1
102
RTVSPost2010Prop57
140
1.0
102
RTVSPost2010PropOp57
 70
     1
  0
XRECORD
  5
17E
102
{ACAD_REACTORS
330
17D
102
}
330
17D
100
AcDbXrecord
280
     1
102
RTVSPost2010Prop28
280
     0
102
RTVSPost2010PropOp28
 70
     0
102
RTVSPost2010Prop29
280
     1
102
RTVSPost2010PropOp29
 70
     0
102
RTVSPost2010Prop30
280
     1
102
RTVSPost2010PropOp30
 70
     0
102
RTVSPost2010Prop31
280
     0
102
RTVSPost2010PropOp31
 70
     0
102
RTVSPost2010Prop32
280
     0
102
RTVSPost2010PropOp32
 70
     0
102
RTVSPost2010Prop33
280
     0
102
RTVSPost2010PropOp33
 70
     0
102
RTVSPost2010Prop34
280
     0
102
RTVSPost2010PropOp34
 70
     0
102
RTVSPost2010Prop35
280
     0
102
RTVSPost2010PropOp35
 70
     0
102
RTVSPost2010Prop36
280
     0
102
RTVSPost2010PropOp36
 70
     0
102
RTVSPost2010Prop37
 90
       50
102
RTVSPost2010PropOp37
 70
     0
102
RTVSPost2010Prop38
140
0.0
102
RTVSPost2010PropOp38
 70
     0
102
RTVSPost2010Prop39
140
1.0
102
RTVSPost2010PropOp39
 70
     0
102
RTVSPost2010Prop40
 90
        0
102
RTVSPost2010PropOp40
 70
     0
102
RTVSPost2010Prop41ColorIndex
 90
       18
102
RTVSPost2010Prop41ColorRGB
 90
        0
102
RTVSPost2010PropOp41
 70
     0
102
RTVSPost2010Prop42
 90
       50
102
RTVSPost2010PropOp42
 70
     0
102
RTVSPost2010Prop43
 90
        3
102
RTVSPost2010PropOp43
 70
     0
102
RTVSPost2010Prop44ColorIndex
 90
        5
102
RTVSPost2010Prop44ColorRGB
 90
      255
102
RTVSPost2010PropOp44
 70
     0
102
RTVSPost2010Prop45
280
     0
102
RTVSPost2010PropOp45
 70
     0
102
RTVSPost2010Prop46
 90
       50
102
RTVSPost2010PropOp46
 70
     0
102
RTVSPost2010Prop47
 90
       50
102
RTVSPost2010PropOp47
 70
     0
102
RTVSPost2010Prop48
 90
       50
102
RTVSPost2010PropOp48
 70
     0
102
RTVSPost2010Prop49
280
     0
102
RTVSPost2010PropOp49
 70
     0
102
RTVSPost2010Prop50
 90
       50
102
RTVSPost2010PropOp50
 70
     0
102
RTVSPost2010Prop51ColorIndex
 90
      256
102
RTVSPost2010Prop51ColorRGB
 90
-16777216
102
RTVSPost2010PropOp51
 70
     0
102
RTVSPost2010Prop52
140
1.0
102
RTVSPost2010PropOp52
 70
     0
102
RTVSPost2010Prop53
 90
        2
102
RTVSPost2010PropOp53
 70
     0
102
RTVSPost2010Prop54
  1
strokes_ogs.tif
102
RTVSPost2010PropOp54
 70
     0
102
RTVSPost2010Prop55
280
     0
102
RTVSPost2010PropOp55
 70
     0
102
RTVSPost2010Prop56
140
1.0
102
RTVSPost2010PropOp56
 70
     0
102
RTVSPost2010Prop57
140
1.0
102
RTVSPost2010PropOp57
 70
     0
  0
XRECORD
  5
16C
102
{ACAD_REACTORS
330
16B
102
}
330
16B
100
AcDbXrecord
280
     1
102
RTVSPost2010Prop28
280
     0
102
RTVSPost2010PropOp28
 70
     1
102
RTVSPost2010Prop29
280
     1
102
RTVSPost2010PropOp29
 70
     1
102
RTVSPost2010Prop30
280
     1
102
RTVSPost2010PropOp30
 70
     1
102
RTVSPost2010Prop31
280
     0
102
RTVSPost2010PropOp31
 70
     1
102
RTVSPost2010Prop32
280
     0
102
RTVSPost2010PropOp32
 70
     1
102
RTVSPost2010Prop33
280
     0
102
RTVSPost2010PropOp33
 70
     1
102
RTVSPost2010Prop34
280
     0
102
RTVSPost2010PropOp34
 70
     1
102
RTVSPost2010Prop35
280
     0
102
RTVSPost2010PropOp35
 70
     1
102
RTVSPost2010Prop36
280
     0
102
RTVSPost2010PropOp36
 70
     1
102
RTVSPost2010Prop37
 90
       50
102
RTVSPost2010PropOp37
 70
     1
102
RTVSPost2010Prop38
140
0.0
102
RTVSPost2010PropOp38
 70
     1
102
RTVSPost2010Prop39
140
1.0
102
RTVSPost2010PropOp39
 70
     1
102
RTVSPost2010Prop40
 90
        0
102
RTVSPost2010PropOp40
 70
     1
102
RTVSPost2010Prop41ColorIndex
 90
       18
102
RTVSPost2010Prop41ColorRGB
 90
        0
102
RTVSPost2010PropOp41
 70
     1
102
RTVSPost2010Prop42
 90
       50
102
RTVSPost2010PropOp42
 70
     1
102
RTVSPost2010Prop43
 90
        3
102
RTVSPost2010PropOp43
 70
     1
102
RTVSPost2010Prop44ColorIndex
 90
        5
102
RTVSPost2010Prop44ColorRGB
 90
      255
102
RTVSPost2010PropOp44
 70
     1
102
RTVSPost2010Prop45
280
     0
102
RTVSPost2010PropOp45
 70
     1
102
RTVSPost2010Prop46
 90
       50
102
RTVSPost2010PropOp46
 70
     1
102
RTVSPost2010Prop47
 90
       50
102
RTVSPost2010PropOp47
 70
     1
102
RTVSPost2010Prop48
 90
       50
102
RTVSPost2010PropOp48
 70
     1
102
RTVSPost2010Prop49
280
     0
102
RTVSPost2010PropOp49
 70
     1
102
RTVSPost2010Prop50
 90
       50
102
RTVSPost2010PropOp50
 70
     1
102
RTVSPost2010Prop51ColorIndex
 90
      256
102
RTVSPost2010Prop51ColorRGB
 90
-16777216
102
RTVSPost2010PropOp51
 70
     0
102
RTVSPost2010Prop52
140
1.0
102
RTVSPost2010PropOp52
 70
     0
102
RTVSPost2010Prop53
 90
        2
102
RTVSPost2010PropOp53
 70
     1
102
RTVSPost2010Prop54
  1
strokes_ogs.tif
102
RTVSPost2010PropOp54
 70
     1
102
RTVSPost2010Prop55
280
     0
102
RTVSPost2010PropOp55
 70
     1
102
RTVSPost2010Prop56
140
1.0
102
RTVSPost2010PropOp56
 70
     1
102
RTVSPost2010Prop57
140
1.0
102
RTVSPost2010PropOp57
 70
     1
  0
XRECORD
  5
150
102
{ACAD_REACTORS
330
14F
102
}
330
14F
100
AcDbXrecord
280
     1
102
RTVSPost2010Prop28
280
     0
102
RTVSPost2010PropOp28
 70
     1
102
RTVSPost2010Prop29
280
     1
102
RTVSPost2010PropOp29
 70
     1
102
RTVSPost2010Prop30
280
     1
102
RTVSPost2010PropOp30
 70
     1
102
RTVSPost2010Prop31
280
     0
102
RTVSPost2010PropOp31
 70
     1
102
RTVSPost2010Prop32
280
     0
102
RTVSPost2010PropOp32
 70
     1
102
RTVSPost2010Prop33
280
     0
102
RTVSPost2010PropOp33
 70
     1
102
RTVSPost2010Prop34
280
     0
102
RTVSPost2010PropOp34
 70
     1
102
RTVSPost2010Prop35
280
     0
102
RTVSPost2010PropOp35
 70
     1
102
RTVSPost2010Prop36
280
     0
102
RTVSPost2010PropOp36
 70
     1
102
RTVSPost2010Prop37
 90
       50
102
RTVSPost2010PropOp37
 70
     1
102
RTVSPost2010Prop38
140
0.0
102
RTVSPost2010PropOp38
 70
     1
102
RTVSPost2010Prop39
140
1.0
102
RTVSPost2010PropOp39
 70
     1
102
RTVSPost2010Prop40
 90
        0
102
RTVSPost2010PropOp40
 70
     1
102
RTVSPost2010Prop41ColorIndex
 90
       18
102
RTVSPost2010Prop41ColorRGB
 90
        0
102
RTVSPost2010PropOp41
 70
     1
102
RTVSPost2010Prop42
 90
       50
102
RTVSPost2010PropOp42
 70
     1
102
RTVSPost2010Prop43
 90
        3
102
RTVSPost2010PropOp43
 70
     1
102
RTVSPost2010Prop44ColorIndex
 90
        5
102
RTVSPost2010Prop44ColorRGB
 90
      255
102
RTVSPost2010PropOp44
 70
     1
102
RTVSPost2010Prop45
280
     0
102
RTVSPost2010PropOp45
 70
     1
102
RTVSPost2010Prop46
 90
       50
102
RTVSPost2010PropOp46
 70
     1
102
RTVSPost2010Prop47
 90
       50
102
RTVSPost2010PropOp47
 70
     1
102
RTVSPost2010Prop48
 90
       50
102
RTVSPost2010PropOp48
 70
     1
102
RTVSPost2010Prop49
280
     0
102
RTVSPost2010PropOp49
 70
     1
102
RTVSPost2010Prop50
 90
       50
102
RTVSPost2010PropOp50
 70
     1
102
RTVSPost2010Prop51ColorIndex
 90
      256
102
RTVSPost2010Prop51ColorRGB
 90
-16777216
102
RTVSPost2010PropOp51
 70
     0
102
RTVSPost2010Prop52
140
1.0
102
RTVSPost2010PropOp52
 70
     0
102
RTVSPost2010Prop53
 90
        2
102
RTVSPost2010PropOp53
 70
     1
102
RTVSPost2010Prop54
  1
strokes_ogs.tif
102
RTVSPost2010PropOp54
 70
     1
102
RTVSPost2010Prop55
280
     0
102
RTVSPost2010PropOp55
 70
     1
102
RTVSPost2010Prop56
140
1.0
102
RTVSPost2010PropOp56
 70
     1
102
RTVSPost2010Prop57
140
1.0
102
RTVSPost2010PropOp57
 70
     1
  0
XRECORD
  5
152
102
{ACAD_REACTORS
330
151
102
}
330
151
100
AcDbXrecord
280
     1
102
RTVSPost2010Prop28
280
     0
102
RTVSPost2010PropOp28
 70
     1
102
RTVSPost2010Prop29
280
     1
102
RTVSPost2010PropOp29
 70
     1
102
RTVSPost2010Prop30
280
     1
102
RTVSPost2010PropOp30
 70
     1
102
RTVSPost2010Prop31
280
     0
102
RTVSPost2010PropOp31
 70
     1
102
RTVSPost2010Prop32
280
     0
102
RTVSPost2010PropOp32
 70
     1
102
RTVSPost2010Prop33
280
     0
102
RTVSPost2010PropOp33
 70
     1
102
RTVSPost2010Prop34
280
     0
102
RTVSPost2010PropOp34
 70
     1
102
RTVSPost2010Prop35
280
     0
102
RTVSPost2010PropOp35
 70
     1
102
RTVSPost2010Prop36
280
     0
102
RTVSPost2010PropOp36
 70
     1
102
RTVSPost2010Prop37
 90
       50
102
RTVSPost2010PropOp37
 70
     1
102
RTVSPost2010Prop38
140
0.0
102
RTVSPost2010PropOp38
 70
     1
102
RTVSPost2010Prop39
140
1.0
102
RTVSPost2010PropOp39
 70
     1
102
RTVSPost2010Prop40
 90
        0
102
RTVSPost2010PropOp40
 70
     1
102
RTVSPost2010Prop41ColorIndex
 90
       18
102
RTVSPost2010Prop41ColorRGB
 90
        0
102
RTVSPost2010PropOp41
 70
     1
102
RTVSPost2010Prop42
 90
       50
102
RTVSPost2010PropOp42
 70
     1
102
RTVSPost2010Prop43
 90
        3
102
RTVSPost2010PropOp43
 70
     1
102
RTVSPost2010Prop44ColorIndex
 90
        5
102
RTVSPost2010Prop44ColorRGB
 90
      255
102
RTVSPost2010PropOp44
 70
     1
102
RTVSPost2010Prop45
280
     0
102
RTVSPost2010PropOp45
 70
     1
102
RTVSPost2010Prop46
 90
       50
102
RTVSPost2010PropOp46
 70
     1
102
RTVSPost2010Prop47
 90
       50
102
RTVSPost2010PropOp47
 70
     1
102
RTVSPost2010Prop48
 90
       50
102
RTVSPost2010PropOp48
 70
     1
102
RTVSPost2010Prop49
280
     0
102
RTVSPost2010PropOp49
 70
     1
102
RTVSPost2010Prop50
 90
       50
102
RTVSPost2010PropOp50
 70
     1
102
RTVSPost2010Prop51ColorIndex
 90
      256
102
RTVSPost2010Prop51ColorRGB
 90
-16777216
102
RTVSPost2010PropOp51
 70
     0
102
RTVSPost2010Prop52
140
1.0
102
RTVSPost2010PropOp52
 70
     0
102
RTVSPost2010Prop53
 90
        2
102
RTVSPost2010PropOp53
 70
     1
102
RTVSPost2010Prop54
  1
strokes_ogs.tif
102
RTVSPost2010PropOp54
 70
     1
102
RTVSPost2010Prop55
280
     0
102
RTVSPost2010PropOp55
 70
     1
102
RTVSPost2010Prop56
140
1.0
102
RTVSPost2010PropOp56
 70
     1
102
RTVSPost2010Prop57
140
1.0
102
RTVSPost2010PropOp57
 70
     1
  0
XRECORD
  5
154
102
{ACAD_REACTORS
330
153
102
}
330
153
100
AcDbXrecord
280
     1
102
RTVSPost2010Prop28
280
     0
102
RTVSPost2010PropOp28
 70
     1
102
RTVSPost2010Prop29
280
     1
102
RTVSPost2010PropOp29
 70
     1
102
RTVSPost2010Prop30
280
     1
102
RTVSPost2010PropOp30
 70
     1
102
RTVSPost2010Prop31
280
     0
102
RTVSPost2010PropOp31
 70
     1
102
RTVSPost2010Prop32
280
     0
102
RTVSPost2010PropOp32
 70
     1
102
RTVSPost2010Prop33
280
     0
102
RTVSPost2010PropOp33
 70
     1
102
RTVSPost2010Prop34
280
     0
102
RTVSPost2010PropOp34
 70
     1
102
RTVSPost2010Prop35
280
     0
102
RTVSPost2010PropOp35
 70
     1
102
RTVSPost2010Prop36
280
     0
102
RTVSPost2010PropOp36
 70
     1
102
RTVSPost2010Prop37
 90
       50
102
RTVSPost2010PropOp37
 70
     1
102
RTVSPost2010Prop38
140
0.0
102
RTVSPost2010PropOp38
 70
     1
102
RTVSPost2010Prop39
140
1.0
102
RTVSPost2010PropOp39
 70
     1
102
RTVSPost2010Prop40
 90
        0
102
RTVSPost2010PropOp40
 70
     1
102
RTVSPost2010Prop41ColorIndex
 90
       18
102
RTVSPost2010Prop41ColorRGB
 90
        0
102
RTVSPost2010PropOp41
 70
     1
102
RTVSPost2010Prop42
 90
       50
102
RTVSPost2010PropOp42
 70
     1
102
RTVSPost2010Prop43
 90
        3
102
RTVSPost2010PropOp43
 70
     1
102
RTVSPost2010Prop44ColorIndex
 90
        5
102
RTVSPost2010Prop44ColorRGB
 90
      255
102
RTVSPost2010PropOp44
 70
     1
102
RTVSPost2010Prop45
280
     0
102
RTVSPost2010PropOp45
 70
     1
102
RTVSPost2010Prop46
 90
       50
102
RTVSPost2010PropOp46
 70
     1
102
RTVSPost2010Prop47
 90
       50
102
RTVSPost2010PropOp47
 70
     1
102
RTVSPost2010Prop48
 90
       50
102
RTVSPost2010PropOp48
 70
     1
102
RTVSPost2010Prop49
280
     0
102
RTVSPost2010PropOp49
 70
     1
102
RTVSPost2010Prop50
 90
       50
102
RTVSPost2010PropOp50
 70
     1
102
RTVSPost2010Prop51ColorIndex
 90
      256
102
RTVSPost2010Prop51ColorRGB
 90
-16777216
102
RTVSPost2010PropOp51
 70
     0
102
RTVSPost2010Prop52
140
1.0
102
RTVSPost2010PropOp52
 70
     0
102
RTVSPost2010Prop53
 90
        2
102
RTVSPost2010PropOp53
 70
     1
102
RTVSPost2010Prop54
  1
strokes_ogs.tif
102
RTVSPost2010PropOp54
 70
     1
102
RTVSPost2010Prop55
280
     0
102
RTVSPost2010PropOp55
 70
     1
102
RTVSPost2010Prop56
140
1.0
102
RTVSPost2010PropOp56
 70
     1
102
RTVSPost2010Prop57
140
1.0
102
RTVSPost2010PropOp57
 70
     1
  0
XRECORD
  5
156
102
{ACAD_REACTORS
330
155
102
}
330
155
100
AcDbXrecord
280
     1
102
RTVSPost2010Prop28
280
     0
102
RTVSPost2010PropOp28
 70
     1
102
RTVSPost2010Prop29
280
     1
102
RTVSPost2010PropOp29
 70
     1
102
RTVSPost2010Prop30
280
     1
102
RTVSPost2010PropOp30
 70
     1
102
RTVSPost2010Prop31
280
     0
102
RTVSPost2010PropOp31
 70
     1
102
RTVSPost2010Prop32
280
     0
102
RTVSPost2010PropOp32
 70
     1
102
RTVSPost2010Prop33
280
     0
102
RTVSPost2010PropOp33
 70
     1
102
RTVSPost2010Prop34
280
     0
102
RTVSPost2010PropOp34
 70
     1
102
RTVSPost2010Prop35
280
     0
102
RTVSPost2010PropOp35
 70
     1
102
RTVSPost2010Prop36
280
     0
102
RTVSPost2010PropOp36
 70
     1
102
RTVSPost2010Prop37
 90
       50
102
RTVSPost2010PropOp37
 70
     1
102
RTVSPost2010Prop38
140
0.0
102
RTVSPost2010PropOp38
 70
     1
102
RTVSPost2010Prop39
140
1.0
102
RTVSPost2010PropOp39
 70
     1
102
RTVSPost2010Prop40
 90
        0
102
RTVSPost2010PropOp40
 70
     1
102
RTVSPost2010Prop41ColorIndex
 90
       18
102
RTVSPost2010Prop41ColorRGB
 90
        0
102
RTVSPost2010PropOp41
 70
     1
102
RTVSPost2010Prop42
 90
       50
102
RTVSPost2010PropOp42
 70
     1
102
RTVSPost2010Prop43
 90
        3
102
RTVSPost2010PropOp43
 70
     1
102
RTVSPost2010Prop44ColorIndex
 90
        5
102
RTVSPost2010Prop44ColorRGB
 90
      255
102
RTVSPost2010PropOp44
 70
     1
102
RTVSPost2010Prop45
280
     0
102
RTVSPost2010PropOp45
 70
     1
102
RTVSPost2010Prop46
 90
       50
102
RTVSPost2010PropOp46
 70
     1
102
RTVSPost2010Prop47
 90
       50
102
RTVSPost2010PropOp47
 70
     1
102
RTVSPost2010Prop48
 90
       50
102
RTVSPost2010PropOp48
 70
     1
102
RTVSPost2010Prop49
280
     0
102
RTVSPost2010PropOp49
 70
     1
102
RTVSPost2010Prop50
 90
       50
102
RTVSPost2010PropOp50
 70
     1
102
RTVSPost2010Prop51ColorIndex
 90
      256
102
RTVSPost2010Prop51ColorRGB
 90
-16777216
102
RTVSPost2010PropOp51
 70
     0
102
RTVSPost2010Prop52
140
1.0
102
RTVSPost2010PropOp52
 70
     0
102
RTVSPost2010Prop53
 90
        2
102
RTVSPost2010PropOp53
 70
     1
102
RTVSPost2010Prop54
  1
strokes_ogs.tif
102
RTVSPost2010PropOp54
 70
     1
102
RTVSPost2010Prop55
280
     0
102
RTVSPost2010PropOp55
 70
     1
102
RTVSPost2010Prop56
140
1.0
102
RTVSPost2010PropOp56
 70
     1
102
RTVSPost2010Prop57
140
1.0
102
RTVSPost2010PropOp57
 70
     1
  0
XRECORD
  5
15E
102
{ACAD_REACTORS
330
15D
102
}
330
15D
100
AcDbXrecord
280
     1
102
RTVSPost2010Prop28
280
     0
102
RTVSPost2010PropOp28
 70
     1
102
RTVSPost2010Prop29
280
     1
102
RTVSPost2010PropOp29
 70
     1
102
RTVSPost2010Prop30
280
     1
102
RTVSPost2010PropOp30
 70
     1
102
RTVSPost2010Prop31
280
     0
102
RTVSPost2010PropOp31
 70
     1
102
RTVSPost2010Prop32
280
     0
102
RTVSPost2010PropOp32
 70
     1
102
RTVSPost2010Prop33
280
     0
102
RTVSPost2010PropOp33
 70
     1
102
RTVSPost2010Prop34
280
     0
102
RTVSPost2010PropOp34
 70
     1
102
RTVSPost2010Prop35
280
     0
102
RTVSPost2010PropOp35
 70
     1
102
RTVSPost2010Prop36
280
     0
102
RTVSPost2010PropOp36
 70
     1
102
RTVSPost2010Prop37
 90
       50
102
RTVSPost2010PropOp37
 70
     1
102
RTVSPost2010Prop38
140
0.0
102
RTVSPost2010PropOp38
 70
     1
102
RTVSPost2010Prop39
140
1.0
102
RTVSPost2010PropOp39
 70
     1
102
RTVSPost2010Prop40
 90
        0
102
RTVSPost2010PropOp40
 70
     1
102
RTVSPost2010Prop41ColorIndex
 90
       18
102
RTVSPost2010Prop41ColorRGB
 90
        0
102
RTVSPost2010PropOp41
 70
     1
102
RTVSPost2010Prop42
 90
       50
102
RTVSPost2010PropOp42
 70
     1
102
RTVSPost2010Prop43
 90
        3
102
RTVSPost2010PropOp43
 70
     1
102
RTVSPost2010Prop44ColorIndex
 90
        5
102
RTVSPost2010Prop44ColorRGB
 90
      255
102
RTVSPost2010PropOp44
 70
     1
102
RTVSPost2010Prop45
280
     0
102
RTVSPost2010PropOp45
 70
     1
102
RTVSPost2010Prop46
 90
       50
102
RTVSPost2010PropOp46
 70
     1
102
RTVSPost2010Prop47
 90
       50
102
RTVSPost2010PropOp47
 70
     1
102
RTVSPost2010Prop48
 90
       50
102
RTVSPost2010PropOp48
 70
     1
102
RTVSPost2010Prop49
280
     0
102
RTVSPost2010PropOp49
 70
     1
102
RTVSPost2010Prop50
 90
       50
102
RTVSPost2010PropOp50
 70
     1
102
RTVSPost2010Prop51ColorIndex
 90
      256
102
RTVSPost2010Prop51ColorRGB
 90
-16777216
102
RTVSPost2010PropOp51
 70
     0
102
RTVSPost2010Prop52
140
1.0
102
RTVSPost2010PropOp52
 70
     0
102
RTVSPost2010Prop53
 90
        2
102
RTVSPost2010PropOp53
 70
     1
102
RTVSPost2010Prop54
  1
strokes_ogs.tif
102
RTVSPost2010PropOp54
 70
     1
102
RTVSPost2010Prop55
280
     0
102
RTVSPost2010PropOp55
 70
     1
102
RTVSPost2010Prop56
140
1.0
102
RTVSPost2010PropOp56
 70
     1
102
RTVSPost2010Prop57
140
1.0
102
RTVSPost2010PropOp57
 70
     1
  0
XRECORD
  5
17A
102
{ACAD_REACTORS
330
179
102
}
330
179
100
AcDbXrecord
280
     1
102
RTVSPost2010Prop28
280
     0
102
RTVSPost2010PropOp28
 70
     0
102
RTVSPost2010Prop29
280
     1
102
RTVSPost2010PropOp29
 70
     0
102
RTVSPost2010Prop30
280
     1
102
RTVSPost2010PropOp30
 70
     0
102
RTVSPost2010Prop31
280
     0
102
RTVSPost2010PropOp31
 70
     0
102
RTVSPost2010Prop32
280
     0
102
RTVSPost2010PropOp32
 70
     0
102
RTVSPost2010Prop33
280
     0
102
RTVSPost2010PropOp33
 70
     0
102
RTVSPost2010Prop34
280
     0
102
RTVSPost2010PropOp34
 70
     0
102
RTVSPost2010Prop35
280
     0
102
RTVSPost2010PropOp35
 70
     0
102
RTVSPost2010Prop36
280
     0
102
RTVSPost2010PropOp36
 70
     0
102
RTVSPost2010Prop37
 90
       50
102
RTVSPost2010PropOp37
 70
     0
102
RTVSPost2010Prop38
140
0.0
102
RTVSPost2010PropOp38
 70
     0
102
RTVSPost2010Prop39
140
1.0
102
RTVSPost2010PropOp39
 70
     0
102
RTVSPost2010Prop40
 90
        0
102
RTVSPost2010PropOp40
 70
     0
102
RTVSPost2010Prop41ColorIndex
 90
       18
102
RTVSPost2010Prop41ColorRGB
 90
        0
102
RTVSPost2010PropOp41
 70
     0
102
RTVSPost2010Prop42
 90
       50
102
RTVSPost2010PropOp42
 70
     0
102
RTVSPost2010Prop43
 90
        3
102
RTVSPost2010PropOp43
 70
     0
102
RTVSPost2010Prop44ColorIndex
 90
        5
102
RTVSPost2010Prop44ColorRGB
 90
      255
102
RTVSPost2010PropOp44
 70
     0
102
RTVSPost2010Prop45
280
     0
102
RTVSPost2010PropOp45
 70
     0
102
RTVSPost2010Prop46
 90
       50
102
RTVSPost2010PropOp46
 70
     0
102
RTVSPost2010Prop47
 90
       50
102
RTVSPost2010PropOp47
 70
     0
102
RTVSPost2010Prop48
 90
       50
102
RTVSPost2010PropOp48
 70
     0
102
RTVSPost2010Prop49
280
     0
102
RTVSPost2010PropOp49
 70
     0
102
RTVSPost2010Prop50
 90
       50
102
RTVSPost2010PropOp50
 70
     0
102
RTVSPost2010Prop51ColorIndex
 90
      256
102
RTVSPost2010Prop51ColorRGB
 90
-16777216
102
RTVSPost2010PropOp51
 70
     0
102
RTVSPost2010Prop52
140
1.0
102
RTVSPost2010PropOp52
 70
     0
102
RTVSPost2010Prop53
 90
        2
102
RTVSPost2010PropOp53
 70
     0
102
RTVSPost2010Prop54
  1
strokes_ogs.tif
102
RTVSPost2010PropOp54
 70
     0
102
RTVSPost2010Prop55
280
     0
102
RTVSPost2010PropOp55
 70
     0
102
RTVSPost2010Prop56
140
1.0
102
RTVSPost2010PropOp56
 70
     0
102
RTVSPost2010Prop57
140
1.0
102
RTVSPost2010PropOp57
 70
     0
  0
XRECORD
  5
16A
102
{ACAD_REACTORS
330
169
102
}
330
169
100
AcDbXrecord
280
     1
102
RTVSPost2010Prop28
280
     0
102
RTVSPost2010PropOp28
 70
     1
102
RTVSPost2010Prop29
280
     1
102
RTVSPost2010PropOp29
 70
     1
102
RTVSPost2010Prop30
280
     1
102
RTVSPost2010PropOp30
 70
     1
102
RTVSPost2010Prop31
280
     0
102
RTVSPost2010PropOp31
 70
     1
102
RTVSPost2010Prop32
280
     0
102
RTVSPost2010PropOp32
 70
     1
102
RTVSPost2010Prop33
280
     0
102
RTVSPost2010PropOp33
 70
     1
102
RTVSPost2010Prop34
280
     0
102
RTVSPost2010PropOp34
 70
     1
102
RTVSPost2010Prop35
280
     0
102
RTVSPost2010PropOp35
 70
     1
102
RTVSPost2010Prop36
280
     0
102
RTVSPost2010PropOp36
 70
     1
102
RTVSPost2010Prop37
 90
       50
102
RTVSPost2010PropOp37
 70
     1
102
RTVSPost2010Prop38
140
0.0
102
RTVSPost2010PropOp38
 70
     1
102
RTVSPost2010Prop39
140
1.0
102
RTVSPost2010PropOp39
 70
     1
102
RTVSPost2010Prop40
 90
        0
102
RTVSPost2010PropOp40
 70
     1
102
RTVSPost2010Prop41ColorIndex
 90
       18
102
RTVSPost2010Prop41ColorRGB
 90
        0
102
RTVSPost2010PropOp41
 70
     1
102
RTVSPost2010Prop42
 90
       50
102
RTVSPost2010PropOp42
 70
     1
102
RTVSPost2010Prop43
 90
        3
102
RTVSPost2010PropOp43
 70
     1
102
RTVSPost2010Prop44ColorIndex
 90
        5
102
RTVSPost2010Prop44ColorRGB
 90
      255
102
RTVSPost2010PropOp44
 70
     1
102
RTVSPost2010Prop45
280
     0
102
RTVSPost2010PropOp45
 70
     1
102
RTVSPost2010Prop46
 90
       50
102
RTVSPost2010PropOp46
 70
     1
102
RTVSPost2010Prop47
 90
       50
102
RTVSPost2010PropOp47
 70
     1
102
RTVSPost2010Prop48
 90
       50
102
RTVSPost2010PropOp48
 70
     1
102
RTVSPost2010Prop49
280
     0
102
RTVSPost2010PropOp49
 70
     1
102
RTVSPost2010Prop50
 90
       50
102
RTVSPost2010PropOp50
 70
     1
102
RTVSPost2010Prop51ColorIndex
 90
      256
102
RTVSPost2010Prop51ColorRGB
 90
-16777216
102
RTVSPost2010PropOp51
 70
     0
102
RTVSPost2010Prop52
140
1.0
102
RTVSPost2010PropOp52
 70
     0
102
RTVSPost2010Prop53
 90
        2
102
RTVSPost2010PropOp53
 70
     1
102
RTVSPost2010Prop54
  1
strokes_ogs.tif
102
RTVSPost2010PropOp54
 70
     1
102
RTVSPost2010Prop55
280
     0
102
RTVSPost2010PropOp55
 70
     1
102
RTVSPost2010Prop56
140
1.0
102
RTVSPost2010PropOp56
 70
     1
102
RTVSPost2010Prop57
140
1.0
102
RTVSPost2010PropOp57
 70
     1
  0
XRECORD
  5
17C
102
{ACAD_REACTORS
330
17B
102
}
330
17B
100
AcDbXrecord
280
     1
102
RTVSPost2010Prop28
280
     0
102
RTVSPost2010PropOp28
 70
     0
102
RTVSPost2010Prop29
280
     1
102
RTVSPost2010PropOp29
 70
     0
102
RTVSPost2010Prop30
280
     1
102
RTVSPost2010PropOp30
 70
     0
102
RTVSPost2010Prop31
280
     0
102
RTVSPost2010PropOp31
 70
     0
102
RTVSPost2010Prop32
280
     0
102
RTVSPost2010PropOp32
 70
     0
102
RTVSPost2010Prop33
280
     0
102
RTVSPost2010PropOp33
 70
     0
102
RTVSPost2010Prop34
280
     0
102
RTVSPost2010PropOp34
 70
     0
102
RTVSPost2010Prop35
280
     0
102
RTVSPost2010PropOp35
 70
     0
102
RTVSPost2010Prop36
280
     0
102
RTVSPost2010PropOp36
 70
     0
102
RTVSPost2010Prop37
 90
       50
102
RTVSPost2010PropOp37
 70
     0
102
RTVSPost2010Prop38
140
0.0
102
RTVSPost2010PropOp38
 70
     0
102
RTVSPost2010Prop39
140
1.0
102
RTVSPost2010PropOp39
 70
     0
102
RTVSPost2010Prop40
 90
        0
102
RTVSPost2010PropOp40
 70
     0
102
RTVSPost2010Prop41ColorIndex
 90
       18
102
RTVSPost2010Prop41ColorRGB
 90
        0
102
RTVSPost2010PropOp41
 70
     0
102
RTVSPost2010Prop42
 90
       50
102
RTVSPost2010PropOp42
 70
     0
102
RTVSPost2010Prop43
 90
        3
102
RTVSPost2010PropOp43
 70
     0
102
RTVSPost2010Prop44ColorIndex
 90
        5
102
RTVSPost2010Prop44ColorRGB
 90
      255
102
RTVSPost2010PropOp44
 70
     0
102
RTVSPost2010Prop45
280
     0
102
RTVSPost2010PropOp45
 70
     0
102
RTVSPost2010Prop46
 90
       50
102
RTVSPost2010PropOp46
 70
     0
102
RTVSPost2010Prop47
 90
       50
102
RTVSPost2010PropOp47
 70
     0
102
RTVSPost2010Prop48
 90
       50
102
RTVSPost2010PropOp48
 70
     0
102
RTVSPost2010Prop49
280
     0
102
RTVSPost2010PropOp49
 70
     0
102
RTVSPost2010Prop50
 90
       50
102
RTVSPost2010PropOp50
 70
     0
102
RTVSPost2010Prop51ColorIndex
 90
      256
102
RTVSPost2010Prop51ColorRGB
 90
-16777216
102
RTVSPost2010PropOp51
 70
     0
102
RTVSPost2010Prop52
140
1.0
102
RTVSPost2010PropOp52
 70
     0
102
RTVSPost2010Prop53
 90
        2
102
RTVSPost2010PropOp53
 70
     0
102
RTVSPost2010Prop54
  1
strokes_ogs.tif
102
RTVSPost2010PropOp54
 70
     0
102
RTVSPost2010Prop55
280
     0
102
RTVSPost2010PropOp55
 70
     0
102
RTVSPost2010Prop56
140
1.0
102
RTVSPost2010PropOp56
 70
     0
102
RTVSPost2010Prop57
140
1.0
102
RTVSPost2010PropOp57
 70
     0
  0
XRECORD
  5
162
102
{ACAD_REACTORS
330
161
102
}
330
161
100
AcDbXrecord
280
     1
102
RTVSPost2010Prop28
280
     0
102
RTVSPost2010PropOp28
 70
     1
102
RTVSPost2010Prop29
280
     1
102
RTVSPost2010PropOp29
 70
     1
102
RTVSPost2010Prop30
280
     1
102
RTVSPost2010PropOp30
 70
     1
102
RTVSPost2010Prop31
280
     0
102
RTVSPost2010PropOp31
 70
     1
102
RTVSPost2010Prop32
280
     0
102
RTVSPost2010PropOp32
 70
     1
102
RTVSPost2010Prop33
280
     0
102
RTVSPost2010PropOp33
 70
     1
102
RTVSPost2010Prop34
280
     0
102
RTVSPost2010PropOp34
 70
     1
102
RTVSPost2010Prop35
280
     0
102
RTVSPost2010PropOp35
 70
     1
102
RTVSPost2010Prop36
280
     0
102
RTVSPost2010PropOp36
 70
     1
102
RTVSPost2010Prop37
 90
       50
102
RTVSPost2010PropOp37
 70
     1
102
RTVSPost2010Prop38
140
0.0
102
RTVSPost2010PropOp38
 70
     1
102
RTVSPost2010Prop39
140
1.0
102
RTVSPost2010PropOp39
 70
     1
102
RTVSPost2010Prop40
 90
        0
102
RTVSPost2010PropOp40
 70
     1
102
RTVSPost2010Prop41ColorIndex
 90
       18
102
RTVSPost2010Prop41ColorRGB
 90
        0
102
RTVSPost2010PropOp41
 70
     1
102
RTVSPost2010Prop42
 90
       50
102
RTVSPost2010PropOp42
 70
     1
102
RTVSPost2010Prop43
 90
        3
102
RTVSPost2010PropOp43
 70
     1
102
RTVSPost2010Prop44ColorIndex
 90
        5
102
RTVSPost2010Prop44ColorRGB
 90
      255
102
RTVSPost2010PropOp44
 70
     1
102
RTVSPost2010Prop45
280
     0
102
RTVSPost2010PropOp45
 70
     1
102
RTVSPost2010Prop46
 90
       50
102
RTVSPost2010PropOp46
 70
     1
102
RTVSPost2010Prop47
 90
       50
102
RTVSPost2010PropOp47
 70
     1
102
RTVSPost2010Prop48
 90
       50
102
RTVSPost2010PropOp48
 70
     1
102
RTVSPost2010Prop49
280
     0
102
RTVSPost2010PropOp49
 70
     1
102
RTVSPost2010Prop50
 90
       50
102
RTVSPost2010PropOp50
 70
     1
102
RTVSPost2010Prop51ColorIndex
 90
      256
102
RTVSPost2010Prop51ColorRGB
 90
-16777216
102
RTVSPost2010PropOp51
 70
     0
102
RTVSPost2010Prop52
140
1.0
102
RTVSPost2010PropOp52
 70
     0
102
RTVSPost2010Prop53
 90
        2
102
RTVSPost2010PropOp53
 70
     1
102
RTVSPost2010Prop54
  1
strokes_ogs.tif
102
RTVSPost2010PropOp54
 70
     1
102
RTVSPost2010Prop55
280
     0
102
RTVSPost2010PropOp55
 70
     1
102
RTVSPost2010Prop56
140
1.0
102
RTVSPost2010PropOp56
 70
     1
102
RTVSPost2010Prop57
140
1.0
102
RTVSPost2010PropOp57
 70
     1
  0
XRECORD
  5
178
102
{ACAD_REACTORS
330
177
102
}
330
177
100
AcDbXrecord
280
     1
102
RTVSPost2010Prop28
280
     0
102
RTVSPost2010PropOp28
 70
     1
102
RTVSPost2010Prop29
280
     1
102
RTVSPost2010PropOp29
 70
     1
102
RTVSPost2010Prop30
280
     1
102
RTVSPost2010PropOp30
 70
     1
102
RTVSPost2010Prop31
280
     0
102
RTVSPost2010PropOp31
 70
     1
102
RTVSPost2010Prop32
280
     0
102
RTVSPost2010PropOp32
 70
     1
102
RTVSPost2010Prop33
280
     0
102
RTVSPost2010PropOp33
 70
     1
102
RTVSPost2010Prop34
280
     0
102
RTVSPost2010PropOp34
 70
     1
102
RTVSPost2010Prop35
280
     0
102
RTVSPost2010PropOp35
 70
     1
102
RTVSPost2010Prop36
280
     0
102
RTVSPost2010PropOp36
 70
     1
102
RTVSPost2010Prop37
 90
       50
102
RTVSPost2010PropOp37
 70
     1
102
RTVSPost2010Prop38
140
0.0
102
RTVSPost2010PropOp38
 70
     1
102
RTVSPost2010Prop39
140
1.0
102
RTVSPost2010PropOp39
 70
     1
102
RTVSPost2010Prop40
 90
        0
102
RTVSPost2010PropOp40
 70
     1
102
RTVSPost2010Prop41ColorIndex
 90
       18
102
RTVSPost2010Prop41ColorRGB
 90
        0
102
RTVSPost2010PropOp41
 70
     1
102
RTVSPost2010Prop42
 90
       50
102
RTVSPost2010PropOp42
 70
     1
102
RTVSPost2010Prop43
 90
        3
102
RTVSPost2010PropOp43
 70
     1
102
RTVSPost2010Prop44ColorIndex
 90
        5
102
RTVSPost2010Prop44ColorRGB
 90
      255
102
RTVSPost2010PropOp44
 70
     1
102
RTVSPost2010Prop45
280
     0
102
RTVSPost2010PropOp45
 70
     1
102
RTVSPost2010Prop46
 90
       50
102
RTVSPost2010PropOp46
 70
     1
102
RTVSPost2010Prop47
 90
       50
102
RTVSPost2010PropOp47
 70
     1
102
RTVSPost2010Prop48
 90
       50
102
RTVSPost2010PropOp48
 70
     1
102
RTVSPost2010Prop49
280
     0
102
RTVSPost2010PropOp49
 70
     1
102
RTVSPost2010Prop50
 90
       50
102
RTVSPost2010PropOp50
 70
     1
102
RTVSPost2010Prop51ColorIndex
 90
      256
102
RTVSPost2010Prop51ColorRGB
 90
-16777216
102
RTVSPost2010PropOp51
 70
     0
102
RTVSPost2010Prop52
140
1.0
102
RTVSPost2010PropOp52
 70
     0
102
RTVSPost2010Prop53
 90
        2
102
RTVSPost2010PropOp53
 70
     1
102
RTVSPost2010Prop54
  1
strokes_ogs.tif
102
RTVSPost2010PropOp54
 70
     1
102
RTVSPost2010Prop55
280
     0
102
RTVSPost2010PropOp55
 70
     1
102
RTVSPost2010Prop56
140
1.0
102
RTVSPost2010PropOp56
 70
     1
102
RTVSPost2010Prop57
140
1.0
102
RTVSPost2010PropOp57
 70
     1
  0
XRECORD
  5
176
102
{ACAD_REACTORS
330
175
102
}
330
175
100
AcDbXrecord
280
     1
102
RTVSPost2010Prop28
280
     0
102
RTVSPost2010PropOp28
 70
     1
102
RTVSPost2010Prop29
280
     1
102
RTVSPost2010PropOp29
 70
     1
102
RTVSPost2010Prop30
280
     1
102
RTVSPost2010PropOp30
 70
     1
102
RTVSPost2010Prop31
280
     0
102
RTVSPost2010PropOp31
 70
     1
102
RTVSPost2010Prop32
280
     0
102
RTVSPost2010PropOp32
 70
     1
102
RTVSPost2010Prop33
280
     0
102
RTVSPost2010PropOp33
 70
     1
102
RTVSPost2010Prop34
280
     0
102
RTVSPost2010PropOp34
 70
     1
102
RTVSPost2010Prop35
280
     0
102
RTVSPost2010PropOp35
 70
     1
102
RTVSPost2010Prop36
280
     0
102
RTVSPost2010PropOp36
 70
     1
102
RTVSPost2010Prop37
 90
       50
102
RTVSPost2010PropOp37
 70
     1
102
RTVSPost2010Prop38
140
0.0
102
RTVSPost2010PropOp38
 70
     1
102
RTVSPost2010Prop39
140
1.0
102
RTVSPost2010PropOp39
 70
     1
102
RTVSPost2010Prop40
 90
        0
102
RTVSPost2010PropOp40
 70
     1
102
RTVSPost2010Prop41ColorIndex
 90
       18
102
RTVSPost2010Prop41ColorRGB
 90
        0
102
RTVSPost2010PropOp41
 70
     1
102
RTVSPost2010Prop42
 90
       50
102
RTVSPost2010PropOp42
 70
     1
102
RTVSPost2010Prop43
 90
        3
102
RTVSPost2010PropOp43
 70
     1
102
RTVSPost2010Prop44ColorIndex
 90
        5
102
RTVSPost2010Prop44ColorRGB
 90
      255
102
RTVSPost2010PropOp44
 70
     1
102
RTVSPost2010Prop45
280
     0
102
RTVSPost2010PropOp45
 70
     1
102
RTVSPost2010Prop46
 90
       50
102
RTVSPost2010PropOp46
 70
     1
102
RTVSPost2010Prop47
 90
       50
102
RTVSPost2010PropOp47
 70
     1
102
RTVSPost2010Prop48
 90
       50
102
RTVSPost2010PropOp48
 70
     1
102
RTVSPost2010Prop49
280
     0
102
RTVSPost2010PropOp49
 70
     1
102
RTVSPost2010Prop50
 90
       50
102
RTVSPost2010PropOp50
 70
     1
102
RTVSPost2010Prop51ColorIndex
 90
      256
102
RTVSPost2010Prop51ColorRGB
 90
-16777216
102
RTVSPost2010PropOp51
 70
     0
102
RTVSPost2010Prop52
140
1.0
102
RTVSPost2010PropOp52
 70
     0
102
RTVSPost2010Prop53
 90
        2
102
RTVSPost2010PropOp53
 70
     1
102
RTVSPost2010Prop54
  1
strokes_ogs.tif
102
RTVSPost2010PropOp54
 70
     1
102
RTVSPost2010Prop55
280
     0
102
RTVSPost2010PropOp55
 70
     1
102
RTVSPost2010Prop56
140
1.0
102
RTVSPost2010PropOp56
 70
     1
102
RTVSPost2010Prop57
140
1.0
102
RTVSPost2010PropOp57
 70
     1
  0
XRECORD
  5
170
102
{ACAD_REACTORS
330
16F
102
}
330
16F
100
AcDbXrecord
280
     1
102
RTVSPost2010Prop28
280
     0
102
RTVSPost2010PropOp28
 70
     1
102
RTVSPost2010Prop29
280
     1
102
RTVSPost2010PropOp29
 70
     1
102
RTVSPost2010Prop30
280
     1
102
RTVSPost2010PropOp30
 70
     1
102
RTVSPost2010Prop31
280
     0
102
RTVSPost2010PropOp31
 70
     1
102
RTVSPost2010Prop32
280
     0
102
RTVSPost2010PropOp32
 70
     1
102
RTVSPost2010Prop33
280
     0
102
RTVSPost2010PropOp33
 70
     1
102
RTVSPost2010Prop34
280
     0
102
RTVSPost2010PropOp34
 70
     1
102
RTVSPost2010Prop35
280
     0
102
RTVSPost2010PropOp35
 70
     1
102
RTVSPost2010Prop36
280
     0
102
RTVSPost2010PropOp36
 70
     1
102
RTVSPost2010Prop37
 90
       50
102
RTVSPost2010PropOp37
 70
     1
102
RTVSPost2010Prop38
140
0.0
102
RTVSPost2010PropOp38
 70
     1
102
RTVSPost2010Prop39
140
1.0
102
RTVSPost2010PropOp39
 70
     1
102
RTVSPost2010Prop40
 90
        0
102
RTVSPost2010PropOp40
 70
     1
102
RTVSPost2010Prop41ColorIndex
 90
       18
102
RTVSPost2010Prop41ColorRGB
 90
        0
102
RTVSPost2010PropOp41
 70
     1
102
RTVSPost2010Prop42
 90
       50
102
RTVSPost2010PropOp42
 70
     1
102
RTVSPost2010Prop43
 90
        3
102
RTVSPost2010PropOp43
 70
     1
102
RTVSPost2010Prop44ColorIndex
 90
        5
102
RTVSPost2010Prop44ColorRGB
 90
      255
102
RTVSPost2010PropOp44
 70
     1
102
RTVSPost2010Prop45
280
     0
102
RTVSPost2010PropOp45
 70
     1
102
RTVSPost2010Prop46
 90
       50
102
RTVSPost2010PropOp46
 70
     1
102
RTVSPost2010Prop47
 90
       50
102
RTVSPost2010PropOp47
 70
     1
102
RTVSPost2010Prop48
 90
       50
102
RTVSPost2010PropOp48
 70
     1
102
RTVSPost2010Prop49
280
     0
102
RTVSPost2010PropOp49
 70
     1
102
RTVSPost2010Prop50
 90
       50
102
RTVSPost2010PropOp50
 70
     1
102
RTVSPost2010Prop51ColorIndex
 90
      256
102
RTVSPost2010Prop51ColorRGB
 90
-16777216
102
RTVSPost2010PropOp51
 70
     0
102
RTVSPost2010Prop52
140
1.0
102
RTVSPost2010PropOp52
 70
     0
102
RTVSPost2010Prop53
 90
        2
102
RTVSPost2010PropOp53
 70
     1
102
RTVSPost2010Prop54
  1
strokes_ogs.tif
102
RTVSPost2010PropOp54
 70
     1
102
RTVSPost2010Prop55
280
     0
102
RTVSPost2010PropOp55
 70
     1
102
RTVSPost2010Prop56
140
1.0
102
RTVSPost2010PropOp56
 70
     1
102
RTVSPost2010Prop57
140
1.0
102
RTVSPost2010PropOp57
 70
     1
  0
XRECORD
  5
172
102
{ACAD_REACTORS
330
171
102
}
330
171
100
AcDbXrecord
280
     1
102
RTVSPost2010Prop28
280
     0
102
RTVSPost2010PropOp28
 70
     1
102
RTVSPost2010Prop29
280
     1
102
RTVSPost2010PropOp29
 70
     1
102
RTVSPost2010Prop30
280
     1
102
RTVSPost2010PropOp30
 70
     1
102
RTVSPost2010Prop31
280
     0
102
RTVSPost2010PropOp31
 70
     1
102
RTVSPost2010Prop32
280
     0
102
RTVSPost2010PropOp32
 70
     1
102
RTVSPost2010Prop33
280
     0
102
RTVSPost2010PropOp33
 70
     1
102
RTVSPost2010Prop34
280
     0
102
RTVSPost2010PropOp34
 70
     1
102
RTVSPost2010Prop35
280
     0
102
RTVSPost2010PropOp35
 70
     1
102
RTVSPost2010Prop36
280
     0
102
RTVSPost2010PropOp36
 70
     1
102
RTVSPost2010Prop37
 90
       50
102
RTVSPost2010PropOp37
 70
     1
102
RTVSPost2010Prop38
140
0.0
102
RTVSPost2010PropOp38
 70
     1
102
RTVSPost2010Prop39
140
1.0
102
RTVSPost2010PropOp39
 70
     1
102
RTVSPost2010Prop40
 90
        0
102
RTVSPost2010PropOp40
 70
     1
102
RTVSPost2010Prop41ColorIndex
 90
       18
102
RTVSPost2010Prop41ColorRGB
 90
        0
102
RTVSPost2010PropOp41
 70
     1
102
RTVSPost2010Prop42
 90
       50
102
RTVSPost2010PropOp42
 70
     1
102
RTVSPost2010Prop43
 90
        3
102
RTVSPost2010PropOp43
 70
     1
102
RTVSPost2010Prop44ColorIndex
 90
        5
102
RTVSPost2010Prop44ColorRGB
 90
      255
102
RTVSPost2010PropOp44
 70
     1
102
RTVSPost2010Prop45
280
     0
102
RTVSPost2010PropOp45
 70
     1
102
RTVSPost2010Prop46
 90
       50
102
RTVSPost2010PropOp46
 70
     1
102
RTVSPost2010Prop47
 90
       50
102
RTVSPost2010PropOp47
 70
     1
102
RTVSPost2010Prop48
 90
       50
102
RTVSPost2010PropOp48
 70
     1
102
RTVSPost2010Prop49
280
     0
102
RTVSPost2010PropOp49
 70
     1
102
RTVSPost2010Prop50
 90
       50
102
RTVSPost2010PropOp50
 70
     1
102
RTVSPost2010Prop51ColorIndex
 90
      256
102
RTVSPost2010Prop51ColorRGB
 90
-16777216
102
RTVSPost2010PropOp51
 70
     0
102
RTVSPost2010Prop52
140
1.0
102
RTVSPost2010PropOp52
 70
     0
102
RTVSPost2010Prop53
 90
        2
102
RTVSPost2010PropOp53
 70
     1
102
RTVSPost2010Prop54
  1
strokes_ogs.tif
102
RTVSPost2010PropOp54
 70
     1
102
RTVSPost2010Prop55
280
     0
102
RTVSPost2010PropOp55
 70
     1
102
RTVSPost2010Prop56
140
1.0
102
RTVSPost2010PropOp56
 70
     1
102
RTVSPost2010Prop57
140
1.0
102
RTVSPost2010PropOp57
 70
     1
  0
XRECORD
  5
168
102
{ACAD_REACTORS
330
167
102
}
330
167
100
AcDbXrecord
280
     1
102
RTVSPost2010Prop28
280
     0
102
RTVSPost2010PropOp28
 70
     1
102
RTVSPost2010Prop29
280
     1
102
RTVSPost2010PropOp29
 70
     1
102
RTVSPost2010Prop30
280
     1
102
RTVSPost2010PropOp30
 70
     1
102
RTVSPost2010Prop31
280
     0
102
RTVSPost2010PropOp31
 70
     1
102
RTVSPost2010Prop32
280
     0
102
RTVSPost2010PropOp32
 70
     1
102
RTVSPost2010Prop33
280
     0
102
RTVSPost2010PropOp33
 70
     1
102
RTVSPost2010Prop34
280
     0
102
RTVSPost2010PropOp34
 70
     1
102
RTVSPost2010Prop35
280
     0
102
RTVSPost2010PropOp35
 70
     1
102
RTVSPost2010Prop36
280
     0
102
RTVSPost2010PropOp36
 70
     1
102
RTVSPost2010Prop37
 90
       50
102
RTVSPost2010PropOp37
 70
     1
102
RTVSPost2010Prop38
140
0.0
102
RTVSPost2010PropOp38
 70
     1
102
RTVSPost2010Prop39
140
1.0
102
RTVSPost2010PropOp39
 70
     1
102
RTVSPost2010Prop40
 90
        0
102
RTVSPost2010PropOp40
 70
     1
102
RTVSPost2010Prop41ColorIndex
 90
       18
102
RTVSPost2010Prop41ColorRGB
 90
        0
102
RTVSPost2010PropOp41
 70
     1
102
RTVSPost2010Prop42
 90
       50
102
RTVSPost2010PropOp42
 70
     1
102
RTVSPost2010Prop43
 90
        3
102
RTVSPost2010PropOp43
 70
     1
102
RTVSPost2010Prop44ColorIndex
 90
        5
102
RTVSPost2010Prop44ColorRGB
 90
      255
102
RTVSPost2010PropOp44
 70
     1
102
RTVSPost2010Prop45
280
     0
102
RTVSPost2010PropOp45
 70
     1
102
RTVSPost2010Prop46
 90
       50
102
RTVSPost2010PropOp46
 70
     1
102
RTVSPost2010Prop47
 90
       50
102
RTVSPost2010PropOp47
 70
     1
102
RTVSPost2010Prop48
 90
       50
102
RTVSPost2010PropOp48
 70
     1
102
RTVSPost2010Prop49
280
     0
102
RTVSPost2010PropOp49
 70
     1
102
RTVSPost2010Prop50
 90
       50
102
RTVSPost2010PropOp50
 70
     1
102
RTVSPost2010Prop51ColorIndex
 90
      256
102
RTVSPost2010Prop51ColorRGB
 90
-16777216
102
RTVSPost2010PropOp51
 70
     0
102
RTVSPost2010Prop52
140
1.0
102
RTVSPost2010PropOp52
 70
     0
102
RTVSPost2010Prop53
 90
        2
102
RTVSPost2010PropOp53
 70
     1
102
RTVSPost2010Prop54
  1
strokes_ogs.tif
102
RTVSPost2010PropOp54
 70
     1
102
RTVSPost2010Prop55
280
     0
102
RTVSPost2010PropOp55
 70
     1
102
RTVSPost2010Prop56
140
1.0
102
RTVSPost2010PropOp56
 70
     1
102
RTVSPost2010Prop57
140
1.0
102
RTVSPost2010PropOp57
 70
     1
  0
XRECORD
  5
15C
102
{ACAD_REACTORS
330
15B
102
}
330
15B
100
AcDbXrecord
280
     1
102
RTVSPost2010Prop28
280
     0
102
RTVSPost2010PropOp28
 70
     1
102
RTVSPost2010Prop29
280
     1
102
RTVSPost2010PropOp29
 70
     1
102
RTVSPost2010Prop30
280
     1
102
RTVSPost2010PropOp30
 70
     1
102
RTVSPost2010Prop31
280
     0
102
RTVSPost2010PropOp31
 70
     1
102
RTVSPost2010Prop32
280
     0
102
RTVSPost2010PropOp32
 70
     1
102
RTVSPost2010Prop33
280
     0
102
RTVSPost2010PropOp33
 70
     1
102
RTVSPost2010Prop34
280
     0
102
RTVSPost2010PropOp34
 70
     1
102
RTVSPost2010Prop35
280
     0
102
RTVSPost2010PropOp35
 70
     1
102
RTVSPost2010Prop36
280
     0
102
RTVSPost2010PropOp36
 70
     1
102
RTVSPost2010Prop37
 90
       50
102
RTVSPost2010PropOp37
 70
     1
102
RTVSPost2010Prop38
140
0.0
102
RTVSPost2010PropOp38
 70
     1
102
RTVSPost2010Prop39
140
1.0
102
RTVSPost2010PropOp39
 70
     1
102
RTVSPost2010Prop40
 90
        0
102
RTVSPost2010PropOp40
 70
     1
102
RTVSPost2010Prop41ColorIndex
 90
       18
102
RTVSPost2010Prop41ColorRGB
 90
        0
102
RTVSPost2010PropOp41
 70
     1
102
RTVSPost2010Prop42
 90
       50
102
RTVSPost2010PropOp42
 70
     1
102
RTVSPost2010Prop43
 90
        3
102
RTVSPost2010PropOp43
 70
     1
102
RTVSPost2010Prop44ColorIndex
 90
        5
102
RTVSPost2010Prop44ColorRGB
 90
      255
102
RTVSPost2010PropOp44
 70
     1
102
RTVSPost2010Prop45
280
     0
102
RTVSPost2010PropOp45
 70
     1
102
RTVSPost2010Prop46
 90
       50
102
RTVSPost2010PropOp46
 70
     1
102
RTVSPost2010Prop47
 90
       50
102
RTVSPost2010PropOp47
 70
     1
102
RTVSPost2010Prop48
 90
       50
102
RTVSPost2010PropOp48
 70
     1
102
RTVSPost2010Prop49
280
     0
102
RTVSPost2010PropOp49
 70
     1
102
RTVSPost2010Prop50
 90
       50
102
RTVSPost2010PropOp50
 70
     1
102
RTVSPost2010Prop51ColorIndex
 90
      256
102
RTVSPost2010Prop51ColorRGB
 90
-16777216
102
RTVSPost2010PropOp51
 70
     0
102
RTVSPost2010Prop52
140
1.0
102
RTVSPost2010PropOp52
 70
     0
102
RTVSPost2010Prop53
 90
        2
102
RTVSPost2010PropOp53
 70
     1
102
RTVSPost2010Prop54
  1
strokes_ogs.tif
102
RTVSPost2010PropOp54
 70
     1
102
RTVSPost2010Prop55
280
     0
102
RTVSPost2010PropOp55
 70
     1
102
RTVSPost2010Prop56
140
1.0
102
RTVSPost2010PropOp56
 70
     1
102
RTVSPost2010Prop57
140
1.0
102
RTVSPost2010PropOp57
 70
     1
  0
XRECORD
  5
174
102
{ACAD_REACTORS
330
173
102
}
330
173
100
AcDbXrecord
280
     1
102
RTVSPost2010Prop28
280
     0
102
RTVSPost2010PropOp28
 70
     1
102
RTVSPost2010Prop29
280
     1
102
RTVSPost2010PropOp29
 70
     1
102
RTVSPost2010Prop30
280
     1
102
RTVSPost2010PropOp30
 70
     1
102
RTVSPost2010Prop31
280
     0
102
RTVSPost2010PropOp31
 70
     1
102
RTVSPost2010Prop32
280
     0
102
RTVSPost2010PropOp32
 70
     1
102
RTVSPost2010Prop33
280
     0
102
RTVSPost2010PropOp33
 70
     1
102
RTVSPost2010Prop34
280
     0
102
RTVSPost2010PropOp34
 70
     1
102
RTVSPost2010Prop35
280
     0
102
RTVSPost2010PropOp35
 70
     1
102
RTVSPost2010Prop36
280
     0
102
RTVSPost2010PropOp36
 70
     1
102
RTVSPost2010Prop37
 90
       50
102
RTVSPost2010PropOp37
 70
     1
102
RTVSPost2010Prop38
140
0.0
102
RTVSPost2010PropOp38
 70
     1
102
RTVSPost2010Prop39
140
1.0
102
RTVSPost2010PropOp39
 70
     1
102
RTVSPost2010Prop40
 90
        0
102
RTVSPost2010PropOp40
 70
     1
102
RTVSPost2010Prop41ColorIndex
 90
       18
102
RTVSPost2010Prop41ColorRGB
 90
        0
102
RTVSPost2010PropOp41
 70
     1
102
RTVSPost2010Prop42
 90
       50
102
RTVSPost2010PropOp42
 70
     1
102
RTVSPost2010Prop43
 90
        3
102
RTVSPost2010PropOp43
 70
     1
102
RTVSPost2010Prop44ColorIndex
 90
        5
102
RTVSPost2010Prop44ColorRGB
 90
      255
102
RTVSPost2010PropOp44
 70
     1
102
RTVSPost2010Prop45
280
     0
102
RTVSPost2010PropOp45
 70
     1
102
RTVSPost2010Prop46
 90
       50
102
RTVSPost2010PropOp46
 70
     1
102
RTVSPost2010Prop47
 90
       50
102
RTVSPost2010PropOp47
 70
     1
102
RTVSPost2010Prop48
 90
       50
102
RTVSPost2010PropOp48
 70
     1
102
RTVSPost2010Prop49
280
     0
102
RTVSPost2010PropOp49
 70
     1
102
RTVSPost2010Prop50
 90
       50
102
RTVSPost2010PropOp50
 70
     1
102
RTVSPost2010Prop51ColorIndex
 90
      256
102
RTVSPost2010Prop51ColorRGB
 90
-16777216
102
RTVSPost2010PropOp51
 70
     0
102
RTVSPost2010Prop52
140
1.0
102
RTVSPost2010PropOp52
 70
     0
102
RTVSPost2010Prop53
 90
        2
102
RTVSPost2010PropOp53
 70
     1
102
RTVSPost2010Prop54
  1
strokes_ogs.tif
102
RTVSPost2010PropOp54
 70
     1
102
RTVSPost2010Prop55
280
     0
102
RTVSPost2010PropOp55
 70
     1
102
RTVSPost2010Prop56
140
1.0
102
RTVSPost2010PropOp56
 70
     1
102
RTVSPost2010Prop57
140
1.0
102
RTVSPost2010PropOp57
 70
     1
  0
ENDSEC
  0
EOF
