  0
SECTION
  2
HEADER
  9
$ACADVER
  1
AC1024
  9
$ACADMAINTVER
 70
   205
  9
$DWGCODEPAGE
  3
ANSI_1251
  9
$INSBASE
 10
0.0
 20
0.0
 30
0.0
  9
$EXTMIN
 10
1.000000000000000E+20
 20
1.000000000000000E+20
 30
1.000000000000000E+20
  9
$EXTMAX
 10
-1.000000000000000E+20
 20
-1.000000000000000E+20
 30
-1.000000000000000E+20
  9
$LIMMIN
 10
0.0
 20
0.0
  9
$LIMMAX
 10
12.0
 20
9.0
  9
$ORTHOMODE
 70
     0
  9
$REGENMODE
 70
     1
  9
$FILLMODE
 70
     1
  9
$QTEXTMODE
 70
     0
  9
$MIRRTEXT
 70
     1
  9
$LTSCALE
 40
1.0
  9
$ATTMODE
 70
     1
  9
$TEXTSIZE
 40
0.2
  9
$TRACEWID
 40
0.05
  9
$TEXTSTYLE
  7
Standard
  9
$CLAYER
  8
OracDecor_cornice_mouldings
  9
$CELTYPE
  6
ByLayer
  9
$CECOLOR
 62
   256
  9
$CELTSCALE
 40
1.0
  9
$DISPSILH
 70
     0
  9
$DIMSCALE
 40
1.0
  9
$DIMASZ
 40
0.18
  9
$DIMEXO
 40
0.0625
  9
$DIMDLI
 40
0.38
  9
$DIMRND
 40
0.0
  9
$DIMDLE
 40
0.0
  9
$DIMEXE
 40
0.18
  9
$DIMTP
 40
0.0
  9
$DIMTM
 40
0.0
  9
$DIMTXT
 40
0.18
  9
$DIMCEN
 40
0.09
  9
$DIMTSZ
 40
0.0
  9
$DIMTOL
 70
     0
  9
$DIMLIM
 70
     0
  9
$DIMTIH
 70
     1
  9
$DIMTOH
 70
     1
  9
$DIMSE1
 70
     0
  9
$DIMSE2
 70
     0
  9
$DIMTAD
 70
     0
  9
$DIMZIN
 70
     0
  9
$DIMBLK
  1

  9
$DIMASO
 70
     1
  9
$DIMSHO
 70
     1
  9
$DIMPOST
  1

  9
$DIMAPOST
  1

  9
$DIMALT
 70
     0
  9
$DIMALTD
 70
     2
  9
$DIMALTF
 40
25.4
  9
$DIMLFAC
 40
1.0
  9
$DIMTOFL
 70
     0
  9
$DIMTVP
 40
0.0
  9
$DIMTIX
 70
     0
  9
$DIMSOXD
 70
     0
  9
$DIMSAH
 70
     0
  9
$DIMBLK1
  1

  9
$DIMBLK2
  1

  9
$DIMSTYLE
  2
Standard
  9
$DIMCLRD
 70
     0
  9
$DIMCLRE
 70
     0
  9
$DIMCLRT
 70
     0
  9
$DIMTFAC
 40
1.0
  9
$DIMGAP
 40
0.09
  9
$DIMJUST
 70
     0
  9
$DIMSD1
 70
     0
  9
$DIMSD2
 70
     0
  9
$DIMTOLJ
 70
     1
  9
$DIMTZIN
 70
     0
  9
$DIMALTZ
 70
     0
  9
$DIMALTTZ
 70
     0
  9
$DIMUPT
 70
     0
  9
$DIMDEC
 70
     4
  9
$DIMTDEC
 70
     4
  9
$DIMALTU
 70
     2
  9
$DIMALTTD
 70
     2
  9
$DIMTXSTY
  7
Standard
  9
$DIMAUNIT
 70
     0
  9
$DIMADEC
 70
     0
  9
$DIMALTRND
 40
0.0
  9
$DIMAZIN
 70
     0
  9
$DIMDSEP
 70
    46
  9
$DIMATFIT
 70
     3
  9
$DIMFRAC
 70
     0
  9
$DIMLDRBLK
  1

  9
$DIMLUNIT
 70
     2
  9
$DIMLWD
 70
    -2
  9
$DIMLWE
 70
    -2
  9
$DIMTMOVE
 70
     0
  9
$DIMFXL
 40
1.0
  9
$DIMFXLON
 70
     0
  9
$DIMJOGANG
 40
0.7853981633974483
  9
$DIMTFILL
 70
     0
  9
$DIMTFILLCLR
 70
     0
  9
$DIMARCSYM
 70
     0
  9
$DIMLTYPE
  6

  9
$DIMLTEX1
  6

  9
$DIMLTEX2
  6

  9
$DIMTXTDIRECTION
 70
     0
  9
$LUNITS
 70
     2
  9
$LUPREC
 70
     4
  9
$SKETCHINC
 40
0.1
  9
$FILLETRAD
 40
0.5
  9
$AUNITS
 70
     0
  9
$AUPREC
 70
     0
  9
$MENU
  1
.
  9
$ELEVATION
 40
0.0
  9
$PELEVATION
 40
0.0
  9
$THICKNESS
 40
0.0
  9
$LIMCHECK
 70
     0
  9
$CHAMFERA
 40
0.5
  9
$CHAMFERB
 40
0.5
  9
$CHAMFERC
 40
1.0
  9
$CHAMFERD
 40
0.0
  9
$SKPOLY
 70
     0
  9
$TDCREATE
 40
2451380.930432396
  9
$TDUCREATE
 40
2451380.805432396
  9
$TDUPDATE
 40
2451380.966180555
  9
$TDUUPDATE
 40
2451380.841180556
  9
$TDINDWG
 40
0.0075619097
  9
$TDUSRTIMER
 40
0.0075528704
  9
$USRTIMER
 70
     1
  9
$ANGBASE
 50
0.0
  9
$ANGDIR
 70
     0
  9
$PDMODE
 70
     0
  9
$PDSIZE
 40
0.0
  9
$PLINEWID
 40
0.0
  9
$SPLFRAME
 70
     0
  9
$SPLINETYPE
 70
     6
  9
$SPLINESEGS
 70
     8
  9
$HANDSEED
  5
1B8
  9
$SURFTAB1
 70
     6
  9
$SURFTAB2
 70
     6
  9
$SURFTYPE
 70
     6
  9
$SURFU
 70
     6
  9
$SURFV
 70
     6
  9
$UCSBASE
  2

  9
$UCSNAME
  2

  9
$UCSORG
 10
0.0
 20
0.0
 30
0.0
  9
$UCSXDIR
 10
1.0
 20
0.0
 30
0.0
  9
$UCSYDIR
 10
0.0
 20
1.0
 30
0.0
  9
$UCSORTHOREF
  2

  9
$UCSORTHOVIEW
 70
     0
  9
$UCSORGTOP
 10
0.0
 20
0.0
 30
0.0
  9
$UCSORGBOTTOM
 10
0.0
 20
0.0
 30
0.0
  9
$UCSORGLEFT
 10
0.0
 20
0.0
 30
0.0
  9
$UCSORGRIGHT
 10
0.0
 20
0.0
 30
0.0
  9
$UCSORGFRONT
 10
0.0
 20
0.0
 30
0.0
  9
$UCSORGBACK
 10
0.0
 20
0.0
 30
0.0
  9
$PUCSBASE
  2

  9
$PUCSNAME
  2

  9
$PUCSORG
 10
0.0
 20
0.0
 30
0.0
  9
$PUCSXDIR
 10
1.0
 20
0.0
 30
0.0
  9
$PUCSYDIR
 10
0.0
 20
1.0
 30
0.0
  9
$PUCSORTHOREF
  2

  9
$PUCSORTHOVIEW
 70
     0
  9
$PUCSORGTOP
 10
0.0
 20
0.0
 30
0.0
  9
$PUCSORGBOTTOM
 10
0.0
 20
0.0
 30
0.0
  9
$PUCSORGLEFT
 10
0.0
 20
0.0
 30
0.0
  9
$PUCSORGRIGHT
 10
0.0
 20
0.0
 30
0.0
  9
$PUCSORGFRONT
 10
0.0
 20
0.0
 30
0.0
  9
$PUCSORGBACK
 10
0.0
 20
0.0
 30
0.0
  9
$USERI1
 70
     0
  9
$USERI2
 70
     0
  9
$USERI3
 70
     0
  9
$USERI4
 70
     0
  9
$USERI5
 70
     0
  9
$USERR1
 40
0.0
  9
$USERR2
 40
0.0
  9
$USERR3
 40
0.0
  9
$USERR4
 40
0.0
  9
$USERR5
 40
0.0
  9
$WORLDVIEW
 70
     1
  9
$SHADEDGE
 70
     3
  9
$SHADEDIF
 70
    70
  9
$TILEMODE
 70
     1
  9
$MAXACTVP
 70
    64
  9
$PINSBASE
 10
0.0
 20
0.0
 30
0.0
  9
$PLIMCHECK
 70
     0
  9
$PEXTMIN
 10
1.000000000000000E+20
 20
1.000000000000000E+20
 30
1.000000000000000E+20
  9
$PEXTMAX
 10
-1.000000000000000E+20
 20
-1.000000000000000E+20
 30
-1.000000000000000E+20
  9
$PLIMMIN
 10
0.0
 20
0.0
  9
$PLIMMAX
 10
12.0
 20
9.0
  9
$UNITMODE
 70
     0
  9
$VISRETAIN
 70
     1
  9
$PLINEGEN
 70
     0
  9
$PSLTSCALE
 70
     1
  9
$TREEDEPTH
 70
  3020
  9
$CMLSTYLE
  2
Standard
  9
$CMLJUST
 70
     0
  9
$CMLSCALE
 40
1.0
  9
$PROXYGRAPHICS
 70
     1
  9
$MEASUREMENT
 70
     1
  9
$CELWEIGHT
370
    -1
  9
$ENDCAPS
280
     0
  9
$JOINSTYLE
280
     0
  9
$LWDISPLAY
290
     0
  9
$INSUNITS
 70
     4
  9
$HYPERLINKBASE
  1

  9
$STYLESHEET
  1

  9
$XEDIT
290
     1
  9
$CEPSNTYPE
380
     0
  9
$PSTYLEMODE
290
     1
  9
$FINGERPRINTGUID
  2
{12F50282-3ED8-11D3-A8B7-0060B0F84BC6}
  9
$VERSIONGUID
  2
{12F50293-3ED8-11D3-A8B7-0060B0F84BC6}
  9
$EXTNAMES
290
     1
  9
$PSVPSCALE
 40
0.0
  9
$OLESTARTUP
290
     0
  9
$SORTENTS
280
   127
  9
$INDEXCTL
280
     0
  9
$HIDETEXT
280
     0
  9
$XCLIPFRAME
280
     2
  9
$HALOGAP
280
     0
  9
$OBSCOLOR
 70
   257
  9
$OBSLTYPE
280
     0
  9
$INTERSECTIONDISPLAY
280
     0
  9
$INTERSECTIONCOLOR
 70
   257
  9
$DIMASSOC
280
     1
  9
$PROJECTNAME
  1

  9
$CAMERADISPLAY
290
     0
  9
$LENSLENGTH
 40
50.0
  9
$CAMERAHEIGHT
 40
0.0
  9
$STEPSPERSEC
 40
2.0
  9
$STEPSIZE
 40
6.0
  9
$3DDWFPREC
 40
2.0
  9
$PSOLWIDTH
 40
0.25
  9
$PSOLHEIGHT
 40
4.0
  9
$LOFTANG1
 40
1.570796326794896
  9
$LOFTANG2
 40
1.570796326794896
  9
$LOFTMAG1
 40
0.0
  9
$LOFTMAG2
 40
0.0
  9
$LOFTPARAM
 70
     7
  9
$LOFTNORMALS
280
     1
  9
$LATITUDE
 40
37.795
  9
$LONGITUDE
 40
-122.394
  9
$NORTHDIRECTION
 40
0.0
  9
$TIMEZONE
 70
 -8000
  9
$LIGHTGLYPHDISPLAY
280
     1
  9
$TILEMODELIGHTSYNCH
280
     1
  9
$CMATERIAL
347
AB
  9
$SOLIDHIST
280
     0
  9
$SHOWHIST
280
     1
  9
$DWFFRAME
280
     2
  9
$DGNFRAME
280
     0
  9
$REALWORLDSCALE
290
     1
  9
$INTERFERECOLOR
 62
     1
  9
$INTERFEREOBJVS
345
CD
  9
$INTERFEREVPVS
346
CA
  9
$CSHADOW
280
     0
  9
$SHADOWPLANELOCATION
 40
0.0
  0
ENDSEC
  0
SECTION
  2
CLASSES
  0
CLASS
  1
ACDBDICTIONARYWDFLT
  2
AcDbDictionaryWithDefault
  3
ObjectDBX Classes
 90
        0
 91
        1
280
     0
281
     0
  0
CLASS
  1
ACDBPLACEHOLDER
  2
AcDbPlaceHolder
  3
ObjectDBX Classes
 90
        0
 91
        2
280
     0
281
     0
  0
CLASS
  1
LAYOUT
  2
AcDbLayout
  3
ObjectDBX Classes
 90
        0
 91
        3
280
     0
281
     0
  0
CLASS
  1
MATERIAL
  2
AcDbMaterial
  3
ObjectDBX Classes
 90
     1153
 91
        3
280
     0
281
     0
  0
CLASS
  1
VISUALSTYLE
  2
AcDbVisualStyle
  3
ObjectDBX Classes
 90
     4095
 91
       24
280
     0
281
     0
  0
CLASS
  1
TABLESTYLE
  2
AcDbTableStyle
  3
ObjectDBX Classes
 90
     4095
 91
        1
280
     0
281
     0
  0
CLASS
  1
SCALE
  2
AcDbScale
  3
ObjectDBX Classes
 90
     1153
 91
       17
280
     0
281
     0
  0
CLASS
  1
MLEADERSTYLE
  2
AcDbMLeaderStyle
  3
ACDB_MLEADERSTYLE_CLASS
 90
     4095
 91
        1
280
     0
281
     0
  0
CLASS
  1
ACDBSECTIONVIEWSTYLE
  2
AcDbSectionViewStyle
  3
ObjectDBX Classes
 90
     1025
 91
        1
280
     0
281
     0
  0
CLASS
  1
ACDBDETAILVIEWSTYLE
  2
AcDbDetailViewStyle
  3
ObjectDBX Classes
 90
     1025
 91
        1
280
     0
281
     0
  0
CLASS
  1
MESH
  2
AcDbSubDMesh
  3
ObjectDBX Classes
 90
        0
 91
        1
280
     0
281
     1
  0
CLASS
  1
DICTIONARYVAR
  2
AcDbDictionaryVar
  3
ObjectDBX Classes
 90
        0
 91
        9
280
     0
281
     0
  0
CLASS
  1
CELLSTYLEMAP
  2
AcDbCellStyleMap
  3
ObjectDBX Classes
 90
     1152
 91
        1
280
     0
281
     0
  0
ENDSEC
  0
SECTION
  2
TABLES
  0
TABLE
  2
VPORT
  5
8
330
0
100
AcDbSymbolTable
 70
     1
  0
VPORT
  5
A8
330
8
100
AcDbSymbolTableRecord
100
AcDbViewportTableRecord
  2
*Active
 70
     0
 10
0.0
 20
0.0
 11
1.0
 21
1.0
 12
0.0000485531709273
 22
-90.55158233642577
 13
0.0
 23
0.0
 14
0.5
 24
0.5
 15
0.5
 25
0.5
 16
-1.0
 26
-1.0
 36
1.0
 17
0.0
 27
0.0
 37
0.0
 40
1423.696952788671
 41
1.462188386171935
 42
50.0
 43
0.0
 44
0.0
 50
0.0
 51
0.0
 71
     0
 72
   100
 73
     1
 74
     3
 75
     0
 76
     0
 77
     0
 78
     0
281
     0
 65
     1
110
0.0
120
0.0
130
0.0
111
1.0
121
0.0
131
0.0
112
0.0
122
1.0
132
0.0
 79
     0
146
0.0
348
C9
 60
     3
 61
     5
292
     1
282
     1
141
0.0
142
0.0
 63
   250
421
  3355443
  0
ENDTAB
  0
TABLE
  2
LTYPE
  5
5
330
0
100
AcDbSymbolTable
 70
     1
  0
LTYPE
  5
14
330
5
100
AcDbSymbolTableRecord
100
AcDbLinetypeTableRecord
  2
ByBlock
 70
     0
  3

 72
    65
 73
     0
 40
0.0
  0
LTYPE
  5
15
330
5
100
AcDbSymbolTableRecord
100
AcDbLinetypeTableRecord
  2
ByLayer
 70
     0
  3

 72
    65
 73
     0
 40
0.0
  0
LTYPE
  5
16
330
5
100
AcDbSymbolTableRecord
100
AcDbLinetypeTableRecord
  2
Continuous
 70
     0
  3
Solid line
 72
    65
 73
     0
 40
0.0
  0
ENDTAB
  0
TABLE
  2
LAYER
  5
2
330
0
100
AcDbSymbolTable
 70
     3
  0
LAYER
  5
10
330
2
100
AcDbSymbolTableRecord
100
AcDbLayerTableRecord
  2
0
 70
     0
 62
     7
  6
Continuous
370
    -3
390
F
347
BB
  0
LAYER
  5
2B
330
2
100
AcDbSymbolTableRecord
100
AcDbLayerTableRecord
  2
ASHADE
 70
     4
 62
     7
  6
Continuous
370
    -3
390
2D
347
BB
  0
LAYER
  5
F8
330
2
100
AcDbSymbolTableRecord
100
AcDbLayerTableRecord
  2
OracDecor_cornice_mouldings
 70
     0
 62
   141
420
 10147813
  6
Continuous
370
    -3
390
F
347
BB
  0
ENDTAB
  0
TABLE
  2
STYLE
  5
3
330
0
100
AcDbSymbolTable
 70
     2
  0
STYLE
  5
11
330
3
100
AcDbSymbolTableRecord
100
AcDbTextStyleTableRecord
  2
Standard
 70
     0
 40
0.0
 41
1.0
 50
0.0
 71
     0
 42
0.2
  3
txt
  4

  0
STYLE
  5
2C
330
3
100
AcDbSymbolTableRecord
100
AcDbTextStyleTableRecord
  2
ASHADE
 70
     0
 40
0.2
 41
1.0
 50
0.0
 71
     0
 42
0.2
  3
simplex
  4

  0
ENDTAB
  0
TABLE
  2
VIEW
  5
6
330
0
100
AcDbSymbolTable
 70
     0
  0
ENDTAB
  0
TABLE
  2
UCS
  5
7
330
0
100
AcDbSymbolTable
 70
     0
  0
ENDTAB
  0
TABLE
  2
APPID
  5
9
330
0
100
AcDbSymbolTable
 70
     6
  0
APPID
  5
12
330
9
100
AcDbSymbolTableRecord
100
AcDbRegAppTableRecord
  2
ACAD
 70
     0
  0
APPID
  5
8F
330
9
100
AcDbSymbolTableRecord
100
AcDbRegAppTableRecord
  2
AVE_RENDER
 70
     0
  0
APPID
  5
90
330
9
100
AcDbSymbolTableRecord
100
AcDbRegAppTableRecord
  2
AVE_ENTITY_MATERIAL
 70
     0
  0
APPID
  5
9C
330
9
100
AcDbSymbolTableRecord
100
AcDbRegAppTableRecord
  2
AVE_FINISH
 70
     0
  0
APPID
  5
9D
330
9
100
AcDbSymbolTableRecord
100
AcDbRegAppTableRecord
  2
AVE_MATERIAL
 70
     0
  0
APPID
  5
9E
330
9
100
AcDbSymbolTableRecord
100
AcDbRegAppTableRecord
  2
AVE_GLOBAL
 70
     0
  0
ENDTAB
  0
TABLE
  2
DIMSTYLE
  5
A
330
0
100
AcDbSymbolTable
 70
     1
100
AcDbDimStyleTable
 71
     0
  0
DIMSTYLE
105
27
330
A
100
AcDbSymbolTableRecord
100
AcDbDimStyleTableRecord
  2
Standard
 70
     0
340
11
  0
ENDTAB
  0
TABLE
  2
BLOCK_RECORD
  5
1
330
0
100
AcDbSymbolTable
 70
     6
  0
BLOCK_RECORD
  5
1F
330
1
100
AcDbSymbolTableRecord
100
AcDbBlockTableRecord
  2
*Model_Space
340
22
 70
     0
280
     1
281
     0
  0
BLOCK_RECORD
  5
1B
330
1
100
AcDbSymbolTableRecord
100
AcDbBlockTableRecord
  2
*Paper_Space
340
1E
 70
     0
280
     1
281
     0
  0
BLOCK_RECORD
  5
23
330
1
100
AcDbSymbolTableRecord
100
AcDbBlockTableRecord
  2
*Paper_Space0
340
26
 70
     0
280
     1
281
     0
  0
BLOCK_RECORD
  5
2E
330
1
100
AcDbSymbolTableRecord
100
AcDbBlockTableRecord
  2
direct
340
0
 70
     0
280
     1
281
     0
  0
BLOCK_RECORD
  5
42
330
1
100
AcDbSymbolTableRecord
100
AcDbBlockTableRecord
  2
overhead
340
0
 70
     0
280
     1
281
     0
  0
BLOCK_RECORD
  5
5F
330
1
100
AcDbSymbolTableRecord
100
AcDbBlockTableRecord
  2
sh_spot
340
0
 70
     0
280
     1
281
     0
  0
BLOCK_RECORD
  5
91
330
1
100
AcDbSymbolTableRecord
100
AcDbBlockTableRecord
  2
AVE_RENDER
340
0
102
{BLKREFS
331
94
331
95
331
96
331
97
331
98
331
99
331
9A
331
9B
102
}
 70
     0
280
     1
281
     0
  0
BLOCK_RECORD
  5
9F
330
1
100
AcDbSymbolTableRecord
100
AcDbBlockTableRecord
  2
AVE_GLOBAL
340
0
102
{BLKREFS
331
A2
102
}
 70
     0
280
     1
281
     0
  0
ENDTAB
  0
ENDSEC
  0
SECTION
  2
BLOCKS
  0
BLOCK
  5
20
330
1F
100
AcDbEntity
  8
0
100
AcDbBlockBegin
  2
*Model_Space
 70
     0
 10
0.0
 20
0.0
 30
0.0
  3
*Model_Space
  1

  0
ENDBLK
  5
21
330
1F
100
AcDbEntity
  8
0
100
AcDbBlockEnd
  0
BLOCK
  5
1C
330
1B
100
AcDbEntity
 67
     1
  8
0
100
AcDbBlockBegin
  2
*Paper_Space
 70
     0
 10
0.0
 20
0.0
 30
0.0
  3
*Paper_Space
  1

  0
ENDBLK
  5
1D
330
1B
100
AcDbEntity
 67
     1
  8
0
100
AcDbBlockEnd
  0
BLOCK
  5
24
330
23
100
AcDbEntity
 67
     1
  8
0
100
AcDbBlockBegin
  2
*Paper_Space0
 70
     0
 10
0.0
 20
0.0
 30
0.0
  3
*Paper_Space0
  1

  0
ENDBLK
  5
25
330
23
100
AcDbEntity
 67
     1
  8
0
100
AcDbBlockEnd
  0
BLOCK
  5
40
330
2E
100
AcDbEntity
  8
0
100
AcDbBlockBegin
  2
direct
 70
     2
 10
0.0
 20
0.0
 30
0.0
  3
direct
  1

  0
ATTDEF
  5
2F
330
2E
100
AcDbEntity
  8
ASHADE
  6
Continuous
 62
     1
100
AcDbText
 10
0.0
 20
-0.1
 30
0.0
 40
0.2
  1

  7
ASHADE
 72
     1
 11
0.0
 21
-0.1
 31
0.0
100
AcDbAttributeDefinition
280
     0
  3
Light Name
  2
SNAME
 70
     0
280
     0
  0
ARC
  5
30
330
2E
100
AcDbEntity
  8
ASHADE
  6
Continuous
 62
     7
100
AcDbCircle
 10
0.0
 20
0.0
 30
0.0
 40
0.3
100
AcDbArc
 50
205.6792886194569
 51
334.3207113805431
  0
ARC
  5
31
330
2E
100
AcDbEntity
  8
ASHADE
  6
Continuous
 62
     7
100
AcDbCircle
 10
0.0
 20
0.0
 30
0.0
 40
0.3
100
AcDbArc
 50
25.67928861945685
 51
154.3207113805431
  0
LINE
  5
32
330
2E
100
AcDbEntity
  8
ASHADE
  6
Continuous
 62
     7
100
AcDbLine
 10
-0.21
 20
0.2142428528562855
 30
0.0
 11
-0.21
 21
0.5
 31
0.0
  0
LINE
  5
33
330
2E
100
AcDbEntity
  8
ASHADE
  6
Continuous
 62
     7
100
AcDbLine
 10
-0.11
 20
0.2791057147390572
 30
0.0
 11
-0.11
 21
0.5
 31
0.0
  0
LINE
  5
34
330
2E
100
AcDbEntity
  8
ASHADE
  6
Continuous
 62
     7
100
AcDbLine
 10
0.21
 20
0.2142428528562855
 30
0.0
 11
0.21
 21
0.5
 31
0.0
  0
ATTDEF
  5
35
330
2E
100
AcDbEntity
  8
ASHADE
  6
Continuous
 62
     7
100
AcDbText
 10
0.0
 20
0.25
 30
0.0
 40
0.01
  1

100
AcDbAttributeDefinition
280
     0
  3
Look-at Y
  2
LAY
 70
     1
280
     0
  0
ATTDEF
  5
36
330
2E
100
AcDbEntity
  8
ASHADE
  6
Continuous
 62
     7
100
AcDbText
 10
0.0
 20
0.22
 30
0.0
 40
0.01
  1
1
100
AcDbAttributeDefinition
280
     0
  3
Light Intensity
  2
INTENSITY
 70
     1
280
     0
  0
ATTDEF
  5
37
330
2E
100
AcDbEntity
  8
ASHADE
  6
Continuous
 62
     7
100
AcDbText
 10
0.0
 20
0.16
 30
0.0
 40
0.01
  1
-1
100
AcDbAttributeDefinition
280
     0
  3
*not used*
  2
BEAMD
 70
     1
280
     0
  0
ATTDEF
  5
38
330
2E
100
AcDbEntity
  8
ASHADE
  6
Continuous
 62
     7
100
AcDbText
 10
0.0
 20
0.175
 30
0.0
 40
0.01
  1
-1
100
AcDbAttributeDefinition
280
     0
  3
*not used*
  2
CONED
 70
     1
280
     0
  0
ATTDEF
  5
39
330
2E
100
AcDbEntity
  8
ASHADE
  6
Continuous
 62
     7
100
AcDbText
 10
0.0
 20
0.19
 30
0.0
 40
0.01
  1
0
100
AcDbAttributeDefinition
280
     0
  3
Depth Map Size
  2
CONEA
 70
     1
280
     0
  0
ATTDEF
  5
3A
330
2E
100
AcDbEntity
  8
ASHADE
  6
Continuous
 62
     7
100
AcDbText
 10
0.0
 20
0.2050000000000001
 30
0.0
 40
0.01
  1
1,1,1
100
AcDbAttributeDefinition
280
     0
  3
Light Color (RGB)
  2
COLOR
 70
     1
280
     0
  0
ATTDEF
  5
3B
330
2E
100
AcDbEntity
  8
ASHADE
  6
Continuous
 62
     7
100
AcDbText
 10
0.0
 20
0.235
 30
0.0
 40
0.01
  1

100
AcDbAttributeDefinition
280
     0
  3
Look-at Z
  2
LAZ
 70
     1
280
     0
  0
LINE
  5
3C
330
2E
100
AcDbEntity
  8
ASHADE
  6
Continuous
 62
     7
100
AcDbLine
 10
0.0
 20
0.3
 30
0.0
 11
0.0
 21
0.5
 31
0.0
  0
LINE
  5
3D
330
2E
100
AcDbEntity
  8
ASHADE
  6
Continuous
 62
     7
100
AcDbLine
 10
0.11
 20
0.2791057147390572
 30
0.0
 11
0.11
 21
0.5
 31
0.0
  0
ATTDEF
  5
3E
330
2E
100
AcDbEntity
  8
ASHADE
  6
Continuous
 62
     7
100
AcDbText
 10
0.0
 20
0.265
 30
0.0
 40
0.01
  1

100
AcDbAttributeDefinition
280
     0
  3
Look-at X
  2
LAX
 70
     1
280
     0
  0
ATTDEF
  5
3F
330
2E
100
AcDbEntity
  8
ASHADE
  6
Continuous
 62
     7
100
AcDbText
 10
0.0
 20
0.28
 30
0.0
 40
0.01
  1

100
AcDbAttributeDefinition
280
     0
  3

  2
GNAME
 70
     1
280
     0
  0
ENDBLK
  5
41
330
2E
100
AcDbEntity
  8
0
100
AcDbBlockEnd
  0
BLOCK
  5
5D
330
42
100
AcDbEntity
  8
0
100
AcDbBlockBegin
  2
overhead
 70
     2
 10
0.0
 20
0.0
 30
0.0
  3
overhead
  1

  0
ATTDEF
  5
43
330
42
100
AcDbEntity
  8
ASHADE
  6
Continuous
 62
     1
100
AcDbText
 10
0.0
 20
-0.1
 30
0.0
 40
0.2
  1

  7
ASHADE
 72
     1
 11
0.0
 21
-0.1
 31
0.0
100
AcDbAttributeDefinition
280
     0
  3
Light Name
  2
SNAME
 70
     0
280
     0
  0
ARC
  5
44
330
42
100
AcDbEntity
  8
ASHADE
  6
Continuous
 62
     7
100
AcDbCircle
 10
0.0
 20
0.0
 30
0.0
 40
0.3
100
AcDbArc
 50
205.6792886194569
 51
334.3207113805431
  0
LINE
  5
45
330
42
100
AcDbEntity
  8
ASHADE
  6
Continuous
 62
     7
100
AcDbLine
 10
-0.2041413561583015
 20
-0.2198324514393848
 30
0.0
 11
-0.2721884748777353
 21
-0.2931099352525131
 31
0.0
  0
LINE
  5
46
330
42
100
AcDbEntity
  8
ASHADE
  6
Continuous
 62
     7
100
AcDbLine
 10
-0.1096591641591904
 20
-0.2792398032442862
 30
0.0
 11
-0.1279356915190555
 21
-0.3257797704516673
 31
0.0
  0
LINE
  5
47
330
42
100
AcDbEntity
  8
ASHADE
  6
Continuous
 62
     7
100
AcDbLine
 10
0.0
 20
-0.2999999999999999
 30
0.0
 11
0.0
 21
-0.4
 31
0.0
  0
LINE
  5
48
330
42
100
AcDbEntity
  8
ASHADE
  6
Continuous
 62
     7
100
AcDbLine
 10
0.1096591641591904
 20
-0.2792398032442862
 30
0.0
 11
0.1279356915190555
 21
-0.3257797704516673
 31
0.0
  0
LINE
  5
49
330
42
100
AcDbEntity
  8
ASHADE
  6
Continuous
 62
     7
100
AcDbLine
 10
0.2041413561583015
 20
-0.2198324514393848
 30
0.0
 11
0.2721884748777353
 21
-0.2931099352525131
 31
0.0
  0
ARC
  5
4A
330
42
100
AcDbEntity
  8
ASHADE
  6
Continuous
 62
     7
100
AcDbCircle
 10
0.0
 20
0.0
 30
0.0
 40
0.3
100
AcDbArc
 50
25.67928861945685
 51
154.3207113805431
  0
LINE
  5
4B
330
42
100
AcDbEntity
  8
ASHADE
  6
Continuous
 62
     7
100
AcDbLine
 10
-0.2703701166919155
 20
0.13
 30
0.0
 11
-0.3154318028072347
 21
0.1516666666666666
 31
0.0
  0
LINE
  5
4C
330
42
100
AcDbEntity
  8
ASHADE
  6
Continuous
 62
     7
100
AcDbLine
 10
-0.2703701166919155
 20
-0.13
 30
0.0
 11
-0.3154318028072347
 21
-0.1516666666666666
 31
0.0
  0
LINE
  5
4D
330
42
100
AcDbEntity
  8
ASHADE
  6
Continuous
 62
     7
100
AcDbLine
 10
-0.2041413561583015
 20
0.2198324514393849
 30
0.0
 11
-0.2721884748777353
 21
0.2931099352525131
 31
0.0
  0
LINE
  5
4E
330
42
100
AcDbEntity
  8
ASHADE
  6
Continuous
 62
     7
100
AcDbLine
 10
-0.1096591641591904
 20
0.2792398032442862
 30
0.0
 11
-0.1279356915190555
 21
0.3257797704516674
 31
0.0
  0
LINE
  5
4F
330
42
100
AcDbEntity
  8
ASHADE
  6
Continuous
 62
     7
100
AcDbLine
 10
0.2703701166919155
 20
-0.13
 30
0.0
 11
0.3154318028072347
 21
-0.1516666666666666
 31
0.0
  0
LINE
  5
50
330
42
100
AcDbEntity
  8
ASHADE
  6
Continuous
 62
     7
100
AcDbLine
 10
0.2703701166919155
 20
0.13
 30
0.0
 11
0.3154318028072347
 21
0.1516666666666666
 31
0.0
  0
LINE
  5
51
330
42
100
AcDbEntity
  8
ASHADE
  6
Continuous
 62
     7
100
AcDbLine
 10
0.0
 20
0.3
 30
0.0
 11
0.0
 21
0.4
 31
0.0
  0
ATTDEF
  5
52
330
42
100
AcDbEntity
  8
ASHADE
  6
Continuous
 62
     7
100
AcDbText
 10
0.0
 20
0.22
 30
0.0
 40
0.01
  1
1
100
AcDbAttributeDefinition
280
     0
  3
Light Intensity
  2
INTENSITY
 70
     1
280
     0
  0
ATTDEF
  5
53
330
42
100
AcDbEntity
  8
ASHADE
  6
Continuous
 62
     7
100
AcDbText
 10
0.0
 20
0.16
 30
0.0
 40
0.01
  1
-1
100
AcDbAttributeDefinition
280
     0
  3
*not used*
  2
BEAMD
 70
     1
280
     0
  0
ATTDEF
  5
54
330
42
100
AcDbEntity
  8
ASHADE
  6
Continuous
 62
     7
100
AcDbText
 10
0.0
 20
0.175
 30
0.0
 40
0.01
  1
-1
100
AcDbAttributeDefinition
280
     0
  3
*not used*
  2
CONED
 70
     1
280
     0
  0
ATTDEF
  5
55
330
42
100
AcDbEntity
  8
ASHADE
  6
Continuous
 62
     7
100
AcDbText
 10
0.0
 20
0.19
 30
0.0
 40
0.01
  1
0
100
AcDbAttributeDefinition
280
     0
  3
Depth Map Size
  2
CONEA
 70
     1
280
     0
  0
ATTDEF
  5
56
330
42
100
AcDbEntity
  8
ASHADE
  6
Continuous
 62
     7
100
AcDbText
 10
0.0
 20
0.2050000000000001
 30
0.0
 40
0.01
  1
1,1,1
100
AcDbAttributeDefinition
280
     0
  3
Light Color (RGB)
  2
COLOR
 70
     1
280
     0
  0
ATTDEF
  5
57
330
42
100
AcDbEntity
  8
ASHADE
  6
Continuous
 62
     7
100
AcDbText
 10
0.0
 20
0.235
 30
0.0
 40
0.01
  1

100
AcDbAttributeDefinition
280
     0
  3
Look-at Z
  2
LAZ
 70
     1
280
     0
  0
ATTDEF
  5
58
330
42
100
AcDbEntity
  8
ASHADE
  6
Continuous
 62
     7
100
AcDbText
 10
0.0
 20
0.25
 30
0.0
 40
0.01
  1

100
AcDbAttributeDefinition
280
     0
  3
Look-at Y
  2
LAY
 70
     1
280
     0
  0
ATTDEF
  5
59
330
42
100
AcDbEntity
  8
ASHADE
  6
Continuous
 62
     7
100
AcDbText
 10
0.0
 20
0.265
 30
0.0
 40
0.01
  1

100
AcDbAttributeDefinition
280
     0
  3
Look-at X
  2
LAX
 70
     1
280
     0
  0
ATTDEF
  5
5A
330
42
100
AcDbEntity
  8
ASHADE
  6
Continuous
 62
     7
100
AcDbText
 10
0.0
 20
0.28
 30
0.0
 40
0.01
  1

100
AcDbAttributeDefinition
280
     0
  3

  2
GNAME
 70
     1
280
     0
  0
LINE
  5
5B
330
42
100
AcDbEntity
  8
ASHADE
  6
Continuous
 62
     7
100
AcDbLine
 10
0.1096591641591904
 20
0.2792398032442862
 30
0.0
 11
0.1279356915190555
 21
0.3257797704516674
 31
0.0
  0
LINE
  5
5C
330
42
100
AcDbEntity
  8
ASHADE
  6
Continuous
 62
     7
100
AcDbLine
 10
0.2041413561583015
 20
0.2198324514393849
 30
0.0
 11
0.2721884748777353
 21
0.2931099352525131
 31
0.0
  0
ENDBLK
  5
5E
330
42
100
AcDbEntity
  8
0
100
AcDbBlockEnd
  0
BLOCK
  5
85
330
5F
100
AcDbEntity
  8
0
100
AcDbBlockBegin
  2
sh_spot
 70
     2
 10
0.0
 20
0.0
 30
0.0
  3
sh_spot
  1

  0
LINE
  5
60
330
5F
100
AcDbEntity
  8
ASHADE
  6
Continuous
 62
     7
100
AcDbLine
 10
0.25
 20
0.26
 30
0.0
 11
-0.25
 21
0.26
 31
0.0
  0
LINE
  5
61
330
5F
100
AcDbEntity
  8
ASHADE
  6
Continuous
 62
     7
100
AcDbLine
 10
-0.25
 20
-0.3399999999999999
 30
0.0
 11
0.25
 21
-0.3399999999999999
 31
0.0
  0
ATTDEF
  5
62
330
5F
100
AcDbEntity
  8
ASHADE
  6
Continuous
 62
     1
100
AcDbText
 10
0.0
 20
-0.1
 30
0.0
 40
0.2
  1

  7
ASHADE
 72
     1
 11
0.0
 21
-0.1
 31
0.0
100
AcDbAttributeDefinition
280
     0
  3
Light Name
  2
SNAME
 70
     0
280
     0
  0
LINE
  5
63
330
5F
100
AcDbEntity
  8
ASHADE
  6
Continuous
 62
     7
100
AcDbLine
 10
-0.25
 20
-0.13
 30
0.0
 11
-0.25
 21
-0.3399999999999999
 31
0.0
  0
LINE
  5
64
330
5F
100
AcDbEntity
  8
ASHADE
  6
Continuous
 62
     7
100
AcDbLine
 10
-0.25
 20
-0.18
 30
0.0
 11
-0.29
 21
-0.18
 31
0.0
  0
LINE
  5
65
330
5F
100
AcDbEntity
  8
ASHADE
  6
Continuous
 62
     7
100
AcDbLine
 10
-0.29
 20
-0.22
 30
0.0
 11
-0.25
 21
-0.22
 31
0.0
  0
LINE
  5
66
330
5F
100
AcDbEntity
  8
ASHADE
  6
Continuous
 62
     7
100
AcDbLine
 10
-0.29
 20
-0.18
 30
0.0
 11
-0.29
 21
-0.22
 31
0.0
  0
LINE
  5
67
330
5F
100
AcDbEntity
  8
ASHADE
  6
Continuous
 62
     7
100
AcDbLine
 10
-0.1045454545454545
 20
0.26
 30
0.0
 11
-0.15
 21
0.46
 31
0.0
  0
LINE
  5
68
330
5F
100
AcDbEntity
  8
ASHADE
  6
Continuous
 62
     7
100
AcDbLine
 10
-0.21
 20
0.26
 30
0.0
 11
-0.301304347826087
 21
0.46
 31
0.0
  0
LINE
  5
69
330
5F
100
AcDbEntity
  8
ASHADE
  6
Continuous
 62
     7
100
AcDbLine
 10
-0.25
 20
0.26
 30
0.0
 11
-0.25
 21
0.13
 31
0.0
  0
LINE
  5
6A
330
5F
100
AcDbEntity
  8
ASHADE
  6
Continuous
 62
     7
100
AcDbLine
 10
-0.25
 20
0.22
 30
0.0
 11
-0.29
 21
0.22
 31
0.0
  0
LINE
  5
6B
330
5F
100
AcDbEntity
  8
ASHADE
  6
Continuous
 62
     7
100
AcDbLine
 10
-0.29
 20
0.1799999999999999
 30
0.0
 11
-0.25
 21
0.1799999999999999
 31
0.0
  0
LINE
  5
6C
330
5F
100
AcDbEntity
  8
ASHADE
  6
Continuous
 62
     7
100
AcDbLine
 10
-0.29
 20
0.22
 30
0.0
 11
-0.29
 21
0.1799999999999999
 31
0.0
  0
ATTDEF
  5
6D
330
5F
100
AcDbEntity
  8
ASHADE
  6
Continuous
 62
     7
100
AcDbText
 10
0.0
 20
-0.24
 30
0.0
 40
0.01
  1
0
100
AcDbAttributeDefinition
280
     0
  3
Depth Map Size
  2
ZSIZE
 70
     1
280
     0
  0
ATTDEF
  5
6E
330
5F
100
AcDbEntity
  8
ASHADE
  6
Continuous
 62
     7
100
AcDbText
 10
0.0
 20
-0.3300000000000001
 30
0.0
 40
0.01
  1
0,0,0
100
AcDbAttributeDefinition
280
     0
  3
Look-from XYZ
  2
LFXYZ
 70
     1
280
     0
  0
ATTDEF
  5
6F
330
5F
100
AcDbEntity
  8
ASHADE
  6
Continuous
 62
     7
100
AcDbText
 10
0.0
 20
-0.315
 30
0.0
 40
0.01
  1
0.0
100
AcDbAttributeDefinition
280
     0
  3
Beam Distribution
  2
BEAMDI
 70
     1
280
     0
  0
ATTDEF
  5
70
330
5F
100
AcDbEntity
  8
ASHADE
  6
Continuous
 62
     7
100
AcDbText
 10
0.0
 20
-0.3
 30
0.0
 40
0.01
  1
0.0
100
AcDbAttributeDefinition
280
     0
  3
Cone Delta
  2
CONEDE
 70
     1
280
     0
  0
ATTDEF
  5
71
330
5F
100
AcDbEntity
  8
ASHADE
  6
Continuous
 62
     7
100
AcDbText
 10
0.0
 20
-0.2850000000000001
 30
0.0
 40
0.01
  1
10.0
100
AcDbAttributeDefinition
280
     0
  3
Cone Angle
  2
CONEAN
 70
     1
280
     0
  0
ATTDEF
  5
72
330
5F
100
AcDbEntity
  8
ASHADE
  6
Continuous
 62
     7
100
AcDbText
 10
0.0
 20
-0.27
 30
0.0
 40
0.01
  1
-1
100
AcDbAttributeDefinition
280
     0
  3
*not used*
  2
BIASMAX
 70
     1
280
     0
  0
ATTDEF
  5
73
330
5F
100
AcDbEntity
  8
ASHADE
  6
Continuous
 62
     7
100
AcDbText
 10
0.0
 20
-0.255
 30
0.0
 40
0.01
  1
-1
100
AcDbAttributeDefinition
280
     0
  3
*not used*
  2
BIASMIN
 70
     1
280
     0
  0
ATTDEF
  5
74
330
5F
100
AcDbEntity
  8
ASHADE
  6
Continuous
 62
     7
100
AcDbText
 10
0.0
 20
-0.225
 30
0.0
 40
0.01
  1
1,1,1
100
AcDbAttributeDefinition
280
     0
  3
Light Color (RGB)
  2
COLOR
 70
     1
280
     0
  0
ATTDEF
  5
75
330
5F
100
AcDbEntity
  8
ASHADE
  6
Continuous
 62
     7
100
AcDbText
 10
0.0
 20
-0.21
 30
0.0
 40
0.01
  1
1
100
AcDbAttributeDefinition
280
     0
  3
Light Intensity
  2
INTENSITY
 70
     1
280
     0
  0
ATTDEF
  5
76
330
5F
100
AcDbEntity
  8
ASHADE
  6
Continuous
 62
     7
100
AcDbText
 10
0.0
 20
-0.15
 30
0.0
 40
0.01
  1

100
AcDbAttributeDefinition
280
     0
  3

  2
GNAME
 70
     1
280
     0
  0
ATTDEF
  5
77
330
5F
100
AcDbEntity
  8
ASHADE
  6
Continuous
 62
     7
100
AcDbText
 10
0.0
 20
-0.195
 30
0.0
 40
0.01
  1

100
AcDbAttributeDefinition
280
     0
  3
Look-at Z
  2
LAZ
 70
     1
280
     0
  0
ATTDEF
  5
78
330
5F
100
AcDbEntity
  8
ASHADE
  6
Continuous
 62
     7
100
AcDbText
 10
0.0
 20
-0.18
 30
0.0
 40
0.01
  1

100
AcDbAttributeDefinition
280
     0
  3
Look-at Y
  2
LAY
 70
     1
280
     0
  0
ATTDEF
  5
79
330
5F
100
AcDbEntity
  8
ASHADE
  6
Continuous
 62
     7
100
AcDbText
 10
0.0
 20
-0.165
 30
0.0
 40
0.01
  1

100
AcDbAttributeDefinition
280
     0
  3
Look-at X
  2
LAX
 70
     1
280
     0
  0
LINE
  5
7A
330
5F
100
AcDbEntity
  8
ASHADE
  6
Continuous
 62
     7
100
AcDbLine
 10
0.25
 20
-0.3399999999999999
 30
0.0
 11
0.25
 21
-0.13
 31
0.0
  0
LINE
  5
7B
330
5F
100
AcDbEntity
  8
ASHADE
  6
Continuous
 62
     7
100
AcDbLine
 10
0.25
 20
-0.18
 30
0.0
 11
0.29
 21
-0.18
 31
0.0
  0
LINE
  5
7C
330
5F
100
AcDbEntity
  8
ASHADE
  6
Continuous
 62
     7
100
AcDbLine
 10
0.29
 20
-0.22
 30
0.0
 11
0.25
 21
-0.22
 31
0.0
  0
LINE
  5
7D
330
5F
100
AcDbEntity
  8
ASHADE
  6
Continuous
 62
     7
100
AcDbLine
 10
0.29
 20
-0.18
 30
0.0
 11
0.29
 21
-0.22
 31
0.0
  0
LINE
  5
7E
330
5F
100
AcDbEntity
  8
ASHADE
  6
Continuous
 62
     7
100
AcDbLine
 10
0.21
 20
0.26
 30
0.0
 11
0.301304347826087
 21
0.46
 31
0.0
  0
LINE
  5
7F
330
5F
100
AcDbEntity
  8
ASHADE
  6
Continuous
 62
     7
100
AcDbLine
 10
0.1045454545454545
 20
0.26
 30
0.0
 11
0.15
 21
0.46
 31
0.0
  0
LINE
  5
80
330
5F
100
AcDbEntity
  8
ASHADE
  6
Continuous
 62
     7
100
AcDbLine
 10
0.0
 20
0.26
 30
0.0
 11
0.0
 21
0.46
 31
0.0
  0
LINE
  5
81
330
5F
100
AcDbEntity
  8
ASHADE
  6
Continuous
 62
     7
100
AcDbLine
 10
0.25
 20
0.13
 30
0.0
 11
0.25
 21
0.26
 31
0.0
  0
LINE
  5
82
330
5F
100
AcDbEntity
  8
ASHADE
  6
Continuous
 62
     7
100
AcDbLine
 10
0.25
 20
0.22
 30
0.0
 11
0.29
 21
0.22
 31
0.0
  0
LINE
  5
83
330
5F
100
AcDbEntity
  8
ASHADE
  6
Continuous
 62
     7
100
AcDbLine
 10
0.29
 20
0.1799999999999999
 30
0.0
 11
0.25
 21
0.1799999999999999
 31
0.0
  0
LINE
  5
84
330
5F
100
AcDbEntity
  8
ASHADE
  6
Continuous
 62
     7
100
AcDbLine
 10
0.29
 20
0.22
 30
0.0
 11
0.29
 21
0.1799999999999999
 31
0.0
  0
ENDBLK
  5
86
330
5F
100
AcDbEntity
  8
0
100
AcDbBlockEnd
  0
BLOCK
  5
92
330
91
100
AcDbEntity
  8
ASHADE
100
AcDbBlockBegin
  2
AVE_RENDER
 70
     0
 10
0.0
 20
0.0
 30
0.0
  3
AVE_RENDER
  1
AVE_RENDER
  0
ENDBLK
  5
93
330
91
100
AcDbEntity
  8
0
100
AcDbBlockEnd
  0
BLOCK
  5
A0
330
9F
100
AcDbEntity
  8
ASHADE
100
AcDbBlockBegin
  2
AVE_GLOBAL
 70
     0
 10
0.0
 20
0.0
 30
0.0
  3
AVE_GLOBAL
  1
AVE_GLOBAL
  0
ENDBLK
  5
A1
330
9F
100
AcDbEntity
  8
0
100
AcDbBlockEnd
  0
ENDSEC
  0
SECTION
  2
ENTITIES
  0
INSERT
  5
94
330
1F
100
AcDbEntity
  8
ASHADE
 62
     1
100
AcDbBlockReference
  2
AVE_RENDER
 10
0.0
 20
0.0
 30
0.0
1001
AVE_RENDER
1002
{
1070
     7
1000
Pref
1070
    30
1070
    20
1070
     1
1070
     0
1000

1070
    10
1070
     1
1070
    10
1040
1.0
1070
     1
1040
0.3
1040
0.7
1040
0.0
1040
10.0
1010
-1.0
1020
-1.0
1030
-1.0
1040
0.3
1070
    49
1070
     0
1070
     0
1010
1.0
1020
1.0
1030
1.0
1040
45.0
1070
     1
1070
     0
1000
WCS
1040
0.0
1070
     0
1040
10.0
1002
}
  0
INSERT
  5
95
330
1F
100
AcDbEntity
  8
ASHADE
 62
     3
100
AcDbBlockReference
  2
AVE_RENDER
 10
0.0
 20
0.0
 30
0.0
1001
AVE_RENDER
1002
{
1070
     0
1000
Full Opt
1070
     0
1070
     1
1070
     1
1070
     1
1070
     0
1070
     0
1070
     0
1070
     1
1070
     1
1040
0.0001
1040
0.0001
1002
}
  0
INSERT
  5
96
330
1F
100
AcDbEntity
  8
ASHADE
 62
     4
100
AcDbBlockReference
  2
AVE_RENDER
 10
0.0
 20
0.0
 30
0.0
1001
AVE_RENDER
1002
{
1070
     0
1000
Quick Opt
1070
     0
1070
     1
1070
     1
1070
     1
1070
     0
1070
     0
1070
     1
1002
}
  0
INSERT
  5
97
330
1F
100
AcDbEntity
  8
ASHADE
 62
     5
100
AcDbBlockReference
  2
AVE_RENDER
 10
0.0
 20
0.0
 30
0.0
1001
AVE_RENDER
1002
{
1070
     1
1000
Scanl Opt
1070
     2
1070
     0
1070
     2
1040
2.0
1040
4.0
1070
     0
1070
     1
1070
     0
1040
0.03
1002
}
  0
INSERT
  5
98
330
1F
100
AcDbEntity
  8
ASHADE
 62
     6
100
AcDbBlockReference
  2
AVE_RENDER
 10
0.0
 20
0.0
 30
0.0
1001
AVE_RENDER
1002
{
1070
     2
1000
Raytr Opt
1070
     2
1070
     0
1070
     2
1040
2.0
1040
4.0
1070
     0
1070
     1
1070
     1
1040
0.03
1070
     3
1040
0.03
1002
}
  0
INSERT
  5
99
330
1F
100
AcDbEntity
  8
ASHADE
 62
     7
100
AcDbBlockReference
  2
AVE_RENDER
 10
0.0
 20
0.0
 30
0.0
1001
AVE_RENDER
1002
{
1070
     0
1000
RFile Opt
1070
     1
1070
   640
1070
   480
1070
 10000
1070
     1
1070
     8
1070
     8
1070
     0
1070
     0
1070
     0
1070
     0
1070
     0
1070
     0
1070
     0
1002
}
  0
INSERT
  5
9A
330
1F
100
AcDbEntity
  8
ASHADE
 62
     8
100
AcDbBlockReference
  2
AVE_RENDER
 10
0.0
 20
0.0
 30
0.0
1001
AVE_RENDER
1002
{
1070
     0
1000
Fog Opt
1070
     0
1070
     0
1040
0.0
1040
1.0
1040
0.0
1040
1.0
1010
0.5
1020
0.5
1030
0.5
1002
}
  0
INSERT
  5
9B
330
1F
100
AcDbEntity
  8
ASHADE
 62
     9
100
AcDbBlockReference
  2
AVE_RENDER
 10
0.0
 20
0.0
 30
0.0
1001
AVE_RENDER
1002
{
1070
     0
1000
BG Opt
1070
     0
1070
     1
1010
0.0
1020
0.0
1030
0.0
1010
1.0
1020
0.0
1030
0.0
1010
0.0
1020
1.0
1030
0.0
1010
0.0
1020
0.0
1030
1.0
1040
0.5
1040
0.33
1040
0.0
1000

1070
     1
1000

1070
     1
1070
     1
1040
1.0
1040
1.0
1040
0.0
1040
0.0
1070
     0
1002
}
  0
INSERT
  5
A2
330
1F
100
AcDbEntity
  8
ASHADE
 62
     1
100
AcDbBlockReference
  2
AVE_GLOBAL
 10
0.0
 20
0.0
 30
0.0
1001
AVE_MATERIAL
1002
{
1000
*GLOBAL*
1000
2
1000
Global finish.
1002
{
1002
}
1002
{
1070
    63
1002
{
1002
{
1010
-1.0
1020
-1.0
1030
-1.0
1002
}
1040
0.1000000014901161
1000

1040
0.0
1002
{
1002
}
1040
0.0
1002
{
1002
}
1040
0.0
1002
}
1002
{
1002
{
1010
-1.0
1020
-1.0
1030
-1.0
1002
}
1040
0.6999999880790711
1000

1040
0.0
1002
{
1002
}
1040
0.0
1002
{
1002
}
1040
0.0
1002
}
1002
{
1002
{
1010
-1.0
1020
-1.0
1030
-1.0
1002
}
1040
0.2000000029802322
1000

1040
0.0
1002
{
1002
}
1040
0.0
1002
{
1002
}
1040
0.0
1002
}
1002
{
1070
     0
1002
{
1070
     1
1002
{
1040
1.0
1040
1.0
1000

1040
0.0
1002
{
1002
}
1040
0.0
1002
{
1002
}
1040
0.0
1002
}
1002
}
1040
1.0
1040
0.0
1040
0.0
1002
}
1002
{
1040
1.0
1040
1.0
1000

1040
0.0
1002
{
1002
}
1040
0.0
1002
{
1002
}
1040
0.0
1002
}
1002
{
1040
0.5
1040
1.0
1000

1040
0.0
1002
{
1002
}
1040
0.0
1002
{
1002
}
1040
0.0
1002
}
1002
{
1070
     0
1040
0.0
1002
{
1002
}
1040
1.0
1002
{
1002
}
1040
0.0
1002
}
1002
{
1040
0.0
1002
{
1002
{
1010
0.0
1020
0.0
1030
0.0
1002
}
1040
1.0
1000

1040
0.0
1002
{
1002
}
1040
0.0
1002
{
1002
}
1040
0.0
1002
}
1002
}
1002
{
1002
{
1070
     1
1002
{
1040
0.0
1040
1.0
1000

1040
0.0
1002
{
1002
}
1040
0.0
1002
{
1002
}
1040
0.0
1002
}
1002
}
1040
0.0
1002
{
1002
}
1010
1.0
1020
0.0
1030
0.0
1010
0.0
1020
1.0
1030
0.0
1010
0.0
1020
0.0
1030
1.0
1070
     0
1002
}
1002
{
1002
{
1040
1.0
1040
1.0
1002
{
1070
     1
1002
{
1040
1.0
1040
1.0
1000

1040
0.0
1002
{
1002
}
1040
0.0
1002
{
1002
}
1040
0.0
1002
}
1002
}
1002
}
1070
     0
1040
0.0
1002
{
1002
}
1002
}
1002
{
1002
}
1002
}
1002
{
1071
        3
1070
     3
1070
     0
1002
{
1070
     2
1070
     0
1070
     0
1040
0.0
1002
}
1070
     0
1070
     2
1002
{
1002
}
1002
}
1002
{
1040
8030.0
1040
190.3000030517578
1040
0.3050000071525574
1040
228.0
1040
545.0
1040
14.0
1040
17.39999961853027
1040
0.4560000002384186
1002
}
1002
}
  0
MESH
  5
F9
330
1F
100
AcDbEntity
  8
OracDecor_cornice_mouldings
 62
   133
420
  5759430
160
             36656
310
308F0000FA0300000C00000013000000020000003C00000006000000020000000000000000408FC0000000A0083168C00000000000B0673F0000000000408FC000000020153C69C0000000000000F0BE0C000000130000000A0000003C00000006000000020000000000000000408FC000000020153C69C0000000000000F0
310
BE0000004000408F4000000040153C69C0000000000000F0BE0C00000013000000120000003C00000006000000020000000000004000408F4000000040153C69C0000000000000F0BE0000004000408F40000000C0083168C00000000000C0673F0C000000130000001A0000003C0000000600000002000000000000000040
310
8FC0000000A0083168C00000000000B0673F0000004000408F40000000C0083168C00000000000C0673F0C00000013000000220000003C00000006000000020000000000000000408FC000000080FD3B69C000000000158320C00000000000408FC000000020153C69C0000000000000F0BE0C000000130000002A0000003C
310
00000006000000020000000000000000408FC000000080FD3B69C000000000158320C00000004000408F40000000A0FD3B69C000000000148320C00C00000013000000320000003C00000006000000020000000000004000408F40000000A0FD3B69C000000000148320C00000004000408F4000000040153C69C000000000
310
0000F0BE0C000000130000003A0000003C00000006000000020000000000000000408FC000000080FD3B69C000000000158320C00000000000408FC0000000A0D6BA68C0000000005C8220C00C00000013000000420000003C00000006000000020000000000000000408FC0000000A0D6BA68C0000000005C8220C0000000
310
4000408F40000000C0D6BA68C0000000005B8220C00C000000130000004A0000003C00000006000000020000000000004000408F40000000A0FD3B69C000000000148320C00000004000408F40000000C0D6BA68C0000000005B8220C00C00000013000000520000003C00000006000000020000000000000000408FC00000
310
00A0D6BA68C0000000005C8220C00000000000408FC000000080AA6668C000000000053321C00C000000130000005A0000003C00000006000000020000000000000000408FC000000080AA6668C000000000053321C00000004000408F40000000A0AA6668C000000000043321C00C00000013000000620000003C00000006
310
000000020000000000004000408F40000000C0D6BA68C0000000005B8220C00000004000408F40000000A0AA6668C000000000043321C00C000000130000006A0000003C00000006000000020000000000000000408FC0000000A0E70F68C0000000007B0A23C00000000000408FC000000080AA6668C000000000053321C0
310
0C00000013000000720000003C00000006000000020000000000000000408FC0000000A0E70F68C0000000007B0A23C00000004000408F40000000C0E70F68C0000000007A0A23C00C000000130000007A0000003C00000006000000020000000000004000408F40000000A0AA6668C000000000043321C00000004000408F
310
40000000C0E70F68C0000000007A0A23C00C00000013000000820000003C00000006000000020000000000000000408FC00000000023A967C0000000001F7B26C00000000000408FC0000000A0E70F68C0000000007B0A23C00C000000130000008A0000003C00000006000000020000000000000000408FC00000000023A9
310
67C0000000001F7B26C00000004000408F400000002023A967C000000000207B26C00C00000013000000920000003C00000006000000020000000000004000408F40000000C0E70F68C0000000007A0A23C00000004000408F400000002023A967C000000000207B26C00C000000130000009A0000003C0000000600000002
310
0000000000000000408FC0000000E0374067C000000000A34B2BC00000000000408FC00000000023A967C0000000001F7B26C00C00000013000000A20000003C00000006000000020000000000000000408FC0000000E0374067C000000000A34B2BC00000004000408F4000000000384067C000000000A44B2BC00C000000
310
13000000AA0000003C00000006000000020000000000004000408F400000002023A967C000000000207B26C00000004000408F4000000000384067C000000000A44B2BC00C00000013000000B20000003C00000006000000020000000000000000408FC0000000C053F166C00000000067E42FC00000000000408FC0000000
310
E0374067C000000000A34B2BC00C00000013000000BA0000003C00000006000000020000000000000000408FC0000000C053F166C00000000067E42FC00000004000408F40000000E053F166C00000000066E42FC00C00000013000000C20000003C00000006000000020000000000004000408F4000000000384067C00000
310
0000A44B2BC00000004000408F40000000E053F166C00000000066E42FC00C00000013000000CA0000003C00000006000000020000000000000000408FC0000000802CA566C00000008096A232C00000000000408FC0000000C053F166C00000000067E42FC00C00000013000000D20000003C000000060000000200000000
310
00000000408FC0000000802CA566C00000008096A232C00000004000408F40000000A02CA566C00000000097A232C00C00000013000000DA0000003C00000006000000020000000000004000408F40000000E053F166C00000000066E42FC00000004000408F40000000A02CA566C00000000097A232C00C00000013000000
310
E20000003C00000006000000020000000000000000408FC0000000C00A6366C000000080D57935C00000000000408FC0000000802CA566C00000008096A232C00C00000013000000EA0000003C00000006000000020000000000000000408FC0000000C00A6366C000000080D57935C00000004000408F40000000E00A6366
310
C000000080D57935C00C00000013000000F20000003C00000006000000020000000000004000408F40000000A02CA566C00000000097A232C00000004000408F40000000E00A6366C000000080D57935C00C00000013000000FA0000003C00000006000000020000000000000000408FC000000000BB2D66C000000000C24C
310
38C00000000000408FC0000000C00A6366C000000080D57935C00C00000013000000020100003C00000006000000020000000000000000408FC000000000BB2D66C000000000C24C38C00000004000408F4000000000BB2D66C000000000C24C38C00C000000130000000A0100003C00000006000000020000000000004000
310
408F40000000E00A6366C000000080D57935C00000004000408F4000000000BB2D66C000000000C24C38C00C00000013000000120100003C00000006000000020000000000000000408FC00000002088FB65C000000080E1D83BC00000000000408FC000000000BB2D66C000000000C24C38C00C000000130000001A010000
310
3C00000006000000020000000000000000408FC00000002088FB65C000000080E1D83BC00000004000408F400000004088FB65C000000000E1D83BC00C00000013000000220100003C00000006000000020000000000004000408F4000000000BB2D66C000000000C24C38C00000004000408F400000004088FB65C0000000
310
00E1D83BC00C000000130000002A0100003C00000006000000020000000000000000408FC000000080D5DE65C000000000C0F93EC00000000000408FC00000002088FB65C000000080E1D83BC00C00000013000000320100003C00000006000000020000000000000000408FC000000080D5DE65C000000000C0F93EC00000
310
004000408F40000000A0D5DE65C000000000C0F93EC00C000000130000003A0100003C00000006000000020000000000004000408F400000004088FB65C000000000E1D83BC00000004000408F40000000A0D5DE65C000000000C0F93EC00C00000013000000420100003C00000006000000020000000000000000408FC000
310
000000EDD365C000000080F30541C00000000000408FC000000080D5DE65C000000000C0F93EC00C000000130000004A0100003C00000006000000020000000000000000408FC000000000EDD365C000000080F30541C00000004000408F4000000000EDD365C000000080F30541C00C00000013000000520100003C000000
310
06000000020000000000004000408F40000000A0D5DE65C000000000C0F93EC00000004000408F4000000000EDD365C000000080F30541C00C000000130000005A0100003C00000006000000020000000000000000408FC000000000EDD365C000000080F30541C00000000000408FC000000000EAD365C0000000800B8A41
310
C00C00000013000000620100003C00000006000000020000000000000000408FC000000000EAD365C0000000800B8A41C00000004000408F4000000020EAD365C0000000C00B8A41C00C000000130000006A0100003C00000006000000020000000000004000408F4000000000EDD365C000000080F30541C0000000400040
310
8F4000000020EAD365C0000000C00B8A41C00C00000013000000720100003C00000006000000020000000000000000408FC000000000EAD365C0000000800B8A41C00000000000408FC0000000409E4265C0000000C0D78941C00C000000130000007A0100003C00000006000000020000000000000000408FC0000000409E
310
4265C0000000C0D78941C00000004000408F40000000609E4265C0000000C0D78941C00C00000013000000820100003C00000006000000020000000000004000408F4000000020EAD365C0000000C00B8A41C00000004000408F40000000609E4265C0000000C0D78941C00C000000130000008A0100003C00000006000000
310
020000000000000000408FC0000000409E4265C0000000C0D78941C00000000000408FC00000008025E664C0000000C0CCBE48C00C00000013000000920100003C00000006000000020000000000000000408FC00000008025E664C0000000C0CCBE48C00000004000408F40000000A025E664C0000000C0CCBE48C00C0000
310
00130000009A0100003C00000006000000020000000000004000408F40000000609E4265C0000000C0D78941C00000004000408F40000000A025E664C0000000C0CCBE48C00C00000013000000A20100003C00000006000000020000000000000000408FC00000008063A264C000000000F21D4CC00000000000408FC00000
310
008025E664C0000000C0CCBE48C00C00000013000000AA0100003C00000006000000020000000000000000408FC00000008063A264C000000000F21D4CC00000004000408F400000008063A264C000000000F21D4CC00C00000013000000B20100003C00000006000000020000000000004000408F40000000A025E664C000
310
0000C0CCBE48C00000004000408F400000008063A264C000000000F21D4CC00C00000013000000BA0100003C00000006000000020000000000000000408FC0000000C0335064C000000040A65F4FC00000000000408FC00000008063A264C000000000F21D4CC00C00000013000000C20100003C0000000600000002000000
310
0000000000408FC0000000C0335064C000000040A65F4FC00000004000408F40000000E0335064C000000020A65F4FC00C00000013000000CA0100003C00000006000000020000000000004000408F40000000E0335064C000000020A65F4FC00000004000408F400000008063A264C000000000F21D4CC00C000000130000
310
00D20100003C00000006000000020000000000000000408FC000000060ECED63C000000040714951C00000000000408FC0000000C0335064C000000040A65F4FC00C00000013000000DA0100003C00000006000000020000000000000000408FC000000060ECED63C000000040714951C00000004000408F4000000080ECED
310
63C000000040714951C00C00000013000000E20100003C00000006000000020000000000004000408F40000000E0335064C000000020A65F4FC00000004000408F4000000080ECED63C000000040714951C00C00000013000000EA0100003C00000006000000020000000000000000408FC0000000801E7B63C0000000603F
310
DB52C00000000000408FC000000060ECED63C000000040714951C00C00000013000000F20100003C00000006000000020000000000000000408FC0000000801E7B63C0000000603FDB52C00000004000408F40000000A01E7B63C0000000603FDB52C00C00000013000000FA0100003C000000060000000200000000000040
310
00408F40000000A01E7B63C0000000603FDB52C00000004000408F4000000080ECED63C000000040714951C00C00000013000000020200003C00000006000000020000000000000000408FC0000000E04FFB62C0000000E0F65854C00000000000408FC0000000801E7B63C0000000603FDB52C00C000000130000000A0200
310
003C00000006000000020000000000000000408FC0000000E04FFB62C0000000E0F65854C00000004000408F400000000050FB62C0000000C0F65854C00C00000013000000120200003C00000006000000020000000000004000408F40000000A01E7B63C0000000603FDB52C00000004000408F400000000050FB62C00000
310
00C0F65854C00C000000130000001A0200003C00000006000000020000000000000000408FC0000000C0707062C000000080D0BE55C00000000000408FC0000000E04FFB62C0000000E0F65854C00C00000013000000220200003C00000006000000020000000000000000408FC0000000C0707062C000000080D0BE55C000
310
00004000408F40000000E0707062C000000080D0BE55C00C000000130000002A0200003C00000006000000020000000000004000408F40000000E0707062C000000080D0BE55C00000004000408F400000000050FB62C0000000C0F65854C00C00000013000000320200003C00000006000000020000000000000000408FC0
310
0000002019DF61C0000000A08D0157C00000000000408FC0000000C0707062C000000080D0BE55C00C000000130000003A0200003C00000006000000020000000000000000408FC00000002019DF61C0000000A08D0157C00000004000408F400000004019DF61C0000000A08D0157C00C00000013000000420200003C0000
310
0006000000020000000000004000408F40000000E0707062C000000080D0BE55C00000004000408F400000004019DF61C0000000A08D0157C00C000000130000004A0200003C00000006000000020000000000000000408FC0000000A0D54761C0000000A0282258C00000000000408FC00000002019DF61C0000000A08D01
310
57C00C00000013000000520200003C00000006000000020000000000000000408FC0000000A0D54761C0000000A0282258C00000004000408F40000000C0D54761C0000000A0282258C00C000000130000005A0200003C00000006000000020000000000004000408F400000004019DF61C0000000A08D0157C00000004000
310
408F40000000C0D54761C0000000A0282258C00C00000013000000620200003C00000006000000020000000000000000408FC000000080670960C00000004023025AC00000000000408FC0000000A0D54761C0000000A0282258C00C000000130000006A0200003C00000006000000020000000000000000408FC000000080
310
670960C00000004023025AC00000004000408F40000000A0670960C00000004023025AC00C00000013000000720200003C00000006000000020000000000004000408F40000000C0D54761C0000000A0282258C00000004000408F40000000A0670960C00000004023025AC00C000000130000007A0200003C000000060000
310
00020000000000000000408FC0000000C0CCB05EC00000006055CF5AC00000000000408FC000000080670960C00000004023025AC00C00000013000000820200003C00000006000000020000000000000000408FC0000000C0CCB05EC00000006055CF5AC00000004000408F4000000000CDB05EC00000006055CF5AC00C00
310
0000130000008A0200003C00000006000000020000000000004000408F40000000A0670960C00000004023025AC00000004000408F4000000000CDB05EC00000006055CF5AC00C00000013000000920200003C00000006000000020000000000000000408FC00000000069295DC0000000C0288A5BC00000000000408FC000
310
0000C0CCB05EC00000006055CF5AC00C000000130000009A0200003C00000006000000020000000000000000408FC00000000069295DC0000000C0288A5BC00000004000408F400000004069295DC0000000C0288A5BC00C00000013000000A20200003C00000006000000020000000000004000408F4000000000CDB05EC0
310
0000006055CF5AC00000004000408F400000004069295DC0000000C0288A5BC00C00000013000000AA0200003C00000006000000020000000000000000408FC0000000E0D95B5BC0000000C08F455CC00000000000408FC00000000069295DC0000000C0288A5BC00C00000013000000B20200003C00000006000000020000
310
000000000000408FC0000000E0D95B5BC0000000C08F455CC00000004000408F4000000000DA5B5BC0000000C08F455CC00C00000013000000BA0200003C00000006000000020000000000004000408F400000004069295DC0000000C0288A5BC00000004000408F4000000000DA5B5BC0000000C08F455CC00C0000001300
310
0000C20200003C00000006000000020000000000000000408FC000000080AF4759C000000000C60B5DC00000000000408FC0000000E0D95B5BC0000000C08F455CC00C00000013000000CA0200003C00000006000000020000000000000000408FC000000080AF4759C000000000C60B5DC00000004000408F40000000C0AF
310
4759C000000000C60B5DC00C00000013000000D20200003C00000006000000020000000000004000408F4000000000DA5B5BC0000000C08F455CC00000004000408F40000000C0AF4759C000000000C60B5DC00C00000013000000DA0200003C00000006000000020000000000000000408FC0000000205F3457C0000000C0
310
0BD85DC00000000000408FC000000080AF4759C000000000C60B5DC00C00000013000000E20200003C00000006000000020000000000000000408FC0000000205F3457C0000000C00BD85DC00000004000408F40000000405F3457C0000000C00BD85DC00C00000013000000EA0200003C0000000600000002000000000000
310
4000408F40000000C0AF4759C000000000C60B5DC00000004000408F40000000405F3457C0000000C00BD85DC00C00000013000000F20200003C00000006000000020000000000000000408FC0000000E04B6555C0000000A0E5A15EC00000000000408FC0000000205F3457C0000000C00BD85DC00C00000013000000FA02
310
00003C00000006000000020000000000000000408FC0000000E04B6555C0000000A0E5A15EC00000004000408F40000000004C6555C0000000A0E5A15EC00C00000013000000020300003C00000006000000020000000000004000408F40000000405F3457C0000000C00BD85DC00000004000408F40000000004C6555C000
310
0000A0E5A15EC00C000000130000000A0300003C00000006000000020000000000000000408FC00000008077D453C000000060C5705FC00000000000408FC0000000E04B6555C0000000A0E5A15EC00C00000013000000120300003C00000006000000020000000000000000408FC00000008077D453C000000060C5705FC0
310
0000004000408F40000000C077D453C000000060C5705FC00C000000130000001A0300003C00000006000000020000000000004000408F40000000C077D453C000000060C5705FC00000004000408F40000000004C6555C0000000A0E5A15EC00C00000013000000220300003C00000006000000020000000000000000408F
310
C0000000C03F6D52C0000000E01E2860C00000000000408FC00000008077D453C000000060C5705FC00C000000130000002A0300003C00000006000000020000000000000000408FC0000000C03F6D52C0000000E01E2860C00000004000408F4000000000406D52C0000000001F2860C00C00000013000000320300003C00
310
000006000000020000000000004000408F40000000C077D453C000000060C5705FC00000004000408F4000000000406D52C0000000001F2860C00C000000130000003A0300003C00000006000000020000000000000000408FC0000000400A1C51C000000080A9A460C00000000000408FC0000000C03F6D52C0000000E01E
310
2860C00C00000013000000420300003C00000006000000020000000000000000408FC0000000400A1C51C000000080A9A460C00000004000408F40000000600A1C51C000000080A9A460C00C000000130000004A0300003C00000006000000020000000000004000408F40000000600A1C51C000000080A9A460C000000040
310
00408F4000000000406D52C0000000001F2860C00C00000013000000520300003C00000006000000020000000000000000408FC000000080329F4FC000000000623461C00000000000408FC0000000400A1C51C000000080A9A460C00C000000130000005A0300003C00000006000000020000000000000000408FC0000000
310
80329F4FC000000000623461C00000004000408F40000000E0329F4FC000000000623461C00C00000013000000620300003C00000006000000020000000000004000408F40000000600A1C51C000000080A9A460C00000004000408F40000000E0329F4FC000000000623461C00C000000130000006A0300003C0000000600
310
0000020000000000000000408FC0000000C097224DC0000000A00DD461C00000000000408FC000000080329F4FC000000000623461C00C00000013000000720300003C00000006000000020000000000000000408FC0000000C097224DC0000000A00DD461C00000004000408F400000000098224DC0000000A00DD461C00C
310
000000130000007A0300003C00000006000000020000000000004000408F400000000098224DC0000000A00DD461C00000004000408F40000000E0329F4FC000000000623461C00C00000013000000820300003C00000006000000020000000000000000408FC0000000C04CD24AC0000000C0D27E62C00000000000408FC0
310
000000C097224DC0000000A00DD461C00C000000130000008A0300003C00000006000000020000000000000000408FC0000000C04CD24AC0000000C0D27E62C00000004000408F40000000004DD24AC0000000C0D27E62C00C00000013000000920300003C00000006000000020000000000004000408F400000000098224D
310
C0000000A00DD461C00000004000408F40000000004DD24AC0000000C0D27E62C00C000000130000009A0300003C00000006000000020000000000000000408FC0000000E068C648C000000040832D63C00000000000408FC0000000C04CD24AC0000000C0D27E62C00C00000013000000A20300003C000000060000000200
310
00000000000000408FC0000000E068C648C000000040832D63C00000004000408F400000004069C648C000000040832D63C00C00000013000000AA0300003C00000006000000020000000000004000408F400000004069C648C000000040832D63C00000004000408F40000000004DD24AC0000000C0D27E62C00C00000013
310
000000B20300003C00000006000000020000000000000000408FC000000000F80D47C0000000C0A0DA63C00000000000408FC0000000E068C648C000000040832D63C00C00000013000000BA0300003C00000006000000020000000000000000408FC000000000F80D47C0000000C0A0DA63C00000004000408F4000000060
310
F80D47C0000000C0A0DA63C00C00000013000000C20300003C00000006000000020000000000004000408F400000004069C648C000000040832D63C00000004000408F4000000060F80D47C0000000C0A0DA63C00C00000013000000CA0300003C00000006000000020000000000000000408FC000000080505F44C0000000
310
801A4265C00000000000408FC000000000F80D47C0000000C0A0DA63C00C00000013000000D20300003C00000006000000020000000000000000408FC000000080505F44C0000000801A4265C00000004000408F40000000E0505F44C0000000801A4265C00C00000013000000DA0300003C00000006000000020000000000
310
004000408F40000000E0505F44C0000000801A4265C00000004000408F4000000060F80D47C0000000C0A0DA63C00C00000013000000E20300003C00000006000000020000000000000000408FC0000000C0629042C0000000A06FD566C00000000000408FC000000080505F44C0000000801A4265C00C00000013000000EA
310
0300003C00000006000000020000000000000000408FC0000000C0629042C0000000A06FD566C00000004000408F4000000040639042C0000000A06FD566C00C00000013000000F20300003C00000006000000020000000000004000408F40000000E0505F44C0000000801A4265C00000004000408F4000000040639042C0
310
000000A06FD566C00C00000013000000FA0300003C00000006000000020000000000000000408FC0000000006EA941C0000000C0B8A168C00000000000408FC0000000C0629042C0000000A06FD566C00C00000013000000020400003C00000006000000020000000000000000408FC0000000006EA941C0000000C0B8A168
310
C00000004000408F40000000A06EA941C0000000C0B8A168C00C000000130000000A0400003C00000006000000020000000000004000408F4000000040639042C0000000A06FD566C00000004000408F40000000A06EA941C0000000C0B8A168C00C00000013000000120400003C0000000600000002000000000000000040
310
8FC0000000006EA941C0000000C0B8A168C00000000000408FC000000000A5493FC000000000ADA168C00C000000130000001A0400003C00000006000000020000000000000000408FC000000000A5493FC000000000ADA168C00000004000408F40000000C0A5493FC000000000ADA168C00C00000013000000220400003C
310
00000006000000020000000000004000408F40000000A06EA941C0000000C0B8A168C00000004000408F40000000C0A5493FC000000000ADA168C00C000000130000002A0400003C00000006000000020000000000000000408FC000000000A5493FC000000000ADA168C00000000000408FC000000080F8F73EC000000020
310
740969C00C00000013000000320400003C00000006000000020000000000000000408FC000000080F8F73EC000000020740969C00000004000408F4000000080F9F73EC000000020740969C00C000000130000003A0400003C00000006000000020000000000004000408F40000000C0A5493FC000000000ADA168C0000000
310
4000408F4000000080F9F73EC000000020740969C00C00000013000000420400003C00000006000000020000000000000000408FC000000000A8F43DC000000060557569C00000000000408FC000000080F8F73EC000000020740969C00C000000130000004A0400003C00000006000000020000000000000000408FC00000
310
0000A8F43DC000000060557569C00000004000408F40000000C0A8F43DC000000040557569C00C00000013000000520400003C00000006000000020000000000004000408F40000000C0A8F43DC000000040557569C00000004000408F4000000080F9F73EC000000020740969C00C000000130000005A0400003C00000006
310
000000020000000000000000408FC000000000F1253DC0000000E0AFAC69C00000000000408FC000000000A8F43DC000000060557569C00C00000013000000620400003C00000006000000020000000000000000408FC000000000F1253DC0000000E0AFAC69C00000004000408F40000000C0F1253DC0000000E0AFAC69C0
310
0C000000130000006A0400003C00000006000000020000000000004000408F40000000C0F1253DC0000000E0AFAC69C00000004000408F40000000C0A8F43DC000000040557569C00C00000013000000720400003C00000006000000020000000000000000408FC00000000071223CC0000000208CE369C00000000000408F
310
C000000000F1253DC0000000E0AFAC69C00C000000130000007A0400003C00000006000000020000000000000000408FC00000000071223CC0000000208CE369C00000004000408F400000000072223CC0000000208CE369C00C00000013000000820400003C00000006000000020000000000004000408F40000000C0F125
310
3DC0000000E0AFAC69C00000004000408F400000000072223CC0000000208CE369C00C000000130000008A0400003C00000006000000020000000000000000408FC000000080BBE53AC000000040B2196AC00000000000408FC00000000071223CC0000000208CE369C00C00000013000000920400003C0000000600000002
310
0000000000000000408FC000000080BBE53AC000000040B2196AC00000004000408F4000000000BCE53AC000000040B2196AC00C000000130000009A0400003C00000006000000020000000000004000408F4000000000BCE53AC000000040B2196AC00000004000408F400000000072223CC0000000208CE369C00C000000
310
13000000A20400003C00000006000000020000000000000000408FC0000000807E7039C0000000C0EB4D6AC00000000000408FC000000080BBE53AC000000040B2196AC00C00000013000000AA0400003C00000006000000020000000000000000408FC0000000807E7039C0000000C0EB4D6AC00000004000408F40000000
310
007F7039C0000000C0EB4D6AC00C00000013000000B20400003C00000006000000020000000000004000408F4000000000BCE53AC000000040B2196AC00000004000408F40000000007F7039C0000000C0EB4D6AC00C00000013000000BA0400003C00000006000000020000000000000000408FC000000000BEC137C00000
310
00E0757F6AC00000000000408FC0000000807E7039C0000000C0EB4D6AC00C00000013000000C20400003C00000006000000020000000000000000408FC000000000BEC137C0000000E0757F6AC00000004000408F4000000000BFC137C000000000767F6AC00C00000013000000CA0400003C000000060000000200000000
310
00004000408F4000000000BFC137C000000000767F6AC00000004000408F40000000007F7039C0000000C0EB4D6AC00C00000013000000D20400003C00000006000000020000000000000000408FC000000080EAD735C00000000083AD6AC00000000000408FC000000000BEC137C0000000E0757F6AC00C00000013000000
310
DA0400003C00000006000000020000000000000000408FC000000080EAD735C00000000083AD6AC00000004000408F4000000000ECD735C00000000083AD6AC00C00000013000000E20400003C00000006000000020000000000004000408F4000000000ECD735C00000000083AD6AC00000004000408F4000000000BFC137
310
C000000000767F6AC00C00000013000000EA0400003C00000006000000020000000000000000408FC000000080EFD033C0000000800AD56AC00000000000408FC000000080EAD735C00000000083AD6AC00C00000013000000F20400003C00000006000000020000000000000000408FC000000080EFD033C0000000800AD5
310
6AC00000004000408F4000000000F1D033C0000000800AD56AC00C00000013000000FA0400003C00000006000000020000000000004000408F4000000000F1D033C0000000800AD56AC00000004000408F4000000000ECD735C00000000083AD6AC00C00000013000000020500003C00000006000000020000000000000000
310
408FC000000000199531C0000000C07FF76AC00000000000408FC000000080EFD033C0000000800AD56AC00C000000130000000A0500003C00000006000000020000000000000000408FC000000000199531C0000000C07FF76AC00000004000408F40000000001A9531C0000000C07FF76AC00C0000001300000012050000
310
3C00000006000000020000000000004000408F40000000001A9531C0000000C07FF76AC00000004000408F4000000000F1D033C0000000800AD56AC00C000000130000001A0500003C00000006000000020000000000000000408FC000000000F5562EC0000000808A136BC00000000000408FC000000000199531C0000000
310
C07FF76AC00C00000013000000220500003C00000006000000020000000000000000408FC000000000F5562EC0000000808A136BC00000004000408F4000000000F7562EC0000000808A136BC00C000000130000002A0500003C00000006000000020000000000004000408F4000000000F7562EC0000000808A136BC00000
310
004000408F40000000001A9531C0000000C07FF76AC00C00000013000000320500003C00000006000000020000000000000000408FC000000000DE7729C00000004025276BC00000000000408FC000000000F5562EC0000000808A136BC00C000000130000003A0500003C00000006000000020000000000000000408FC000
310
000000DE7729C00000004025276BC00000004000408F4000000000E07729C00000004025276BC00C00000013000000420500003C00000006000000020000000000004000408F4000000000E07729C00000004025276BC00000004000408F4000000000F7562EC0000000808A136BC00C000000130000004A0500003C000000
310
06000000020000000000000000408FC00000000054B724C0000000005E326BC00000000000408FC000000000DE7729C00000004025276BC00C00000013000000520500003C00000006000000020000000000000000408FC00000000054B724C0000000005E326BC00000004000408F400000000056B724C0000000005E326B
310
C00C000000130000005A0500003C00000006000000020000000000004000408F400000000056B724C0000000005E326BC00000004000408F4000000000E07729C00000004025276BC00C00000013000000620500003C00000006000000020000000000000000408FC0000000009E2520C000000080E5356BC0000000000040
310
8FC00000000054B724C0000000005E326BC00C000000130000006A0500003C00000006000000020000000000000000408FC0000000009E2520C000000080E5356BC00000004000408F4000000000A02520C000000080E5356BC00C00000013000000720500003C00000006000000020000000000004000408F4000000000A0
310
2520C000000080E5356BC00000004000408F400000000056B724C0000000005E326BC00C000000130000007A0500003C00000006000000020000000000000000408FC0000000009E2520C000000080E5356BC00000000000408FC000000000E22420C000000000FEB96BC00C00000013000000820500003C00000006000000
310
020000000000000000408FC000000000E22420C000000000FEB96BC00000004000408F4000000000E42420C000000000FEB96BC00C000000130000008A0500003C00000006000000020000000000004000408F4000000000A02520C000000080E5356BC00000004000408F4000000000E42420C000000000FEB96BC00C0000
310
0013000000920500003C00000006000000020000000000000000408FC000000000E22420C000000000FEB96BC00000000000408FC000000000000000BF000000E0E6B96BC00C000000130000009A0500003C00000006000000020000000000000000408FC000000000000000BF000000E0E6B96BC00000004000408F400000
310
0000000008BF00000000E7B96BC00C00000013000000A20500003C00000006000000020000000000004000408F4000000000E42420C000000000FEB96BC00000004000408F4000000000000008BF00000000E7B96BC00C00000013000000AA0500003C00000006000000020000000000000000408FC00000000000A068BF00
310
000040C4A86AC00000000000408FC000000000000000BF000000E0E6B96BC00C00000013000000B20500003C00000006000000020000000000000000408FC00000000000A068BF00000040C4A86AC00000004000408F400000000000C068BF00000020C4A86AC00C00000013000000BA0500003C0000000600000002000000
310
0000004000408F400000000000C068BF00000020C4A86AC00000004000408F4000000000000008BF00000000E7B96BC00C00000013000000C20500003C00000006000000020000000000000000408FC0000000003053E5BF00000040329D6AC00000000000408FC00000000000A068BF00000040C4A86AC00C000000130000
310
00CA0500003C00000006000000020000000000000000408FC0000000003053E5BF00000040329D6AC00000004000408F40000000006053E5BF00000040329D6AC00C00000013000000D20500003C00000006000000020000000000004000408F40000000006053E5BF00000040329D6AC00000004000408F400000000000C0
310
68BF00000020C4A86AC00C00000013000000DA0500003C00000006000000020000000000000000408FC0000000000014F2BF000000A0D2896AC00000000000408FC0000000003053E5BF00000040329D6AC00C00000013000000E20500003C00000006000000020000000000000000408FC0000000000014F2BF000000A0D2
310
896AC00000004000408F40000000001814F2BF00000080D2896AC00C00000013000000EA0500003C00000006000000020000000000004000408F40000000001814F2BF00000080D2896AC00000004000408F40000000006053E5BF00000040329D6AC00C00000013000000F20500003C000000060000000200000000000000
310
00408FC000000000E805F5BF00000000F7716AC00000000000408FC0000000000014F2BF000000A0D2896AC00C00000013000000FA0500003C00000006000000020000000000000000408FC000000000E805F5BF00000000F7716AC00000004000408F40000000000006F5BF00000000F7716AC00C00000013000000020600
310
003C00000006000000020000000000004000408F40000000001814F2BF00000080D2896AC00000004000408F40000000000006F5BF00000000F7716AC00C000000130000000A0600003C00000006000000020000000000000000408FC00000000020FEF2BF00000080B6596AC00000000000408FC000000000E805F5BF0000
310
0000F7716AC00C00000013000000120600003C00000006000000020000000000000000408FC00000000020FEF2BF00000080B6596AC00000004000408F400000000030FEF2BF00000080B6596AC00C000000130000001A0600003C00000006000000020000000000004000408F400000000030FEF2BF00000080B6596AC000
310
00004000408F40000000000006F5BF00000000F7716AC00C00000013000000220600003C00000006000000020000000000000000408FC00000000020ACE8BF000000C038456AC00000000000408FC00000000020FEF2BF00000080B6596AC00C000000130000002A0600003C00000006000000020000000000000000408FC0
310
0000000020ACE8BF000000C038456AC00000004000408F400000000040ACE8BF000000C038456AC00C00000013000000320600003C00000006000000020000000000004000408F400000000040ACE8BF000000C038456AC00000004000408F400000000030FEF2BF00000080B6596AC00C000000130000003A0600003C0000
310
0006000000020000000000000000408FC00000000020ACE8BF000000C038456AC00000000000408FC00000000000E871BF000000809B2C6AC00C00000013000000420600003C00000006000000020000000000000000408FC00000000000E871BF000000809B2C6AC00000004000408F400000000000F871BF000000809B2C
310
6AC00C000000130000004A0600003C00000006000000020000000000004000408F400000000000F871BF000000809B2C6AC00000004000408F400000000040ACE8BF000000C038456AC00C00000013000000520600003C00000006000000020000000000000000408FC00000000000E871BF000000809B2C6AC00000000000
310
408FC00000000000107EBF000000C0921C69C00C000000130000005A0600003C00000006000000020000000000000000408FC00000000000107EBF000000C0921C69C00000004000408F400000000000207EBF000000C0921C69C00C00000013000000620600003C00000006000000020000000000004000408F4000000000
310
00207EBF000000C0921C69C00000004000408F400000000000F871BF000000809B2C6AC00C000000130000006A0600003C00000006000000020000000000000000408FC000000000D0D9EFBF000000E0D01069C00000000000408FC00000000000107EBF000000C0921C69C00C00000013000000720600003C000000060000
310
00020000000000000000408FC000000000D0D9EFBF000000E0D01069C00000004000408F400000000000DAEFBF000000C0D01069C00C000000130000007A0600003C00000006000000020000000000004000408F400000000000DAEFBF000000C0D01069C00000004000408F400000000000207EBF000000C0921C69C00C00
310
000013000000820600003C00000006000000020000000000000000408FC0000000006C5F00C000000000D41069C00000000000408FC000000000D0D9EFBF000000E0D01069C00C000000130000008A0600003C00000006000000020000000000000000408FC0000000006C5F00C000000000D41069C00000004000408F4000
310
000000785F00C000000000D41069C00C00000013000000920600003C00000006000000020000000000004000408F400000000000DAEFBF000000C0D01069C00000004000408F4000000000785F00C000000000D41069C00C000000130000009A0600003C00000006000000020000000000000000408FC00000000050A708C0
310
000000A0801D69C00000000000408FC0000000006C5F00C000000000D41069C00C00000013000000A20600003C00000006000000020000000000000000408FC00000000050A708C0000000A0801D69C00000004000408F400000000058A708C000000080801D69C00C00000013000000AA0600003C00000006000000020000
310
000000004000408F4000000000785F00C000000000D41069C00000004000408F400000000058A708C000000080801D69C00C00000013000000B20600003C00000006000000020000000000000000408FC00000000008E216C0000000407D4269C00000000000408FC00000000050A708C0000000A0801D69C00C0000001300
310
0000BA0600003C00000006000000020000000000000000408FC00000000008E216C0000000407D4269C00000004000408F40000000000CE216C0000000407D4269C00C00000013000000C20600003C00000006000000020000000000004000408F40000000000CE216C0000000407D4269C00000004000408F400000000058
310
A708C000000080801D69C00C00000013000000CA0600003C00000006000000020000000000000000408FC000000000E80021C000000060145169C00000000000408FC00000000008E216C0000000407D4269C00C00000013000000D20600003C00000006000000020000000000000000408FC000000000E80021C000000060
310
145169C00000004000408F4000000000EA0021C000000060145169C00C00000013000000DA0600003C00000006000000020000000000004000408F4000000000EA0021C000000060145169C00000004000408F40000000000CE216C0000000407D4269C00C00000013000000E20600003C0000000600000002000000000000
310
0000408FC000000000D89D26C0000000404F4969C00000000000408FC000000000E80021C000000060145169C00C00000013000000EA0600003C00000006000000020000000000000000408FC000000000D89D26C0000000404F4969C00000004000408F4000000000DA9D26C0000000404F4969C00C00000013000000F206
310
00003C00000006000000020000000000004000408F4000000000EA0021C000000060145169C00000004000408F4000000000DA9D26C0000000404F4969C00C00000013000000FA0600003C00000006000000020000000000000000408FC0000000002DF32BC000000000A32B69C00000000000408FC000000000D89D26C000
310
0000404F4969C00C00000013000000020700003C00000006000000020000000000000000408FC0000000002DF32BC000000000A32B69C00000004000408F400000000030F32BC000000000A32B69C00C000000130000000A0700003C00000006000000020000000000004000408F4000000000DA9D26C0000000404F4969C0
310
0000004000408F400000000030F32BC000000000A32B69C00C00000013000000120700003C00000006000000020000000000000000408FC000000080395830C000000040CFF968C00000000000408FC0000000002DF32BC000000000A32B69C00C000000130000001A0700003C00000006000000020000000000000000408F
310
C000000080395830C000000040CFF968C00000004000408F40000000003A5830C000000040CFF968C00C00000013000000220700003C00000006000000020000000000004000408F40000000003A5830C000000040CFF968C00000004000408F400000000030F32BC000000000A32B69C00C000000130000002A0700003C00
310
000006000000020000000000000000408FC000000000174732C000000080C3B668C00000000000408FC000000080395830C000000040CFF968C00C00000013000000320700003C00000006000000020000000000000000408FC000000000174732C000000080C3B668C00000004000408F4000000000184732C000000080C3
310
B668C00C000000130000003A0700003C00000006000000020000000000004000408F4000000000184732C000000080C3B668C00000004000408F40000000003A5830C000000040CFF968C00C00000013000000420700003C00000006000000020000000000000000408FC000000000174732C000000080C3B668C000000000
310
00408FC000000000D44635C0000000C0B81068C00C000000130000004A0700003C00000006000000020000000000000000408FC000000000D44635C0000000C0B81068C00000004000408F4000000000D54635C0000000C0B81068C00C00000013000000520700003C00000006000000020000000000004000408F40000000
310
00184732C000000080C3B668C00000004000408F4000000000D54635C0000000C0B81068C00C000000130000005A0700003C00000006000000020000000000000000408FC000000000C33237C000000040615A67C00000000000408FC000000000D44635C0000000C0B81068C00C00000013000000620700003C0000000600
310
0000020000000000000000408FC000000000C33237C000000040615A67C00000004000408F4000000080C33237C000000040615A67C00C000000130000006A0700003C00000006000000020000000000004000408F4000000080C33237C000000040615A67C00000004000408F4000000000D54635C0000000C0B81068C00C
310
00000013000000720700003C00000006000000020000000000000000408FC000000080EDF637C000000040229B66C00000000000408FC000000000C33237C000000040615A67C00C000000130000007A0700003C00000006000000020000000000000000408FC000000080EDF637C000000040229B66C00000004000408F40
310
00000000EEF637C000000040229B66C00C00000013000000820700003C00000006000000020000000000004000408F4000000000EEF637C000000040229B66C00000004000408F4000000080C33237C000000040615A67C00C000000130000008A0700003C00000006000000020000000000000000408FC000000080EDF637
310
C000000040229B66C00000000000408FC000000000A02138C000000080199066C00C00000013000000920700003C00000006000000020000000000000000408FC000000000A02138C000000080199066C00000004000408F4000000000A12138C000000080199066C00C000000130000009A0700003C000000060000000200
310
00000000004000408F4000000000A12138C000000080199066C00000004000408F4000000000EEF637C000000040229B66C00C00000013000000A20700003C00000006000000020000000000000000408FC000000000A67938C0000000401C8B66C00000000000408FC000000000A02138C000000080199066C00C00000013
310
000000AA0700003C00000006000000020000000000000000408FC000000000A67938C0000000401C8B66C00000004000408F4000000000A77938C0000000401C8B66C00C00000013000000B20700003C00000006000000020000000000004000408F4000000000A77938C0000000401C8B66C00000004000408F4000000000
310
A12138C000000080199066C00C00000013000000BA0700003C00000006000000020000000000000000408FC00000000059AD39C0000000C09A8B66C00000000000408FC000000000A67938C0000000401C8B66C00C00000013000000C20700003C00000006000000020000000000000000408FC00000000059AD39C0000000
310
C09A8B66C00000004000408F40000000005AAD39C0000000C09A8B66C00C00000013000000CA0700003C00000006000000020000000000004000408F40000000005AAD39C0000000C09A8B66C00000004000408F4000000000A77938C0000000401C8B66C00C00000013000000D20700003C00000006000000020000000000
310
000000408FC000000080FF043AC0000000A0DE0D66C00000000000408FC00000000059AD39C0000000C09A8B66C00C00000013000000DA0700003C00000006000000020000000000000000408FC000000080FF043AC0000000A0DE0D66C00000004000408F400000008000053AC0000000A0DE0D66C00C00000013000000E2
310
0700003C00000006000000020000000000004000408F400000008000053AC0000000A0DE0D66C00000004000408F40000000005AAD39C0000000C09A8B66C00C00000013000000EA0700003C00000006000000020000000000000000408FC000000080FF043AC0000000A0DE0D66C00000000000408FC000000080F3613AC0
310
00000040C8BB65C00C00000013000000F20700003C00000006000000020000000000000000408FC000000080F3613AC000000040C8BB65C00000004000408F4000000000F4613AC000000040C8BB65C00C00000013000000FA0700003C00000006000000020000000000004000408F4000000000F4613AC000000040C8BB65
310
C00000004000408F400000008000053AC0000000A0DE0D66C00C00000013000000020800003C00000006000000020000000000000000408FC0000000003BC53AC000000080E89365C00000000000408FC000000080F3613AC000000040C8BB65C00C000000130000000A0800003C0000000600000002000000000000000040
310
8FC0000000003BC53AC000000080E89365C00000004000408F40000000003CC53AC000000080E89365C00C00000013000000120800003C00000006000000020000000000004000408F40000000003CC53AC000000080E89365C00000004000408F4000000000F4613AC000000040C8BB65C00C000000130000001A0800003C
310
00000006000000020000000000000000408FC0000000003BC53AC000000080E89365C00000000000408FC0000000004E653EC000000000DF7E64C00C00000013000000220800003C00000006000000020000000000000000408FC0000000004E653EC000000000DF7E64C00000004000408F40000000004F653EC000000000
310
DF7E64C00C000000130000002A0800003C00000006000000020000000000004000408F40000000004F653EC000000000DF7E64C00000004000408F40000000003CC53AC000000080E89365C00C00000013000000320800003C00000006000000020000000000000000408FC000000000484941C000000040487263C0000000
310
0000408FC0000000004E653EC000000000DF7E64C00C000000130000003A0800003C00000006000000020000000000000000408FC000000000484941C000000040487263C00000004000408F4000000060484941C000000040487263C00C00000013000000420800003C00000006000000020000000000004000408F400000
310
0060484941C000000040487263C00000004000408F40000000004F653EC000000000DF7E64C00C000000130000004A0800003C00000006000000020000000000000000408FC000000080686244C000000060963262C00000000000408FC000000000484941C000000040487263C00C00000013000000520800003C00000006
310
000000020000000000000000408FC000000080686244C000000060963262C00000004000408F40000000C0686244C000000060963262C00C000000130000005A0800003C00000006000000020000000000004000408F40000000C0686244C000000060963262C00000004000408F4000000060484941C000000040487263C0
310
0C00000013000000620800003C00000006000000020000000000000000408FC000000040C37348C000000040BEEF60C00000000000408FC000000080686244C000000060963262C00C000000130000006A0800003C00000006000000020000000000000000408FC000000040C37348C000000040BEEF60C00000004000408F
310
40000000A0C37348C000000040BEEF60C00C00000013000000720800003C00000006000000020000000000004000408F40000000A0C37348C000000040BEEF60C00000004000408F40000000C0686244C000000060963262C00C000000130000007A0800003C00000006000000020000000000000000408FC0000000807A1B
310
4DC0000000C0F9965FC00000000000408FC000000040C37348C000000040BEEF60C00C00000013000000820800003C00000006000000020000000000000000408FC0000000807A1B4DC0000000C0F9965FC00000004000408F40000000C07A1B4DC0000000C0F9965FC00C000000130000008A0800003C0000000600000002
310
0000000000004000408F40000000C07A1B4DC0000000C0F9965FC00000004000408F40000000A0C37348C000000040BEEF60C00C00000013000000920800003C00000006000000020000000000000000408FC000000040181551C0000000E0DEAA5DC00000000000408FC0000000807A1B4DC0000000C0F9965FC00C000000
310
130000009A0800003C00000006000000020000000000000000408FC000000040181551C0000000E0DEAA5DC00000004000408F4000000080181551C0000000E0DEAA5DC00C00000013000000A20800003C00000006000000020000000000004000408F4000000080181551C0000000E0DEAA5DC00000004000408F40000000
310
C07A1B4DC0000000C0F9965FC00C00000013000000AA0800003C00000006000000020000000000000000408FC00000006076E254C0000000E05FA15BC00000000000408FC000000040181551C0000000E0DEAA5DC00C00000013000000B20800003C00000006000000020000000000000000408FC00000006076E254C00000
310
00E05FA15BC00000004000408F400000008076E254C0000000E05FA15BC00C00000013000000BA0800003C00000006000000020000000000004000408F400000008076E254C0000000E05FA15BC00000004000408F4000000080181551C0000000E0DEAA5DC00C00000013000000C20800003C000000060000000200000000
310
00000000408FC0000000E0408F58C0000000A075285AC00000000000408FC00000006076E254C0000000E05FA15BC00C00000013000000CA0800003C00000006000000020000000000000000408FC0000000E0408F58C0000000A075285AC00000004000408F4000000000418F58C0000000A075285AC00C00000013000000
310
D20800003C00000006000000020000000000004000408F4000000000418F58C0000000A075285AC00000004000408F400000008076E254C0000000E05FA15BC00C00000013000000DA0800003C00000006000000020000000000000000408FC0000000209F2C5BC000000040A92A59C00000000000408FC0000000E0408F58
310
C0000000A075285AC00C00000013000000E20800003C00000006000000020000000000000000408FC0000000209F2C5BC000000040A92A59C00000004000408F40000000409F2C5BC000000040A92A59C00C00000013000000EA0800003C00000006000000020000000000004000408F40000000409F2C5BC000000040A92A
310
59C00000004000408F4000000000418F58C0000000A075285AC00C00000013000000F20800003C00000006000000020000000000000000408FC000000080709D5CC000000080FE8A58C00000000000408FC0000000209F2C5BC000000040A92A59C00C00000013000000FA0800003C00000006000000020000000000000000
310
408FC000000080709D5CC000000080FE8A58C00000004000408F40000000C0709D5CC000000080FE8A58C00C00000013000000020900003C00000006000000020000000000004000408F40000000C0709D5CC000000080FE8A58C00000004000408F40000000409F2C5BC000000040A92A59C00C000000130000000A090000
310
3C00000006000000020000000000000000408FC000000040A4CA5DC0000000A05DF057C00000000000408FC000000080709D5CC000000080FE8A58C00C00000013000000120900003C00000006000000020000000000000000408FC000000040A4CA5DC0000000A05DF057C00000004000408F4000000080A4CA5DC0000000
310
805DF057C00C000000130000001A0900003C00000006000000020000000000004000408F4000000080A4CA5DC0000000805DF057C00000004000408F40000000C0709D5CC000000080FE8A58C00C00000013000000220900003C00000006000000020000000000000000408FC000000040F6D55FC0000000005C9156C00000
310
000000408FC000000040A4CA5DC0000000A05DF057C00C000000130000002A0900003C00000006000000020000000000000000408FC000000040F6D55FC0000000005C9156C00000004000408F4000000080F6D55FC0000000005C9156C00C00000013000000320900003C00000006000000020000000000004000408F4000
310
000080F6D55FC0000000005C9156C00000004000408F4000000080A4CA5DC0000000805DF057C00C000000130000003A0900003C00000006000000020000000000000000408FC000000040F6D55FC0000000005C9156C00000000000408FC000000060371162C000000080BCD851C00C00000013000000420900003C000000
310
06000000020000000000000000408FC000000060371162C000000080BCD851C00000004000408F4000000080371162C000000080BCD851C00C000000130000004A0900003C00000006000000020000000000004000408F4000000080371162C000000080BCD851C00000004000408F4000000080F6D55FC0000000005C9156
310
C00C00000013000000520900003C00000006000000020000000000000000408FC00000000001CB62C0000000007EA64EC00000000000408FC000000060371162C000000080BCD851C00C000000130000005A0900003C00000006000000020000000000000000408FC00000000001CB62C0000000007EA64EC0000000400040
310
8F400000000001CB62C0000000007EA64EC00C00000013000000620900003C00000006000000020000000000004000408F400000000001CB62C0000000007EA64EC00000004000408F4000000080371162C000000080BCD851C00C000000130000006A0900003C00000006000000020000000000000000408FC0000000C054
310
5363C000000000F67549C00000000000408FC00000000001CB62C0000000007EA64EC00C00000013000000720900003C00000006000000020000000000000000408FC0000000C0545363C000000000F67549C00000004000408F40000000E0545363C000000000F67549C00C000000130000007A0900003C00000006000000
310
020000000000004000408F40000000E0545363C000000000F67549C00000004000408F400000000001CB62C0000000007EA64EC00C00000013000000820900003C00000006000000020000000000000000408FC000000060D0AF63C0000000C0B00A44C00000000000408FC0000000C0545363C000000000F67549C00C0000
310
00130000008A0900003C00000006000000020000000000000000408FC000000060D0AF63C0000000C0B00A44C00000004000408F4000000080D0AF63C0000000C0B00A44C00C00000013000000920900003C00000006000000020000000000004000408F4000000080D0AF63C0000000C0B00A44C00000004000408F400000
310
00E0545363C000000000F67549C00C000000130000009A0900003C00000006000000020000000000000000408FC000000060D0AF63C0000000C0B00A44C00000000000408FC0000000208EED63C000000000840241C00C00000013000000A20900003C00000006000000020000000000000000408FC0000000208EED63C000
310
000000840241C00000004000408F40000000408EED63C000000040840241C00C00000013000000AA0900003C00000006000000020000000000004000408F40000000408EED63C000000040840241C00000004000408F4000000080D0AF63C0000000C0B00A44C00C00000013000000B20900003C0000000600000002000000
310
0000000000408FC000000040052064C00000000074B03BC00000000000408FC0000000208EED63C000000000840241C00C00000013000000BA0900003C00000006000000020000000000000000408FC000000040052064C00000000074B03BC00000004000408F4000000060052064C00000000074B03BC00C000000130000
310
00C20900003C00000006000000020000000000004000408F4000000060052064C00000000074B03BC00000004000408F40000000408EED63C000000040840241C00C00000013000000CA0900003C00000006000000020000000000000000408FC000000040052064C00000000074B03BC00000000000408FC0000000E0B82F
310
64C00000008007583AC00C00000013000000D20900003C00000006000000020000000000000000408FC0000000E0B82F64C00000008007583AC00000004000408F4000000000B92F64C00000008007583AC00C00000013000000DA0900003C00000006000000020000000000004000408F4000000000B92F64C00000008007
310
583AC00000004000408F4000000060052064C00000000074B03BC00C00000013000000E20900003C00000006000000020000000000000000408FC000000040694A64C000000000623039C00000000000408FC0000000E0B82F64C00000008007583AC00C00000013000000EA0900003C000000060000000200000000000000
310
00408FC000000040694A64C000000000623039C00000004000408F4000000060694A64C000000000623039C00C00000013000000F20900003C00000006000000020000000000004000408F4000000060694A64C000000000623039C00000004000408F4000000000B92F64C00000008007583AC00C00000013000000FA0900
310
003C00000006000000020000000000000000408FC000000040076E64C000000000535038C00000000000408FC000000040694A64C000000000623039C00C00000013000000020A00003C00000006000000020000000000000000408FC000000040076E64C000000000535038C00000004000408F4000000060076E64C00000
310
0000535038C00C000000130000000A0A00003C00000006000000020000000000004000408F4000000060076E64C000000000535038C00000004000408F4000000060694A64C000000000623039C00C00000013000000120A00003C00000006000000020000000000000000408FC000000040076E64C000000000535038C000
310
00000000408FC00000008066A964C00000000008FA36C00C000000130000001A0A00003C00000006000000020000000000000000408FC00000008066A964C00000000008FA36C00000004000408F40000000A066A964C00000000008FA36C00C00000013000000220A00003C00000006000000020000000000004000408F40
310
000000A066A964C00000000008FA36C00000004000408F4000000060076E64C000000000535038C00C000000130000002A0A00003C00000006000000020000000000000000408FC0000000807FDB64C000000000AC4B35C00000000000408FC00000008066A964C00000000008FA36C00C00000013000000320A00003C0000
310
0006000000020000000000000000408FC0000000807FDB64C000000000AC4B35C00000004000408F40000000A07FDB64C000000000AC4B35C00C000000130000003A0A00003C00000006000000020000000000004000408F40000000A07FDB64C000000000AC4B35C00000004000408F40000000A066A964C00000000008FA
310
36C00C00000013000000420A00003C00000006000000020000000000000000408FC000000020B70265C000000000BD5733C00000000000408FC0000000807FDB64C000000000AC4B35C00C000000130000004A0A00003C00000006000000020000000000000000408FC000000020B70265C000000000BD5733C00000004000
310
408F4000000040B70265C000000000BD5733C00C00000013000000520A00003C00000006000000020000000000004000408F4000000040B70265C000000000BD5733C00000004000408F40000000A07FDB64C000000000AC4B35C00C000000130000005A0A00003C00000006000000020000000000000000408FC000000000
310
C86165C000000000CF6528C00000000000408FC000000020B70265C000000000BD5733C00C00000013000000620A00003C00000006000000020000000000000000408FC000000000C86165C000000000CF6528C00000004000408F4000000020C86165C000000000CE6528C00C000000130000006A0A00003C000000060000
310
00020000000000004000408F4000000020C86165C000000000CE6528C00000004000408F4000000040B70265C000000000BD5733C00C00000013000000720A00003C00000006000000020000000000000000408FC000000000C86165C000000000CF6528C00000000000408FC0000000609F7165C0000000004D7D26C00C00
310
0000130000007A0A00003C00000006000000020000000000000000408FC0000000609F7165C0000000004D7D26C00000004000408F40000000809F7165C0000000004D7D26C00C00000013000000820A00003C00000006000000020000000000004000408F40000000809F7165C0000000004D7D26C00000004000408F4000
310
000020C86165C000000000CE6528C00C000000130000008A0A00003C00000006000000020000000000000000408FC000000000698665C00000000047C924C00000000000408FC0000000609F7165C0000000004D7D26C00C00000013000000920A00003C00000006000000020000000000000000408FC000000000698665C0
310
0000000047C924C00000004000408F4000000020698665C00000000046C924C00C000000130000009A0A00003C00000006000000020000000000004000408F4000000020698665C00000000046C924C00000004000408F40000000809F7165C0000000004D7D26C00C00000013000000A20A00003C00000006000000020000
310
000000000000408FC000000000698665C00000000047C924C00000000000408FC00000008077B566C00000000000D87C3F0C00000013000000AA0A00003C00000006000000020000000000000000408FC00000008077B566C00000000000D87C3F0000004000408F40000000A077B566C00000000000E07C3F0C0000001300
310
0000B20A00003C00000006000000020000000000004000408F40000000A077B566C00000000000E07C3F0000004000408F4000000020698665C00000000046C924C00C00000013000000BA0A00003C00000006000000020000000000000000408FC0000000E0A9B367C0000000000078713F0000000000408FC00000008077
310
B566C00000000000D87C3F0C00000013000000C20A00003C00000006000000020000000000000000408FC0000000E0A9B367C0000000000078713F0000004000408F4000000000AAB367C0000000000080713F0C00000013000000CA0A00003C00000006000000020000000000004000408F4000000000AAB367C000000000
310
0080713F0000004000408F40000000A077B566C00000000000E07C3F0C00000013000000D20A00003C00000006000000020000000000000000408FC000000040BCD267C00000000040EEEBBF0000000000408FC0000000E0A9B367C0000000000078713F0C00000013000000DA0A00003C0000000600000002000000000000
310
0000408FC000000040BCD267C00000000040EEEBBF0000004000408F4000000080BCD267C00000000040EEEBBF0C00000013000000E20A00003C00000006000000020000000000004000408F4000000080BCD267C00000000040EEEBBF0000004000408F4000000000AAB367C0000000000080713F0C00000013000000EA0A
310
00003C00000006000000020000000000000000408FC000000040BCD267C00000000040EEEBBF0000000000408FC0000000A0DFE667C00000000030E4F3BF0C00000013000000F20A00003C00000006000000020000000000000000408FC0000000A0DFE667C00000000030E4F3BF0000004000408F40000000C0DFE667C000
310
00000030E4F3BF0C00000013000000FA0A00003C00000006000000020000000000004000408F40000000C0DFE667C00000000030E4F3BF0000004000408F4000000080BCD267C00000000040EEEBBF0C00000013000000020B00003C00000006000000020000000000000000408FC0000000C0F0FD67C000000000804FF5BF
310
0000000000408FC0000000A0DFE667C00000000030E4F3BF0C000000130000000A0B00003C00000006000000020000000000000000408FC0000000C0F0FD67C000000000804FF5BF0000004000408F4000000000F1FD67C000000000804FF5BF0C00000013000000120B00003C00000006000000020000000000004000408F
310
4000000000F1FD67C000000000804FF5BF0000004000408F40000000C0DFE667C00000000030E4F3BF0C000000130000001A0B00003C00000006000000020000000000000000408FC000000080401468C000000000C8FEF1BF0000000000408FC0000000C0F0FD67C000000000804FF5BF0C00000013000000220B00003C00
310
000006000000020000000000000000408FC000000080401468C000000000C8FEF1BF0000004000408F40000000A0401468C000000000C0FEF1BF0C000000130000002A0B00003C00000006000000020000000000004000408F40000000A0401468C000000000C0FEF1BF0000004000408F4000000000F1FD67C00000000080
310
4FF5BF0C00000013000000320B00003C00000006000000020000000000000000408FC0000000C03D2668C000000000A0F3E4BF0000000000408FC000000080401468C000000000C8FEF1BF0C000000130000003A0B00003C00000006000000020000000000000000408FC0000000C03D2668C000000000A0F3E4BF00000040
310
00408F40000000003E2668C000000000A0F3E4BF0C00000013000000420B00003C00000006000000020000000000004000408F40000000003E2668C000000000A0F3E4BF0000004000408F40000000A0401468C000000000C0FEF1BF0C000000130000004A0B00003C00000006000000020000000000000000408FC0000000
310
A0083168C00000000000B0673F0000000000408FC0000000C03D2668C000000000A0F3E4BF0C00000013000000520B00003C00000006000000020000000000004000408F40000000C0083168C00000000000C0673F0000004000408F40000000003E2668C000000000A0F3E4BF0C000000130000005A0B00003C0000000600
310
0000020000000000000000408FC0000000A0D6BA68C0000000005C8220C00000000000408FC0000000A0083168C00000000000B0673F0C00000013000000620B00003C00000006000000020000000000000000408FC0000000A0D6BA68C0000000005C8220C00000000000408FC0000000C03D2668C000000000A0F3E4BF0C
310
000000130000006A0B00003C00000006000000020000000000000000408FC000000080AA6668C000000000053321C00000000000408FC000000080401468C000000000C8FEF1BF0C00000013000000720B00003C00000006000000020000000000000000408FC0000000A0E70F68C0000000007B0A23C00000000000408FC0
310
000000C0F0FD67C000000000804FF5BF0C000000130000007A0B00003C00000006000000020000000000000000408FC00000000023A967C0000000001F7B26C00000000000408FC0000000A0DFE667C00000000030E4F3BF0C00000013000000820B00003C00000006000000020000000000000000408FC0000000E0374067
310
C000000000A34B2BC00000000000408FC000000040BCD267C00000000040EEEBBF0C000000130000008A0B00003C00000006000000020000000000000000408FC0000000E0374067C000000000A34B2BC00000000000408FC000000000698665C00000000047C924C00C00000013000000920B00003C000000060000000200
310
00000000000000408FC0000000C053F166C00000000067E42FC00000000000408FC0000000609F7165C0000000004D7D26C00C000000130000009A0B00003C00000006000000020000000000000000408FC0000000802CA566C00000008096A232C00000000000408FC000000000C86165C000000000CF6528C00C00000013
310
000000A20B00003C00000006000000020000000000000000408FC0000000C00A6366C000000080D57935C00000000000408FC000000020B70265C000000000BD5733C00C00000013000000AA0B00003C00000006000000020000000000000000408FC000000000BB2D66C000000000C24C38C00000000000408FC000000080
310
7FDB64C000000000AC4B35C00C00000013000000B20B00003C00000006000000020000000000000000408FC00000002088FB65C000000080E1D83BC00000000000408FC00000008066A964C00000000008FA36C00C00000013000000BA0B00003C00000006000000020000000000000000408FC000000080D5DE65C0000000
310
00C0F93EC00000000000408FC000000040076E64C000000000535038C00C00000013000000C20B00003C00000006000000020000000000000000408FC000000000EDD365C000000080F30541C00000000000408FC000000040694A64C000000000623039C00C00000013000000CA0B00003C00000006000000020000000000
310
000000408FC000000000EAD365C0000000800B8A41C00000000000408FC0000000E0B82F64C00000008007583AC00C00000013000000D20B00003C00000006000000020000000000000000408FC0000000409E4265C0000000C0D78941C00000000000408FC000000040052064C00000000074B03BC00C00000013000000DA
310
0B00003C00000006000000020000000000000000408FC0000000409E4265C0000000C0D78941C00000000000408FC000000060D0AF63C0000000C0B00A44C00C00000013000000E20B00003C00000006000000020000000000000000408FC0000000409E4265C0000000C0D78941C00000000000408FC0000000208EED63C0
310
00000000840241C00C00000013000000EA0B00003C00000006000000020000000000000000408FC00000008025E664C0000000C0CCBE48C00000000000408FC0000000C0545363C000000000F67549C00C00000013000000F20B00003C00000006000000020000000000000000408FC0000000C0335064C000000040A65F4F
310
C00000000000408FC00000000001CB62C0000000007EA64EC00C00000013000000FA0B00003C00000006000000020000000000000000408FC00000008063A264C000000000F21D4CC00000000000408FC0000000C0545363C000000000F67549C00C00000013000000020C00003C0000000600000002000000000000000040
310
8FC0000000801E7B63C0000000603FDB52C00000000000408FC000000060371162C000000080BCD851C00C000000130000000A0C00003C00000006000000020000000000000000408FC000000060ECED63C000000040714951C00000000000408FC00000000001CB62C0000000007EA64EC00C00000013000000120C00003C
310
00000006000000020000000000000000408FC0000000C0707062C000000080D0BE55C00000000000408FC000000060371162C000000080BCD851C00C000000130000001A0C00003C00000006000000020000000000000000408FC0000000E04FFB62C0000000E0F65854C00000000000408FC000000060371162C000000080
310
BCD851C00C00000013000000220C00003C00000006000000020000000000000000408FC00000002019DF61C0000000A08D0157C00000000000408FC000000040F6D55FC0000000005C9156C00C000000130000002A0C00003C00000006000000020000000000000000408FC0000000A0D54761C0000000A0282258C0000000
310
0000408FC000000040F6D55FC0000000005C9156C00C00000013000000320C00003C00000006000000020000000000000000408FC000000080670960C00000004023025AC00000000000408FC000000040F6D55FC0000000005C9156C00C000000130000003A0C00003C00000006000000020000000000000000408FC00000
310
00C0CCB05EC00000006055CF5AC00000000000408FC000000040A4CA5DC0000000A05DF057C00C00000013000000420C00003C00000006000000020000000000000000408FC00000000069295DC0000000C0288A5BC00000000000408FC000000080709D5CC000000080FE8A58C00C000000130000004A0C00003C00000006
310
000000020000000000000000408FC0000000E0D95B5BC0000000C08F455CC00000000000408FC0000000209F2C5BC000000040A92A59C00C00000013000000520C00003C00000006000000020000000000000000408FC000000080AF4759C000000000C60B5DC00000000000408FC0000000E0408F58C0000000A075285AC0
310
0C000000130000005A0C00003C00000006000000020000000000000000408FC0000000205F3457C0000000C00BD85DC00000000000408FC00000006076E254C0000000E05FA15BC00C00000013000000620C00003C00000006000000020000000000000000408FC00000008077D453C000000060C5705FC00000000000408F
310
C000000040181551C0000000E0DEAA5DC00C000000130000006A0C00003C00000006000000020000000000000000408FC0000000E04B6555C0000000A0E5A15EC00000000000408FC00000006076E254C0000000E05FA15BC00C00000013000000720C00003C00000006000000020000000000000000408FC0000000400A1C
310
51C000000080A9A460C00000000000408FC0000000807A1B4DC0000000C0F9965FC00C000000130000007A0C00003C00000006000000020000000000000000408FC0000000C03F6D52C0000000E01E2860C00000000000408FC000000040181551C0000000E0DEAA5DC00C00000013000000820C00003C0000000600000002
310
0000000000000000408FC0000000C097224DC0000000A00DD461C00000000000408FC000000040C37348C000000040BEEF60C00C000000130000008A0C00003C00000006000000020000000000000000408FC000000080329F4FC000000000623461C00000000000408FC0000000807A1B4DC0000000C0F9965FC00C000000
310
13000000920C00003C00000006000000020000000000000000408FC0000000E068C648C000000040832D63C00000000000408FC000000080686244C000000060963262C00C000000130000009A0C00003C00000006000000020000000000000000408FC0000000C04CD24AC0000000C0D27E62C00000000000408FC0000000
310
40C37348C000000040BEEF60C00C00000013000000A20C00003C00000006000000020000000000000000408FC000000080505F44C0000000801A4265C00000000000408FC000000000484941C000000040487263C00C00000013000000AA0C00003C00000006000000020000000000000000408FC000000000F80D47C00000
310
00C0A0DA63C00000000000408FC000000080686244C000000060963262C00C00000013000000B20C00003C00000006000000020000000000000000408FC000000080505F44C0000000801A4265C00000000000408FC0000000004E653EC000000000DF7E64C00C00000013000000BA0C00003C000000060000000200000000
310
00000000408FC0000000C0629042C0000000A06FD566C00000000000408FC0000000003BC53AC000000080E89365C00C00000013000000C20C00003C00000006000000020000000000000000408FC0000000C0629042C0000000A06FD566C00000000000408FC000000080FF043AC0000000A0DE0D66C00C00000013000000
310
CA0C00003C00000006000000020000000000000000408FC0000000C0629042C0000000A06FD566C00000000000408FC000000080F3613AC000000040C8BB65C00C00000013000000D20C00003C00000006000000020000000000000000408FC0000000006EA941C0000000C0B8A168C00000000000408FC00000000059AD39
310
C0000000C09A8B66C00C00000013000000DA0C00003C00000006000000020000000000000000408FC000000000A5493FC000000000ADA168C00000000000408FC000000000A67938C0000000401C8B66C00C00000013000000E20C00003C00000006000000020000000000000000408FC000000000A5493FC000000000ADA1
310
68C00000000000408FC000000000A02138C000000080199066C00C00000013000000EA0C00003C00000006000000020000000000000000408FC000000000A5493FC000000000ADA168C00000000000408FC000000080EDF637C000000040229B66C00C00000013000000F20C00003C00000006000000020000000000000000
310
408FC000000000A5493FC000000000ADA168C00000000000408FC000000000C33237C000000040615A67C00C00000013000000FA0C00003C00000006000000020000000000000000408FC000000000F1253DC0000000E0AFAC69C00000000000408FC000000080395830C000000040CFF968C00C00000013000000020D0000
310
3C00000006000000020000000000000000408FC000000000A8F43DC000000060557569C00000000000408FC000000000174732C000000080C3B668C00C000000130000000A0D00003C00000006000000020000000000000000408FC000000000A5493FC000000000ADA168C00000000000408FC000000000D44635C0000000
310
C0B81068C00C00000013000000120D00003C00000006000000020000000000000000408FC000000080F8F73EC000000020740969C00000000000408FC000000000174732C000000080C3B668C00C000000130000001A0D00003C00000006000000020000000000000000408FC000000080BBE53AC000000040B2196AC00000
310
000000408FC000000080395830C000000040CFF968C00C00000013000000220D00003C00000006000000020000000000000000408FC00000000071223CC0000000208CE369C00000000000408FC000000080395830C000000040CFF968C00C000000130000002A0D00003C00000006000000020000000000000000408FC000
310
0000009E2520C000000080E5356BC00000000000408FC00000000008E216C0000000407D4269C00C00000013000000320D00003C00000006000000020000000000000000408FC00000000054B724C0000000005E326BC00000000000408FC000000000E80021C000000060145169C00C000000130000003A0D00003C000000
310
06000000020000000000000000408FC000000000DE7729C00000004025276BC00000000000408FC000000000E80021C000000060145169C00C00000013000000420D00003C00000006000000020000000000000000408FC000000000F5562EC0000000808A136BC00000000000408FC000000000D89D26C0000000404F4969
310
C00C000000130000004A0D00003C00000006000000020000000000000000408FC000000000199531C0000000C07FF76AC00000000000408FC000000000D89D26C0000000404F4969C00C00000013000000520D00003C00000006000000020000000000000000408FC000000080EFD033C0000000800AD56AC0000000000040
310
8FC000000000D89D26C0000000404F4969C00C000000130000005A0D00003C00000006000000020000000000000000408FC000000080EAD735C00000000083AD6AC00000000000408FC0000000002DF32BC000000000A32B69C00C00000013000000620D00003C00000006000000020000000000000000408FC000000000BE
310
C137C0000000E0757F6AC00000000000408FC0000000002DF32BC000000000A32B69C00C000000130000006A0D00003C00000006000000020000000000000000408FC0000000807E7039C0000000C0EB4D6AC00000000000408FC0000000002DF32BC000000000A32B69C00C00000013000000720D00003C00000006000000
310
020000000000000000408FC00000000020ACE8BF000000C038456AC00000000000408FC000000000D0D9EFBF000000E0D01069C00C000000130000007A0D00003C00000006000000020000000000000000408FC000000000E22420C000000000FEB96BC00000000000408FC0000000003053E5BF00000040329D6AC00C0000
310
0013000000820D00003C00000006000000020000000000000000408FC0000000009E2520C000000080E5356BC00000000000408FC0000000000014F2BF000000A0D2896AC00C000000130000008A0D00003C00000006000000020000000000000000408FC00000000020FEF2BF00000080B6596AC00000000000408FC00000
310
00006C5F00C000000000D41069C00C00000013000000920D00003C00000006000000020000000000000000408FC00000000050A708C0000000A0801D69C00000000000408FC000000000E805F5BF00000000F7716AC00C000000130000009A0D00003C00000006000000020000000000000000408FC0000000009E2520C000
310
000080E5356BC00000000000408FC000000000E805F5BF00000000F7716AC00C00000013000000A20D00003C00000006000000020000000000004000408F40000000C0083168C00000000000C0673F0000004000408F40000000C0D6BA68C0000000005B8220C00C00000013000000AA0D00003C0000000600000002000000
310
0000004000408F40000000C0D6BA68C0000000005B8220C00000004000408F40000000003E2668C000000000A0F3E4BF0C00000013000000B20D00003C00000006000000020000000000004000408F40000000A0401468C000000000C0FEF1BF0000004000408F40000000A0AA6668C000000000043321C00C000000130000
310
00BA0D00003C00000006000000020000000000004000408F4000000000F1FD67C000000000804FF5BF0000004000408F40000000C0E70F68C0000000007A0A23C00C00000013000000C20D00003C00000006000000020000000000004000408F40000000C0DFE667C00000000030E4F3BF0000004000408F400000002023A9
310
67C000000000207B26C00C00000013000000CA0D00003C00000006000000020000000000004000408F4000000080BCD267C00000000040EEEBBF0000004000408F4000000000384067C000000000A44B2BC00C00000013000000D20D00003C00000006000000020000000000004000408F4000000000384067C000000000A4
310
4B2BC00000004000408F4000000020698665C00000000046C924C00C00000013000000DA0D00003C00000006000000020000000000004000408F40000000809F7165C0000000004D7D26C00000004000408F40000000E053F166C00000000066E42FC00C00000013000000E20D00003C000000060000000200000000000040
310
00408F4000000020C86165C000000000CE6528C00000004000408F40000000A02CA566C00000000097A232C00C00000013000000EA0D00003C00000006000000020000000000004000408F4000000040B70265C000000000BD5733C00000004000408F40000000E00A6366C000000080D57935C00C00000013000000F20D00
310
003C00000006000000020000000000004000408F40000000A07FDB64C000000000AC4B35C00000004000408F4000000000BB2D66C000000000C24C38C00C00000013000000FA0D00003C00000006000000020000000000004000408F40000000A066A964C00000000008FA36C00000004000408F400000004088FB65C00000
310
0000E1D83BC00C00000013000000020E00003C00000006000000020000000000004000408F4000000060076E64C000000000535038C00000004000408F40000000A0D5DE65C000000000C0F93EC00C000000130000000A0E00003C00000006000000020000000000004000408F4000000060694A64C000000000623039C000
310
00004000408F4000000000EDD365C000000080F30541C00C00000013000000120E00003C00000006000000020000000000004000408F4000000000B92F64C00000008007583AC00000004000408F4000000020EAD365C0000000C00B8A41C00C000000130000001A0E00003C00000006000000020000000000004000408F40
310
00000060052064C00000000074B03BC00000004000408F40000000609E4265C0000000C0D78941C00C00000013000000220E00003C00000006000000020000000000004000408F40000000609E4265C0000000C0D78941C00000004000408F40000000408EED63C000000040840241C00C000000130000002A0E00003C0000
310
0006000000020000000000004000408F40000000609E4265C0000000C0D78941C00000004000408F4000000080D0AF63C0000000C0B00A44C00C00000013000000320E00003C00000006000000020000000000004000408F40000000E0545363C000000000F67549C00000004000408F40000000A025E664C0000000C0CCBE
310
48C00C000000130000003A0E00003C00000006000000020000000000004000408F40000000E0545363C000000000F67549C00000004000408F400000008063A264C000000000F21D4CC00C00000013000000420E00003C00000006000000020000000000004000408F400000000001CB62C0000000007EA64EC00000004000
310
408F40000000E0335064C000000020A65F4FC00C000000130000004A0E00003C00000006000000020000000000004000408F400000000001CB62C0000000007EA64EC00000004000408F4000000080ECED63C000000040714951C00C00000013000000520E00003C00000006000000020000000000004000408F4000000080
310
371162C000000080BCD851C00000004000408F40000000A01E7B63C0000000603FDB52C00C000000130000005A0E00003C00000006000000020000000000004000408F4000000080371162C000000080BCD851C00000004000408F400000000050FB62C0000000C0F65854C00C00000013000000620E00003C000000060000
310
00020000000000004000408F4000000080371162C000000080BCD851C00000004000408F40000000E0707062C000000080D0BE55C00C000000130000006A0E00003C00000006000000020000000000004000408F4000000080F6D55FC0000000005C9156C00000004000408F400000004019DF61C0000000A08D0157C00C00
310
000013000000720E00003C00000006000000020000000000004000408F4000000080F6D55FC0000000005C9156C00000004000408F40000000C0D54761C0000000A0282258C00C000000130000007A0E00003C00000006000000020000000000004000408F4000000080F6D55FC0000000005C9156C00000004000408F4000
310
0000A0670960C00000004023025AC00C00000013000000820E00003C00000006000000020000000000004000408F4000000080A4CA5DC0000000805DF057C00000004000408F4000000000CDB05EC00000006055CF5AC00C000000130000008A0E00003C00000006000000020000000000004000408F40000000C0709D5CC0
310
00000080FE8A58C00000004000408F400000004069295DC0000000C0288A5BC00C00000013000000920E00003C00000006000000020000000000004000408F40000000409F2C5BC000000040A92A59C00000004000408F4000000000DA5B5BC0000000C08F455CC00C000000130000009A0E00003C00000006000000020000
310
000000004000408F4000000000418F58C0000000A075285AC00000004000408F40000000C0AF4759C000000000C60B5DC00C00000013000000A20E00003C00000006000000020000000000004000408F400000008076E254C0000000E05FA15BC00000004000408F40000000405F3457C0000000C00BD85DC00C0000001300
310
0000AA0E00003C00000006000000020000000000004000408F400000008076E254C0000000E05FA15BC00000004000408F40000000004C6555C0000000A0E5A15EC00C00000013000000B20E00003C00000006000000020000000000004000408F4000000080181551C0000000E0DEAA5DC00000004000408F40000000C077
310
D453C000000060C5705FC00C00000013000000BA0E00003C00000006000000020000000000004000408F4000000080181551C0000000E0DEAA5DC00000004000408F4000000000406D52C0000000001F2860C00C00000013000000C20E00003C00000006000000020000000000004000408F40000000C07A1B4DC0000000C0
310
F9965FC00000004000408F40000000600A1C51C000000080A9A460C00C00000013000000CA0E00003C00000006000000020000000000004000408F40000000C07A1B4DC0000000C0F9965FC00000004000408F40000000E0329F4FC000000000623461C00C00000013000000D20E00003C0000000600000002000000000000
310
4000408F40000000A0C37348C000000040BEEF60C00000004000408F400000000098224DC0000000A00DD461C00C00000013000000DA0E00003C00000006000000020000000000004000408F40000000A0C37348C000000040BEEF60C00000004000408F40000000004DD24AC0000000C0D27E62C00C00000013000000E20E
310
00003C00000006000000020000000000004000408F40000000C0686244C000000060963262C00000004000408F400000004069C648C000000040832D63C00C00000013000000EA0E00003C00000006000000020000000000004000408F40000000C0686244C000000060963262C00000004000408F4000000060F80D47C000
310
0000C0A0DA63C00C00000013000000F20E00003C00000006000000020000000000004000408F4000000060484941C000000040487263C00000004000408F40000000E0505F44C0000000801A4265C00C00000013000000FA0E00003C00000006000000020000000000004000408F40000000E0505F44C0000000801A4265C0
310
0000004000408F40000000004F653EC000000000DF7E64C00C00000013000000020F00003C00000006000000020000000000004000408F40000000003CC53AC000000080E89365C00000004000408F4000000040639042C0000000A06FD566C00C000000130000000A0F00003C00000006000000020000000000004000408F
310
4000000040639042C0000000A06FD566C00000004000408F4000000000F4613AC000000040C8BB65C00C00000013000000120F00003C00000006000000020000000000004000408F4000000040639042C0000000A06FD566C00000004000408F400000008000053AC0000000A0DE0D66C00C000000130000001A0F00003C00
310
000006000000020000000000004000408F40000000005AAD39C0000000C09A8B66C00000004000408F40000000A06EA941C0000000C0B8A168C00C00000013000000220F00003C00000006000000020000000000004000408F4000000000A77938C0000000401C8B66C00000004000408F40000000C0A5493FC000000000AD
310
A168C00C000000130000002A0F00003C00000006000000020000000000004000408F40000000C0A5493FC000000000ADA168C00000004000408F4000000000A12138C000000080199066C00C00000013000000320F00003C00000006000000020000000000004000408F40000000C0A5493FC000000000ADA168C000000040
310
00408F4000000000EEF637C000000040229B66C00C000000130000003A0F00003C00000006000000020000000000004000408F40000000C0A5493FC000000000ADA168C00000004000408F4000000080C33237C000000040615A67C00C00000013000000420F00003C00000006000000020000000000004000408F40000000
310
00184732C000000080C3B668C00000004000408F40000000C0A8F43DC000000040557569C00C000000130000004A0F00003C00000006000000020000000000004000408F40000000003A5830C000000040CFF968C00000004000408F40000000C0F1253DC0000000E0AFAC69C00C00000013000000520F00003C0000000600
310
0000020000000000004000408F40000000C0A5493FC000000000ADA168C00000004000408F4000000000D54635C0000000C0B81068C00C000000130000005A0F00003C00000006000000020000000000004000408F4000000000184732C000000080C3B668C00000004000408F4000000080F9F73EC000000020740969C00C
310
00000013000000620F00003C00000006000000020000000000004000408F40000000003A5830C000000040CFF968C00000004000408F400000000072223CC0000000208CE369C00C000000130000006A0F00003C00000006000000020000000000004000408F40000000003A5830C000000040CFF968C00000004000408F40
310
00000000BCE53AC000000040B2196AC00C00000013000000720F00003C00000006000000020000000000004000408F4000000000EA0021C000000060145169C00000004000408F400000000056B724C0000000005E326BC00C000000130000007A0F00003C00000006000000020000000000004000408F40000000000CE216
310
C0000000407D4269C00000004000408F4000000000A02520C000000080E5356BC00C00000013000000820F00003C00000006000000020000000000004000408F4000000000EA0021C000000060145169C00000004000408F4000000000E07729C00000004025276BC00C000000130000008A0F00003C000000060000000200
310
00000000004000408F4000000000DA9D26C0000000404F4969C00000004000408F4000000000F7562EC0000000808A136BC00C00000013000000920F00003C00000006000000020000000000004000408F4000000000DA9D26C0000000404F4969C00000004000408F40000000001A9531C0000000C07FF76AC00C00000013
310
0000009A0F00003C00000006000000020000000000004000408F400000000030F32BC000000000A32B69C00000004000408F4000000000ECD735C00000000083AD6AC00C00000013000000A20F00003C00000006000000020000000000004000408F4000000000DA9D26C0000000404F4969C00000004000408F4000000000
310
F1D033C0000000800AD56AC00C00000013000000AA0F00003C00000006000000020000000000004000408F400000000030F32BC000000000A32B69C00000004000408F40000000007F7039C0000000C0EB4D6AC00C00000013000000B20F00003C00000006000000020000000000004000408F400000000030F32BC0000000
310
00A32B69C00000004000408F4000000000BFC137C000000000767F6AC00C00000013000000BA0F00003C00000006000000020000000000004000408F400000000000DAEFBF000000C0D01069C00000004000408F400000000040ACE8BF000000C038456AC00C00000013000000C20F00003C00000006000000020000000000
310
004000408F4000000000A02520C000000080E5356BC00000004000408F40000000001814F2BF00000080D2896AC00C00000013000000CA0F00003C00000006000000020000000000004000408F40000000006053E5BF00000040329D6AC00000004000408F4000000000E42420C000000000FEB96BC00C00000013000000D2
310
0F00003C00000006000000020000000000004000408F4000000000785F00C000000000D41069C00000004000408F400000000030FEF2BF00000080B6596AC00C00000013000000DA0F00003C00000006000000020000000000004000408F400000000058A708C000000080801D69C00000004000408F40000000000006F5BF
310
00000000F7716AC00C00000013000000E20F00003C00000006000000020000000000004000408F4000000000A02520C000000080E5356BC00000004000408F40000000000006F5BF00000000F7716AC0
100
AcDbSubDMesh
 71
     2
 72
     0
 91
        0
 92
      242
 10
-1000.0
 20
-201.8746948242188
 30
-8.256019592285156
 10
-1000.0
 20
-197.8386993408203
 30
-8.254608154296875
 10
-1000.0
 20
-174.6226806640625
 30
-34.04649353027344
 10
-1000.0
 20
-174.9635620117187
 30
-30.9755859375
 10
-1000.0
 20
-175.860366821289
 30
-27.84719085693359
 10
-1000.0
 20
-177.4290771484375
 30
-24.29983520507813
 10
-1000.0
 20
-179.0950622558594
 30
-21.47591400146485
 10
-1000.0
 20
-181.1616821289062
 30
-18.6351089477539
 10
-1000.0
 20
-183.5414733886718
 30
-15.94609832763672
 10
-1000.0
 20
-186.0068206787109
 30
-13.64772796630859
 10
-1000.0
 20
-189.2855224609375
 30
-11.24047088623047
 10
-1000.0
 20
-192.4970245361328
 30
-9.520469665527343
 10
-1000.0
 20
-195.2083129882812
 30
-8.599647521972656
 10
-1000.0
 20
-174.622314453125
 30
-35.07847595214844
 10
-1000.0
 20
-170.0818176269531
 30
-35.07689666748047
 10
-1000.0
 20
-35.32366943359375
 30
-197.0538024902344
 10
-1000.0
 20
-37.12801361083985
 30
-182.6698760986328
 10
-1000.0
 20
-40.74464416503906
 30
-170.0657348632812
 10
-1000.0
 20
-46.10913085937499
 30
-158.8321228027344
 10
-1000.0
 20
-49.55007553100585
 30
-153.4222717285156
 10
-1000.0
 20
-53.6429672241211
 30
-147.9632263183594
 10
-1000.0
 20
-58.27025604248047
 30
-142.6266632080078
 10
-1000.0
 20
-63.24372863769531
 30
-137.636962890625
 10
-1000.0
 20
-68.43812561035156
 30
-133.1456909179687
 10
-1000.0
 20
-73.70701599121094
 30
-129.2537689208984
 10
-1000.0
 20
-79.31979370117187
 30
-125.7620468139648
 10
-1000.0
 20
-85.58275604248047
 30
-122.5296401977539
 10
-1000.0
 20
-92.81830596923828
 30
-119.3757171630859
 10
-1000.0
 20
-101.1200866699218
 30
-116.1839599609375
 10
-1000.0
 20
-109.4351730346679
 30
-113.0868988037109
 10
-1000.0
 20
-116.6470336914062
 30
-110.1587371826172
 10
-1000.0
 20
-122.7624969482422
 30
-107.2395858764648
 10
-1000.0
 20
-128.2938842773437
 30
-104.0334014892578
 10
-1000.0
 20
-138.2448272705078
 30
-96.53372955322266
 10
-1000.0
 20
-142.9718170166015
 30
-92.0242691040039
 10
-1000.0
 20
-147.5137634277343
 30
-86.98147583007813
 10
-1000.0
 20
-151.8535003662109
 30
-81.39006805419922
 10
-1000.0
 20
-155.8474731445312
 30
-75.42574310302734
 10
-1000.0
 20
-159.4351043701172
 30
-69.14753723144531
 10
-1000.0
 20
-162.5063171386718
 30
-62.74726104736328
 10
-1000.0
 20
-165.0746459960937
 30
-56.23394775390625
 10
-1000.0
 20
-167.1920776367187
 30
-49.49062347412109
 10
-1000.0
 20
-31.28767395019532
 30
-197.0523681640625
 10
-1000.0
 20
-8.073471069335937
 30
-217.6842651367187
 10
-1000.0
 20
-10.35806274414062
 30
-217.573974609375
 10
-1000.0
 20
-12.73411560058594
 30
-217.2232971191406
 10
-1000.0
 20
-15.16983795166015
 30
-216.6106567382812
 10
-1000.0
 20
-17.58241271972656
 30
-215.7343444824219
 10
-1000.0
 20
-19.81615447998047
 30
-214.6575317382812
 10
-1000.0
 20
-21.84342193603516
 30
-213.4222412109375
 10
-1000.0
 20
-23.75680541992188
 30
-211.9831390380859
 10
-1000.0
 20
-25.43943023681641
 30
-210.4350280761719
 10
-1000.0
 20
-26.89739227294922
 30
-208.8030090332031
 10
-1000.0
 20
-28.13453674316406
 30
-207.1108551025391
 10
-1000.0
 20
-29.14820861816406
 30
-205.3964691162109
 10
-1000.0
 20
-29.9556884765625
 30
-203.6666717529297
 10
-1000.0
 20
-30.96863555908203
 30
-200.2954254150391
 10
-1000.0
 20
-8.072036743164062
 30
-221.812255859375
 10
-1000.0
 20
-157.4941864013672
 30
-40.08351898193359
 10
-1000.0
 20
-154.6040954589843
 30
-50.92156982421875
 10
-1000.0
 20
-150.3438720703125
 30
-61.30072021484375
 10
-1000.0
 20
-127.3431549072265
 30
-90.27124023437499
 10
-1000.0
 20
-119.166275024414
 30
-95.7557144165039
 10
-1000.0
 20
-114.4599914550781
 30
-98.17178344726563
 10
-1000.0
 20
-108.6972122192383
 30
-100.6665802001953
 10
-1000.0
 20
-98.23833465576171
 30
-104.6321792602539
 10
-1000.0
 20
-83.53847503662109
 30
-110.5214767456054
 10
-1000.0
 20
-68.32960510253906
 30
-118.6698532104492
 10
-1000.0
 20
-58.21467590332031
 30
-126.3589935302734
 10
-1000.0
 20
-48.90439605712891
 30
-135.4919738769531
 10
-1000.0
 20
-40.76881408691406
 30
-145.5808563232421
 10
-1000.0
 20
-34.572509765625
 30
-155.5713195800781
 10
-1000.0
 20
-18.27769470214844
 30
-197.7113647460937
 10
-1000.0
 20
-16.34462738037109
 30
-199.8065490722656
 10
-1000.0
 20
-13.9749526977539
 30
-201.3636474609375
 10
-1000.0
 20
-11.30828857421875
 30
-202.2909240722656
 10
-1000.0
 20
-8.50177001953125
 30
-202.5337371826172
 10
-1000.0
 20
-5.720733642578125
 30
-202.0777893066406
 10
-1000.0
 20
-3.081695556640625
 30
-200.9219512939453
 10
-1000.0
 20
-144.5380096435547
 30
-71.38650512695313
 10
-1000.0
 20
-190.5854797363281
 30
-0.872833251953125
 10
-1000.0
 20
-189.6144866943359
 30
0.0042648315429688
 10
-1000.0
 20
-193.5323028564453
 30
0.0028915405273438
 10
-1000.0
 20
-193.1950378417969
 30
-0.6547393798828125
 10
-1000.0
 20
-192.6328735351562
 30
-1.124702453613281
 10
-1000.0
 20
-191.9356384277343
 30
-1.3319091796875
 10
-1000.0
 20
-191.2147979736328
 30
-1.243209838867187
 10
-1000.0
 20
-0.7710113525390625
 30
-210.1631774902344
 10
-1000.0
 20
-1.187042236328125
 30
-210.8035278320313
 10
-1000.0
 20
-1.313941955566406
 30
-211.5614013671875
 10
-1000.0
 20
-1.1298828125
 30
-212.3069610595703
 10
-1000.0
 20
-0.6664047241210938
 30
-212.9123840332031
 10
-1000.0
 20
-0.0030059814453125
 30
-213.2739562988281
 10
-1000.0
 20
-0.0043716430664063
 30
-209.3939819335937
 10
-1000.0
 20
-2.046592712402343
 30
-200.52587890625
 10
-1000.0
 20
-0.9953384399414062
 30
-200.5254974365235
 10
-1000.0
 20
-0.0073394775390625
 30
-200.8929138183594
 10
-1000.0
 20
-171.0556640625
 30
-12.19884490966797
 10
-1000.0
 20
-168.0848541259765
 30
-19.34272766113281
 10
-1000.0
 20
-161.0006408691406
 30
-27.68927001953125
 10
-1000.0
 20
-159.423599243164
 30
-34.0196533203125
 10
-1000.0
 20
-163.4383850097656
 30
-24.31376647949219
 10
-1000.0
 20
-162.3253479003906
 30
-25.18899536132813
 10
-1000.0
 20
-161.4913177490234
 30
-26.34386444091797
 10
-1000.0
 20
-166.8593139648437
 30
-21.29559326171875
 10
-1000.0
 20
-165.2937622070312
 30
-22.9766845703125
 10
-1000.0
 20
-201.8775787353515
 30
-0.0000152587890625
 10
-1000.0
 20
-26.01952362060547
 30
-176.4334259033203
 10
-1000.0
 20
-25.67713928222656
 30
-180.3626403808594
 10
-1000.0
 20
-26.77043151855469
 30
-172.6221313476562
 10
-1000.0
 20
-26.38262176513672
 30
-173.8681945800781
 10
-1000.0
 20
-30.39572143554688
 30
-163.9647216796875
 10
-1000.0
 20
-23.96456146240234
 30
-180.8479309082031
 10
-1000.0
 20
-23.19828796386719
 30
-186.8243713378906
 10
-1000.0
 20
-21.27667236328125
 30
-192.5225524902343
 10
-1000.0
 20
-24.47518920898438
 30
-180.3471984863281
 10
-1000.0
 20
-172.2003173828125
 30
-10.39311981201172
 10
-1000.0
 20
-181.6708374023437
 30
0.0070419311523438
 10
-1000.0
 20
-24.13134765625
 30
-180.5031127929687
 10
-1000.0
 20
-171.5507049560547
 30
-11.2447280883789
 10
-1000.0
 20
-0.000030517578125
 30
-221.8094329833984
 10
1000.000122070312
 20
-201.8747100830078
 30
-8.256011962890625
 10
1000.000122070312
 20
-201.8775939941406
 30
-0.0000152587890625
 10
1000.000122070312
 20
-193.5323181152343
 30
0.002899169921875
 10
1000.000122070312
 20
-197.8387145996093
 30
-8.254600524902343
 10
1000.000122070312
 20
-193.195068359375
 30
-0.6547393798828125
 10
1000.000122070312
 20
-192.6328887939453
 30
-1.12469482421875
 10
1000.000122070312
 20
-195.2083282470703
 30
-8.599639892578125
 10
1000.000122070312
 20
-191.9356689453125
 30
-1.3319091796875
 10
1000.000122070312
 20
-192.4970397949218
 30
-9.520462036132812
 10
1000.000122070312
 20
-191.2148132324219
 30
-1.243209838867187
 10
1000.000122070312
 20
-189.2855377197265
 30
-11.240478515625
 10
1000.000122070312
 20
-190.5855102539062
 30
-0.872833251953125
 10
1000.000122070312
 20
-186.0068359375
 30
-13.64773559570312
 10
1000.000122070312
 20
-189.614501953125
 30
0.0042724609375
 10
1000.000122070312
 20
-181.6708526611328
 30
0.007049560546875
 10
1000.000122070312
 20
-172.2003326416015
 30
-10.39311218261719
 10
1000.000122070312
 20
-171.5507202148437
 30
-11.2447280883789
 10
1000.000122070312
 20
-183.5414886474609
 30
-15.94609069824219
 10
1000.000122070312
 20
-171.055679321289
 30
-12.19883728027344
 10
1000.000122070312
 20
-181.1616973876953
 30
-18.63511657714844
 10
1000.000122070312
 20
-168.0848693847656
 30
-19.34272766113281
 10
1000.000122070312
 20
-179.0950775146484
 30
-21.47591400146485
 10
1000.000122070312
 20
-166.8593292236328
 30
-21.29559326171875
 10
1000.000122070312
 20
-177.4290771484375
 30
-24.29983520507813
 10
1000.000122070312
 20
-165.2937774658203
 30
-22.9766845703125
 10
1000.000122070312
 20
-175.8603820800781
 30
-27.84718322753906
 10
1000.000122070312
 20
-163.4384002685547
 30
-24.31376647949219
 10
1000.000122070312
 20
-174.9635772705078
 30
-30.9755859375
 10
1000.000122070312
 20
-162.3253631591797
 30
-25.18899536132813
 10
1000.000122070312
 20
-174.6226806640625
 30
-34.04649353027344
 10
1000.000122070312
 20
-161.4913330078125
 30
-26.34386444091797
 10
1000.000122070312
 20
-174.622329711914
 30
-35.07848358154297
 10
1000.000122070312
 20
-161.0006561279297
 30
-27.68927001953125
 10
1000.000122070312
 20
-170.0818328857422
 30
-35.07689666748047
 10
1000.000122070312
 20
-159.4236145019531
 30
-34.01966094970703
 10
1000.000122070312
 20
-157.4942016601562
 30
-40.08351898193359
 10
1000.000122070312
 20
-154.6041107177734
 30
-50.92156982421875
 10
1000.000122070312
 20
-167.1920928955078
 30
-49.49062347412109
 10
1000.000122070312
 20
-150.3438720703125
 30
-61.30072021484375
 10
1000.000122070312
 20
-162.5063323974609
 30
-62.74725723266602
 10
1000.000122070312
 20
-165.0746459960937
 30
-56.23394775390625
 10
1000.000122070312
 20
-144.5380249023437
 30
-71.38650512695313
 10
1000.000122070312
 20
-155.8474884033203
 30
-75.42574310302734
 10
1000.000122070312
 20
-159.4351196289062
 30
-69.14753723144531
 10
1000.000122070312
 20
-147.5137786865234
 30
-86.98147583007813
 10
1000.000122070312
 20
-151.853515625
 30
-81.39006042480469
 10
1000.000122070312
 20
-127.3431701660156
 30
-90.27124023437499
 10
1000.000122070312
 20
-142.9718322753906
 30
-92.0242691040039
 10
1000.000122070312
 20
-138.2448425292968
 30
-96.53372955322266
 10
1000.000122070312
 20
-128.2938995361328
 30
-104.0334014892578
 10
1000.000122070312
 20
-119.1662902832031
 30
-95.75570678710937
 10
1000.000122070312
 20
-122.7625122070312
 30
-107.2395858764648
 10
1000.000122070312
 20
-114.4600067138672
 30
-98.17178344726563
 10
1000.000122070312
 20
-116.6470489501953
 30
-110.1587371826172
 10
1000.000122070312
 20
-108.6972198486328
 30
-100.6665802001953
 10
1000.000122070312
 20
-109.4351806640625
 30
-113.0868988037109
 10
1000.000122070312
 20
-98.23834228515625
 30
-104.6321792602539
 10
1000.000122070312
 20
-101.1201019287109
 30
-116.1839599609375
 10
1000.000122070312
 20
-83.53848266601563
 30
-110.5214767456054
 10
1000.000122070312
 20
-92.8183135986328
 30
-119.3757171630859
 10
1000.000122070312
 20
-68.32962036132812
 30
-118.6698532104492
 10
1000.000122070312
 20
-79.31980895996094
 30
-125.7620468139648
 10
1000.000122070312
 20
-85.58276367187501
 30
-122.5296401977539
 10
1000.000122070312
 20
-58.21468353271484
 30
-126.3589935302734
 10
1000.000122070312
 20
-68.43813323974609
 30
-133.1456909179687
 10
1000.000122070312
 20
-73.70703125
 30
-129.2537841796875
 10
1000.000122070312
 20
-48.90440750122071
 30
-135.4919738769531
 10
1000.000122070312
 20
-58.270263671875
 30
-142.6266632080078
 10
1000.000122070312
 20
-63.24374008178711
 30
-137.636962890625
 10
1000.000122070312
 20
-40.76882171630859
 30
-145.5808563232421
 10
1000.000122070312
 20
-49.55008697509765
 30
-153.4222717285156
 10
1000.000122070312
 20
-53.64297485351563
 30
-147.9632263183594
 10
1000.000122070312
 20
-34.5725212097168
 30
-155.5713195800781
 10
1000.000122070312
 20
-40.74465560913085
 30
-170.0657348632812
 10
1000.000122070312
 20
-46.10914230346679
 30
-158.8321228027344
 10
1000.000122070312
 20
-30.39573669433594
 30
-163.9647216796875
 10
1000.000122070312
 20
-26.77044677734375
 30
-172.6221313476562
 10
1000.000122070312
 20
-37.12802886962891
 30
-182.6698760986328
 10
1000.000122070312
 20
-26.38262939453125
 30
-173.8681945800781
 10
1000.000122070312
 20
-26.01953887939453
 30
-176.4334259033203
 10
1000.000122070312
 20
-25.67715454101563
 30
-180.3626403808594
 10
1000.000122070312
 20
-35.32368850708008
 30
-197.0538024902344
 10
1000.000122070312
 20
-24.47520446777344
 30
-180.3471984863281
 10
1000.000122070312
 20
-31.28768539428711
 30
-197.0523681640625
 10
1000.000122070312
 20
-24.13136291503906
 30
-180.5031127929687
 10
1000.000122070312
 20
-23.96456909179688
 30
-180.8479309082031
 10
1000.000122070312
 20
-23.19829559326172
 30
-186.8243713378906
 10
1000.000122070312
 20
-18.2777099609375
 30
-197.7113647460937
 10
1000.000122070312
 20
-16.34463500976562
 30
-199.8065490722656
 10
1000.000122070312
 20
-29.14822006225586
 30
-205.3964691162109
 10
1000.000122070312
 20
-29.9556999206543
 30
-203.6666564941406
 10
1000.000122070312
 20
-21.27668762207031
 30
-192.5225524902343
 10
1000.000122070312
 20
-30.9686508178711
 30
-200.2954254150391
 10
1000.000122070312
 20
-26.89739990234375
 30
-208.8030090332031
 10
1000.000122070312
 20
-28.13455200195313
 30
-207.1108551025391
 10
1000.000122070312
 20
-8.501785278320312
 30
-202.5337371826172
 10
1000.000122070312
 20
-5.720748901367187
 30
-202.0777893066406
 10
1000.000122070312
 20
-8.073486328125
 30
-217.6842651367187
 10
1000.000122070312
 20
-10.35807800292968
 30
-217.573974609375
 10
1000.000122070312
 20
-12.734130859375
 30
-217.2232971191406
 10
1000.000122070312
 20
-11.30830383300781
 30
-202.2909240722656
 10
1000.000122070312
 20
-15.16985321044922
 30
-216.6106567382812
 10
1000.000122070312
 20
-17.58242797851562
 30
-215.7343444824219
 10
1000.000122070312
 20
-13.9749755859375
 30
-201.3636474609375
 10
1000.000122070312
 20
-19.81617736816406
 30
-214.6575317382812
 10
1000.000122070312
 20
-21.84344482421875
 30
-213.4222412109375
 10
1000.000122070312
 20
-23.75682067871094
 30
-211.983154296875
 10
1000.000122070312
 20
-25.43943786621094
 30
-210.4350280761719
 10
1000.000122070312
 20
-0.995361328125
 30
-200.5254821777344
 10
1000.000122070312
 20
-0.007354736328125
 30
-200.8929138183594
 10
1000.000122070312
 20
-0.0043869018554688
 30
-209.3939819335937
 10
1000.000122070312
 20
-0.771026611328125
 30
-210.1631774902344
 10
1000.000122070312
 20
-1.129905700683593
 30
-212.3069458007813
 10
1000.000122070312
 20
-0.6664276123046875
 30
-212.9123840332031
 10
1000.000122070312
 20
-8.072052001953125
 30
-221.812255859375
 10
1000.000122070312
 20
-0.003021240234375
 30
-213.273941040039
 10
1000.000122070312
 20
-0.0000457763671875
 30
-221.8094482421875
 10
1000.000122070312
 20
-2.046615600585937
 30
-200.52587890625
 10
1000.000122070312
 20
-1.187057495117187
 30
-210.8035278320313
 10
1000.000122070312
 20
-3.081710815429687
 30
-200.9219360351563
 10
1000.000122070312
 20
-1.31396484375
 30
-211.5614013671875
 93
     1287
 90
        4
 90
       82
 90
      106
 90
      122
 90
      123
 90
        4
 90
      106
 90
        0
 90
      121
 90
      122
 90
        4
 90
        0
 90
        1
 90
      124
 90
      121
 90
        4
 90
        1
 90
       12
 90
      127
 90
      124
 90
        4
 90
       12
 90
       11
 90
      129
 90
      127
 90
        4
 90
       11
 90
       10
 90
      131
 90
      129
 90
        4
 90
       10
 90
        9
 90
      133
 90
      131
 90
        4
 90
        9
 90
        8
 90
      138
 90
      133
 90
        4
 90
        8
 90
        7
 90
      140
 90
      138
 90
        4
 90
        7
 90
        6
 90
      142
 90
      140
 90
        4
 90
        6
 90
        5
 90
      144
 90
      142
 90
        4
 90
        5
 90
        4
 90
      146
 90
      144
 90
        4
 90
        4
 90
        3
 90
      148
 90
      146
 90
        4
 90
        3
 90
        2
 90
      150
 90
      148
 90
        4
 90
        2
 90
       13
 90
      152
 90
      150
 90
        4
 90
       13
 90
       14
 90
      154
 90
      152
 90
        4
 90
       14
 90
       41
 90
      158
 90
      154
 90
        4
 90
       41
 90
       40
 90
      161
 90
      158
 90
        4
 90
       40
 90
       39
 90
      160
 90
      161
 90
        4
 90
       39
 90
       38
 90
      164
 90
      160
 90
        4
 90
       38
 90
       37
 90
      163
 90
      164
 90
        4
 90
       37
 90
       36
 90
      166
 90
      163
 90
        4
 90
       36
 90
       35
 90
      165
 90
      166
 90
        4
 90
       35
 90
       34
 90
      168
 90
      165
 90
        4
 90
       34
 90
       33
 90
      169
 90
      168
 90
        4
 90
       33
 90
       32
 90
      170
 90
      169
 90
        4
 90
       32
 90
       31
 90
      172
 90
      170
 90
        4
 90
       31
 90
       30
 90
      174
 90
      172
 90
        4
 90
       30
 90
       29
 90
      176
 90
      174
 90
        4
 90
       29
 90
       28
 90
      178
 90
      176
 90
        4
 90
       28
 90
       27
 90
      180
 90
      178
 90
        4
 90
       27
 90
       26
 90
      183
 90
      180
 90
        4
 90
       26
 90
       25
 90
      182
 90
      183
 90
        4
 90
       25
 90
       24
 90
      186
 90
      182
 90
        4
 90
       24
 90
       23
 90
      185
 90
      186
 90
        4
 90
       23
 90
       22
 90
      189
 90
      185
 90
        4
 90
       22
 90
       21
 90
      188
 90
      189
 90
        4
 90
       21
 90
       20
 90
      192
 90
      188
 90
        4
 90
       20
 90
       19
 90
      191
 90
      192
 90
        4
 90
       19
 90
       18
 90
      195
 90
      191
 90
        4
 90
       18
 90
       17
 90
      194
 90
      195
 90
        4
 90
       17
 90
       16
 90
      198
 90
      194
 90
        4
 90
       16
 90
       15
 90
      202
 90
      198
 90
        4
 90
       15
 90
       42
 90
      204
 90
      202
 90
        4
 90
       42
 90
       56
 90
      213
 90
      204
 90
        4
 90
       56
 90
       55
 90
      211
 90
      213
 90
        4
 90
       55
 90
       54
 90
      210
 90
      211
 90
        4
 90
       54
 90
       53
 90
      215
 90
      210
 90
        4
 90
       53
 90
       52
 90
      214
 90
      215
 90
        4
 90
       52
 90
       51
 90
      228
 90
      214
 90
        4
 90
       51
 90
       50
 90
      227
 90
      228
 90
        4
 90
       50
 90
       49
 90
      226
 90
      227
 90
        4
 90
       49
 90
       48
 90
      225
 90
      226
 90
        4
 90
       48
 90
       47
 90
      223
 90
      225
 90
        4
 90
       47
 90
       46
 90
      222
 90
      223
 90
        4
 90
       46
 90
       45
 90
      220
 90
      222
 90
        4
 90
       45
 90
       44
 90
      219
 90
      220
 90
        4
 90
       44
 90
       43
 90
      218
 90
      219
 90
        4
 90
       43
 90
       57
 90
      235
 90
      218
 90
        4
 90
       57
 90
      120
 90
      237
 90
      235
 90
        4
 90
      120
 90
       92
 90
      236
 90
      237
 90
        4
 90
       92
 90
       91
 90
      234
 90
      236
 90
        4
 90
       91
 90
       90
 90
      233
 90
      234
 90
        4
 90
       90
 90
       89
 90
      241
 90
      233
 90
        4
 90
       89
 90
       88
 90
      239
 90
      241
 90
        4
 90
       88
 90
       87
 90
      232
 90
      239
 90
        4
 90
       87
 90
       93
 90
      231
 90
      232
 90
        4
 90
       93
 90
       96
 90
      230
 90
      231
 90
        4
 90
       96
 90
       95
 90
      229
 90
      230
 90
        4
 90
       95
 90
       94
 90
      238
 90
      229
 90
        4
 90
       94
 90
       78
 90
      240
 90
      238
 90
        4
 90
       78
 90
       77
 90
      217
 90
      240
 90
        4
 90
       77
 90
       76
 90
      216
 90
      217
 90
        4
 90
       76
 90
       75
 90
      221
 90
      216
 90
        4
 90
       75
 90
       74
 90
      224
 90
      221
 90
        4
 90
       74
 90
       73
 90
      209
 90
      224
 90
        4
 90
       73
 90
       72
 90
      208
 90
      209
 90
        4
 90
       72
 90
      114
 90
      212
 90
      208
 90
        4
 90
      114
 90
      113
 90
      207
 90
      212
 90
        4
 90
      113
 90
      112
 90
      206
 90
      207
 90
        4
 90
      112
 90
      118
 90
      205
 90
      206
 90
        4
 90
      118
 90
      115
 90
      203
 90
      205
 90
        4
 90
      115
 90
      108
 90
      201
 90
      203
 90
        4
 90
      108
 90
      107
 90
      200
 90
      201
 90
        4
 90
      107
 90
      110
 90
      199
 90
      200
 90
        4
 90
      110
 90
      109
 90
      197
 90
      199
 90
        4
 90
      109
 90
      111
 90
      196
 90
      197
 90
        4
 90
      111
 90
       71
 90
      193
 90
      196
 90
        4
 90
       71
 90
       70
 90
      190
 90
      193
 90
        4
 90
       70
 90
       69
 90
      187
 90
      190
 90
        4
 90
       69
 90
       68
 90
      184
 90
      187
 90
        4
 90
       68
 90
       67
 90
      181
 90
      184
 90
        4
 90
       67
 90
       66
 90
      179
 90
      181
 90
        4
 90
       66
 90
       65
 90
      177
 90
      179
 90
        4
 90
       65
 90
       64
 90
      175
 90
      177
 90
        4
 90
       64
 90
       63
 90
      173
 90
      175
 90
        4
 90
       63
 90
       62
 90
      171
 90
      173
 90
        4
 90
       62
 90
       61
 90
      167
 90
      171
 90
        4
 90
       61
 90
       79
 90
      162
 90
      167
 90
        4
 90
       79
 90
       60
 90
      159
 90
      162
 90
        4
 90
       60
 90
       59
 90
      157
 90
      159
 90
        4
 90
       59
 90
       58
 90
      156
 90
      157
 90
        4
 90
       58
 90
      100
 90
      155
 90
      156
 90
        4
 90
      100
 90
       99
 90
      153
 90
      155
 90
        4
 90
       99
 90
      103
 90
      151
 90
      153
 90
        4
 90
      103
 90
      102
 90
      149
 90
      151
 90
        4
 90
      102
 90
      101
 90
      147
 90
      149
 90
        4
 90
      101
 90
      105
 90
      145
 90
      147
 90
        4
 90
      105
 90
      104
 90
      143
 90
      145
 90
        4
 90
      104
 90
       98
 90
      141
 90
      143
 90
        4
 90
       98
 90
       97
 90
      139
 90
      141
 90
        4
 90
       97
 90
      119
 90
      137
 90
      139
 90
        4
 90
      119
 90
      116
 90
      136
 90
      137
 90
        4
 90
      116
 90
      117
 90
      135
 90
      136
 90
        4
 90
      117
 90
       81
 90
      134
 90
      135
 90
        4
 90
       81
 90
       80
 90
      132
 90
      134
 90
        4
 90
       80
 90
       86
 90
      130
 90
      132
 90
        4
 90
       86
 90
       85
 90
      128
 90
      130
 90
        4
 90
       85
 90
       84
 90
      126
 90
      128
 90
        4
 90
       84
 90
       83
 90
      125
 90
      126
 90
        4
 90
       83
 90
       82
 90
      123
 90
      125
 90
        4
 90
        0
 90
      106
 90
       82
 90
        1
 90
        3
 90
       82
 90
       83
 90
        1
 90
        4
 90
       83
 90
       84
 90
       12
 90
        1
 90
        4
 90
       84
 90
       85
 90
       11
 90
       12
 90
        4
 90
       85
 90
       86
 90
       10
 90
       11
 90
        4
 90
       86
 90
       80
 90
        9
 90
       10
 90
        5
 90
       80
 90
       81
 90
      117
 90
      116
 90
        9
 90
        4
 90
      116
 90
      119
 90
        8
 90
        9
 90
        4
 90
      119
 90
       97
 90
        7
 90
        8
 90
        4
 90
       97
 90
       98
 90
        6
 90
        7
 90
        4
 90
       98
 90
      104
 90
        5
 90
        6
 90
        4
 90
      104
 90
      105
 90
        4
 90
        5
 90
        4
 90
      105
 90
      101
 90
        3
 90
        4
 90
        4
 90
      101
 90
      102
 90
        2
 90
        3
 90
        4
 90
      102
 90
      103
 90
       13
 90
        2
 90
        4
 90
      103
 90
       99
 90
       14
 90
       13
 90
        3
 90
      100
 90
       58
 90
       14
 90
        3
 90
       99
 90
      100
 90
       14
 90
        4
 90
       58
 90
       59
 90
       41
 90
       14
 90
        4
 90
       59
 90
       60
 90
       39
 90
       40
 90
        3
 90
       59
 90
       40
 90
       41
 90
        4
 90
       60
 90
       79
 90
       37
 90
       38
 90
        3
 90
       60
 90
       38
 90
       39
 90
        3
 90
       79
 90
       35
 90
       36
 90
        3
 90
       79
 90
       36
 90
       37
 90
        4
 90
       79
 90
       61
 90
       34
 90
       35
 90
        3
 90
       61
 90
       33
 90
       34
 90
        3
 90
       61
 90
       32
 90
       33
 90
        4
 90
       61
 90
       62
 90
       31
 90
       32
 90
        4
 90
       62
 90
       63
 90
       30
 90
       31
 90
        4
 90
       63
 90
       64
 90
       29
 90
       30
 90
        4
 90
       64
 90
       65
 90
       28
 90
       29
 90
        4
 90
       65
 90
       66
 90
       27
 90
       28
 90
        4
 90
       66
 90
       67
 90
       25
 90
       26
 90
        3
 90
       66
 90
       26
 90
       27
 90
        4
 90
       67
 90
       68
 90
       23
 90
       24
 90
        3
 90
       67
 90
       24
 90
       25
 90
        4
 90
       68
 90
       69
 90
       21
 90
       22
 90
        3
 90
       68
 90
       22
 90
       23
 90
        4
 90
       69
 90
       70
 90
       19
 90
       20
 90
        3
 90
       69
 90
       20
 90
       21
 90
        4
 90
       70
 90
       71
 90
       17
 90
       18
 90
        3
 90
       70
 90
       18
 90
       19
 90
        3
 90
       71
 90
      111
 90
       17
 90
        4
 90
      111
 90
      109
 90
       16
 90
       17
 90
        3
 90
      110
 90
      107
 90
       16
 90
        3
 90
      109
 90
      110
 90
       16
 90
        4
 90
      107
 90
      108
 90
       15
 90
       16
 90
        4
 90
      108
 90
      115
 90
       42
 90
       15
 90
        3
 90
      115
 90
      118
 90
       42
 90
        3
 90
      118
 90
      112
 90
       42
 90
        3
 90
      112
 90
      113
 90
       42
 90
        4
 90
       72
 90
       73
 90
       54
 90
       55
 90
        3
 90
      113
 90
      114
 90
       42
 90
        4
 90
      114
 90
       72
 90
       56
 90
       42
 90
        3
 90
       72
 90
       55
 90
       56
 90
        3
 90
       73
 90
       52
 90
       53
 90
        3
 90
       73
 90
       53
 90
       54
 90
        4
 90
       76
 90
       77
 90
       43
 90
       44
 90
        3
 90
       76
 90
       44
 90
       45
 90
        4
 90
       75
 90
       76
 90
       45
 90
       46
 90
        3
 90
       75
 90
       46
 90
       47
 90
        4
 90
       74
 90
       75
 90
       48
 90
       49
 90
        3
 90
       74
 90
       50
 90
       51
 90
        3
 90
       74
 90
       49
 90
       50
 90
        4
 90
       73
 90
       74
 90
       51
 90
       52
 90
        3
 90
       75
 90
       47
 90
       48
 90
        4
 90
       95
 90
       96
 90
       93
 90
       87
 90
        4
 90
       90
 90
       91
 90
       57
 90
       43
 90
        4
 90
       91
 90
       92
 90
      120
 90
       57
 90
        4
 90
       94
 90
       95
 90
       87
 90
       88
 90
        4
 90
       78
 90
       94
 90
       88
 90
       89
 90
        4
 90
       77
 90
       78
 90
       89
 90
       43
 90
        3
 90
       89
 90
       90
 90
       43
 90
        4
 90
      121
 90
      124
 90
      123
 90
      122
 90
        3
 90
      123
 90
      124
 90
      125
 90
        4
 90
      125
 90
      124
 90
      127
 90
      126
 90
        4
 90
      126
 90
      127
 90
      129
 90
      128
 90
        4
 90
      128
 90
      129
 90
      131
 90
      130
 90
        4
 90
      130
 90
      131
 90
      133
 90
      132
 90
        5
 90
      132
 90
      133
 90
      136
 90
      135
 90
      134
 90
        4
 90
      136
 90
      133
 90
      138
 90
      137
 90
        4
 90
      137
 90
      138
 90
      140
 90
      139
 90
        4
 90
      139
 90
      140
 90
      142
 90
      141
 90
        4
 90
      141
 90
      142
 90
      144
 90
      143
 90
        4
 90
      143
 90
      144
 90
      146
 90
      145
 90
        4
 90
      145
 90
      146
 90
      148
 90
      147
 90
        4
 90
      147
 90
      148
 90
      150
 90
      149
 90
        4
 90
      149
 90
      150
 90
      152
 90
      151
 90
        4
 90
      151
 90
      152
 90
      154
 90
      153
 90
        3
 90
      155
 90
      154
 90
      156
 90
        3
 90
      153
 90
      154
 90
      155
 90
        4
 90
      156
 90
      154
 90
      158
 90
      157
 90
        4
 90
      157
 90
      161
 90
      160
 90
      159
 90
        3
 90
      157
 90
      158
 90
      161
 90
        4
 90
      159
 90
      164
 90
      163
 90
      162
 90
        3
 90
      159
 90
      160
 90
      164
 90
        3
 90
      162
 90
      166
 90
      165
 90
        3
 90
      162
 90
      163
 90
      166
 90
        4
 90
      162
 90
      165
 90
      168
 90
      167
 90
        3
 90
      167
 90
      168
 90
      169
 90
        3
 90
      167
 90
      169
 90
      170
 90
        4
 90
      167
 90
      170
 90
      172
 90
      171
 90
        4
 90
      171
 90
      172
 90
      174
 90
      173
 90
        4
 90
      173
 90
      174
 90
      176
 90
      175
 90
        4
 90
      175
 90
      176
 90
      178
 90
      177
 90
        4
 90
      177
 90
      178
 90
      180
 90
      179
 90
        4
 90
      179
 90
      183
 90
      182
 90
      181
 90
        3
 90
      179
 90
      180
 90
      183
 90
        4
 90
      181
 90
      186
 90
      185
 90
      184
 90
        3
 90
      181
 90
      182
 90
      186
 90
        4
 90
      184
 90
      189
 90
      188
 90
      187
 90
        3
 90
      184
 90
      185
 90
      189
 90
        4
 90
      187
 90
      192
 90
      191
 90
      190
 90
        3
 90
      187
 90
      188
 90
      192
 90
        4
 90
      190
 90
      195
 90
      194
 90
      193
 90
        3
 90
      190
 90
      191
 90
      195
 90
        3
 90
      193
 90
      194
 90
      196
 90
        4
 90
      196
 90
      194
 90
      198
 90
      197
 90
        3
 90
      199
 90
      198
 90
      200
 90
        3
 90
      197
 90
      198
 90
      199
 90
        4
 90
      200
 90
      198
 90
      202
 90
      201
 90
        4
 90
      201
 90
      202
 90
      204
 90
      203
 90
        3
 90
      203
 90
      204
 90
      205
 90
        3
 90
      205
 90
      204
 90
      206
 90
        3
 90
      206
 90
      204
 90
      207
 90
        4
 90
      208
 90
      211
 90
      210
 90
      209
 90
        3
 90
      207
 90
      204
 90
      212
 90
        4
 90
      212
 90
      204
 90
      213
 90
      208
 90
        3
 90
      208
 90
      213
 90
      211
 90
        3
 90
      209
 90
      215
 90
      214
 90
        3
 90
      209
 90
      210
 90
      215
 90
        4
 90
      216
 90
      219
 90
      218
 90
      217
 90
        3
 90
      216
 90
      220
 90
      219
 90
        4
 90
      221
 90
      222
 90
      220
 90
      216
 90
        3
 90
      221
 90
      223
 90
      222
 90
        4
 90
      224
 90
      226
 90
      225
 90
      221
 90
        3
 90
      224
 90
      228
 90
      227
 90
        3
 90
      224
 90
      227
 90
      226
 90
        4
 90
      209
 90
      214
 90
      228
 90
      224
 90
        3
 90
      221
 90
      225
 90
      223
 90
        4
 90
      229
 90
      232
 90
      231
 90
      230
 90
        4
 90
      233
 90
      218
 90
      235
 90
      234
 90
        4
 90
      234
 90
      235
 90
      237
 90
      236
 90
        4
 90
      238
 90
      239
 90
      232
 90
      229
 90
        4
 90
      240
 90
      241
 90
      239
 90
      238
 90
        4
 90
      217
 90
      218
 90
      241
 90
      240
 90
        3
 90
      241
 90
      218
 90
      233
 94
      509
 90
       82
 90
      106
 90
      106
 90
      122
 90
      122
 90
      123
 90
       82
 90
      123
 90
        0
 90
      106
 90
        0
 90
      121
 90
      121
 90
      122
 90
        0
 90
        1
 90
        1
 90
      124
 90
      121
 90
      124
 90
        1
 90
       12
 90
       12
 90
      127
 90
      124
 90
      127
 90
       11
 90
       12
 90
       11
 90
      129
 90
      127
 90
      129
 90
       10
 90
       11
 90
       10
 90
      131
 90
      129
 90
      131
 90
        9
 90
       10
 90
        9
 90
      133
 90
      131
 90
      133
 90
        8
 90
        9
 90
        8
 90
      138
 90
      133
 90
      138
 90
        7
 90
        8
 90
        7
 90
      140
 90
      138
 90
      140
 90
        6
 90
        7
 90
        6
 90
      142
 90
      140
 90
      142
 90
        5
 90
        6
 90
        5
 90
      144
 90
      142
 90
      144
 90
        4
 90
        5
 90
        4
 90
      146
 90
      144
 90
      146
 90
        3
 90
        4
 90
        3
 90
      148
 90
      146
 90
      148
 90
        2
 90
        3
 90
        2
 90
      150
 90
      148
 90
      150
 90
        2
 90
       13
 90
       13
 90
      152
 90
      150
 90
      152
 90
       13
 90
       14
 90
       14
 90
      154
 90
      152
 90
      154
 90
       14
 90
       41
 90
       41
 90
      158
 90
      154
 90
      158
 90
       40
 90
       41
 90
       40
 90
      161
 90
      158
 90
      161
 90
       39
 90
       40
 90
       39
 90
      160
 90
      160
 90
      161
 90
       38
 90
       39
 90
       38
 90
      164
 90
      160
 90
      164
 90
       37
 90
       38
 90
       37
 90
      163
 90
      163
 90
      164
 90
       36
 90
       37
 90
       36
 90
      166
 90
      163
 90
      166
 90
       35
 90
       36
 90
       35
 90
      165
 90
      165
 90
      166
 90
       34
 90
       35
 90
       34
 90
      168
 90
      165
 90
      168
 90
       33
 90
       34
 90
       33
 90
      169
 90
      168
 90
      169
 90
       32
 90
       33
 90
       32
 90
      170
 90
      169
 90
      170
 90
       31
 90
       32
 90
       31
 90
      172
 90
      170
 90
      172
 90
       30
 90
       31
 90
       30
 90
      174
 90
      172
 90
      174
 90
       29
 90
       30
 90
       29
 90
      176
 90
      174
 90
      176
 90
       28
 90
       29
 90
       28
 90
      178
 90
      176
 90
      178
 90
       27
 90
       28
 90
       27
 90
      180
 90
      178
 90
      180
 90
       26
 90
       27
 90
       26
 90
      183
 90
      180
 90
      183
 90
       25
 90
       26
 90
       25
 90
      182
 90
      182
 90
      183
 90
       24
 90
       25
 90
       24
 90
      186
 90
      182
 90
      186
 90
       23
 90
       24
 90
       23
 90
      185
 90
      185
 90
      186
 90
       22
 90
       23
 90
       22
 90
      189
 90
      185
 90
      189
 90
       21
 90
       22
 90
       21
 90
      188
 90
      188
 90
      189
 90
       20
 90
       21
 90
       20
 90
      192
 90
      188
 90
      192
 90
       19
 90
       20
 90
       19
 90
      191
 90
      191
 90
      192
 90
       18
 90
       19
 90
       18
 90
      195
 90
      191
 90
      195
 90
       17
 90
       18
 90
       17
 90
      194
 90
      194
 90
      195
 90
       16
 90
       17
 90
       16
 90
      198
 90
      194
 90
      198
 90
       15
 90
       16
 90
       15
 90
      202
 90
      198
 90
      202
 90
       15
 90
       42
 90
       42
 90
      204
 90
      202
 90
      204
 90
       42
 90
       56
 90
       56
 90
      213
 90
      204
 90
      213
 90
       55
 90
       56
 90
       55
 90
      211
 90
      211
 90
      213
 90
       54
 90
       55
 90
       54
 90
      210
 90
      210
 90
      211
 90
       53
 90
       54
 90
       53
 90
      215
 90
      210
 90
      215
 90
       52
 90
       53
 90
       52
 90
      214
 90
      214
 90
      215
 90
       51
 90
       52
 90
       51
 90
      228
 90
      214
 90
      228
 90
       50
 90
       51
 90
       50
 90
      227
 90
      227
 90
      228
 90
       49
 90
       50
 90
       49
 90
      226
 90
      226
 90
      227
 90
       48
 90
       49
 90
       48
 90
      225
 90
      225
 90
      226
 90
       47
 90
       48
 90
       47
 90
      223
 90
      223
 90
      225
 90
       46
 90
       47
 90
       46
 90
      222
 90
      222
 90
      223
 90
       45
 90
       46
 90
       45
 90
      220
 90
      220
 90
      222
 90
       44
 90
       45
 90
       44
 90
      219
 90
      219
 90
      220
 90
       43
 90
       44
 90
       43
 90
      218
 90
      218
 90
      219
 90
       43
 90
       57
 90
       57
 90
      235
 90
      218
 90
      235
 90
       57
 90
      120
 90
      120
 90
      237
 90
      235
 90
      237
 90
       92
 90
      120
 90
       92
 90
      236
 90
      236
 90
      237
 90
       91
 90
       92
 90
       91
 90
      234
 90
      234
 90
      236
 90
       90
 90
       91
 90
       90
 90
      233
 90
      233
 90
      234
 90
       89
 90
       90
 90
       89
 90
      241
 90
      233
 90
      241
 90
       88
 90
       89
 90
       88
 90
      239
 90
      239
 90
      241
 90
       87
 90
       88
 90
       87
 90
      232
 90
      232
 90
      239
 90
       87
 90
       93
 90
       93
 90
      231
 90
      231
 90
      232
 90
       93
 90
       96
 90
       96
 90
      230
 90
      230
 90
      231
 90
       95
 90
       96
 90
       95
 90
      229
 90
      229
 90
      230
 90
       94
 90
       95
 90
       94
 90
      238
 90
      229
 90
      238
 90
       78
 90
       94
 90
       78
 90
      240
 90
      238
 90
      240
 90
       77
 90
       78
 90
       77
 90
      217
 90
      217
 90
      240
 90
       76
 90
       77
 90
       76
 90
      216
 90
      216
 90
      217
 90
       75
 90
       76
 90
       75
 90
      221
 90
      216
 90
      221
 90
       74
 90
       75
 90
       74
 90
      224
 90
      221
 90
      224
 90
       73
 90
       74
 90
       73
 90
      209
 90
      209
 90
      224
 90
       72
 90
       73
 90
       72
 90
      208
 90
      208
 90
      209
 90
       72
 90
      114
 90
      114
 90
      212
 90
      208
 90
      212
 90
      113
 90
      114
 90
      113
 90
      207
 90
      207
 90
      212
 90
      112
 90
      113
 90
      112
 90
      206
 90
      206
 90
      207
 90
      112
 90
      118
 90
      118
 90
      205
 90
      205
 90
      206
 90
      115
 90
      118
 90
      115
 90
      203
 90
      203
 90
      205
 90
      108
 90
      115
 90
      108
 90
      201
 90
      201
 90
      203
 90
      107
 90
      108
 90
      107
 90
      200
 90
      200
 90
      201
 90
      107
 90
      110
 90
      110
 90
      199
 90
      199
 90
      200
 90
      109
 90
      110
 90
      109
 90
      197
 90
      197
 90
      199
 90
      109
 90
      111
 90
      111
 90
      196
 90
      196
 90
      197
 90
       71
 90
      111
 90
       71
 90
      193
 90
      193
 90
      196
 90
       70
 90
       71
 90
       70
 90
      190
 90
      190
 90
      193
 90
       69
 90
       70
 90
       69
 90
      187
 90
      187
 90
      190
 90
       68
 90
       69
 90
       68
 90
      184
 90
      184
 90
      187
 90
       67
 90
       68
 90
       67
 90
      181
 90
      181
 90
      184
 90
       66
 90
       67
 90
       66
 90
      179
 90
      179
 90
      181
 90
       65
 90
       66
 90
       65
 90
      177
 90
      177
 90
      179
 90
       64
 90
       65
 90
       64
 90
      175
 90
      175
 90
      177
 90
       63
 90
       64
 90
       63
 90
      173
 90
      173
 90
      175
 90
       62
 90
       63
 90
       62
 90
      171
 90
      171
 90
      173
 90
       61
 90
       62
 90
       61
 90
      167
 90
      167
 90
      171
 90
       61
 90
       79
 90
       79
 90
      162
 90
      162
 90
      167
 90
       60
 90
       79
 90
       60
 90
      159
 90
      159
 90
      162
 90
       59
 90
       60
 90
       59
 90
      157
 90
      157
 90
      159
 90
       58
 90
       59
 90
       58
 90
      156
 90
      156
 90
      157
 90
       58
 90
      100
 90
      100
 90
      155
 90
      155
 90
      156
 90
       99
 90
      100
 90
       99
 90
      153
 90
      153
 90
      155
 90
       99
 90
      103
 90
      103
 90
      151
 90
      151
 90
      153
 90
      102
 90
      103
 90
      102
 90
      149
 90
      149
 90
      151
 90
      101
 90
      102
 90
      101
 90
      147
 90
      147
 90
      149
 90
      101
 90
      105
 90
      105
 90
      145
 90
      145
 90
      147
 90
      104
 90
      105
 90
      104
 90
      143
 90
      143
 90
      145
 90
       98
 90
      104
 90
       98
 90
      141
 90
      141
 90
      143
 90
       97
 90
       98
 90
       97
 90
      139
 90
      139
 90
      141
 90
       97
 90
      119
 90
      119
 90
      137
 90
      137
 90
      139
 90
      116
 90
      119
 90
      116
 90
      136
 90
      136
 90
      137
 90
      116
 90
      117
 90
      117
 90
      135
 90
      135
 90
      136
 90
       81
 90
      117
 90
       81
 90
      134
 90
      134
 90
      135
 90
       80
 90
       81
 90
       80
 90
      132
 90
      132
 90
      134
 90
       80
 90
       86
 90
       86
 90
      130
 90
      130
 90
      132
 90
       85
 90
       86
 90
       85
 90
      128
 90
      128
 90
      130
 90
       84
 90
       85
 90
       84
 90
      126
 90
      126
 90
      128
 90
       83
 90
       84
 90
       83
 90
      125
 90
      125
 90
      126
 90
       82
 90
       83
 90
      123
 90
      125
 90
        1
 90
       82
 90
        1
 90
       83
 90
       12
 90
       84
 90
       11
 90
       85
 90
       10
 90
       86
 90
        9
 90
       80
 90
        9
 90
      116
 90
        8
 90
      119
 90
        7
 90
       97
 90
        6
 90
       98
 90
        5
 90
      104
 90
        4
 90
      105
 90
        3
 90
      101
 90
        2
 90
      102
 90
       13
 90
      103
 90
       14
 90
       99
 90
       14
 90
       58
 90
       14
 90
      100
 90
       41
 90
       59
 90
       39
 90
       60
 90
       40
 90
       59
 90
       37
 90
       79
 90
       38
 90
       60
 90
       35
 90
       79
 90
       36
 90
       79
 90
       34
 90
       61
 90
       33
 90
       61
 90
       32
 90
       61
 90
       31
 90
       62
 90
       30
 90
       63
 90
       29
 90
       64
 90
       28
 90
       65
 90
       27
 90
       66
 90
       25
 90
       67
 90
       26
 90
       66
 90
       23
 90
       68
 90
       24
 90
       67
 90
       21
 90
       69
 90
       22
 90
       68
 90
       19
 90
       70
 90
       20
 90
       69
 90
       17
 90
       71
 90
       18
 90
       70
 90
       17
 90
      111
 90
       16
 90
      109
 90
       16
 90
      107
 90
       16
 90
      110
 90
       15
 90
      108
 90
       42
 90
      115
 90
       42
 90
      118
 90
       42
 90
      112
 90
       42
 90
      113
 90
       54
 90
       73
 90
       55
 90
       72
 90
       42
 90
      114
 90
       56
 90
       72
 90
       52
 90
       73
 90
       53
 90
       73
 90
       43
 90
       77
 90
       44
 90
       76
 90
       45
 90
       76
 90
       46
 90
       75
 90
       47
 90
       75
 90
       48
 90
       75
 90
       49
 90
       74
 90
       50
 90
       74
 90
       51
 90
       74
 90
       87
 90
       95
 90
       57
 90
       91
 90
       43
 90
       90
 90
       88
 90
       94
 90
       78
 90
       89
 90
       43
 90
       89
 90
      123
 90
      124
 90
      124
 90
      125
 90
      126
 90
      127
 90
      128
 90
      129
 90
      130
 90
      131
 90
      132
 90
      133
 90
      133
 90
      136
 90
      137
 90
      138
 90
      139
 90
      140
 90
      141
 90
      142
 90
      143
 90
      144
 90
      145
 90
      146
 90
      147
 90
      148
 90
      149
 90
      150
 90
      151
 90
      152
 90
      153
 90
      154
 90
      154
 90
      155
 90
      154
 90
      156
 90
      157
 90
      158
 90
      157
 90
      161
 90
      159
 90
      160
 90
      159
 90
      164
 90
      162
 90
      163
 90
      162
 90
      166
 90
      162
 90
      165
 90
      167
 90
      168
 90
      167
 90
      169
 90
      167
 90
      170
 90
      171
 90
      172
 90
      173
 90
      174
 90
      175
 90
      176
 90
      177
 90
      178
 90
      179
 90
      180
 90
      179
 90
      183
 90
      181
 90
      182
 90
      181
 90
      186
 90
      184
 90
      185
 90
      184
 90
      189
 90
      187
 90
      188
 90
      187
 90
      192
 90
      190
 90
      191
 90
      190
 90
      195
 90
      193
 90
      194
 90
      194
 90
      196
 90
      197
 90
      198
 90
      198
 90
      199
 90
      198
 90
      200
 90
      201
 90
      202
 90
      203
 90
      204
 90
      204
 90
      205
 90
      204
 90
      206
 90
      204
 90
      207
 90
      208
 90
      211
 90
      209
 90
      210
 90
      204
 90
      212
 90
      208
 90
      213
 90
      209
 90
      215
 90
      209
 90
      214
 90
      216
 90
      219
 90
      217
 90
      218
 90
      216
 90
      220
 90
      221
 90
      222
 90
      221
 90
      223
 90
      224
 90
      226
 90
      221
 90
      225
 90
      224
 90
      228
 90
      224
 90
      227
 90
      229
 90
      232
 90
      218
 90
      233
 90
      234
 90
      235
 90
      238
 90
      239
 90
      240
 90
      241
 90
      218
 90
      241
 95
      509
140
0.0
140
0.0
140
0.0
140
0.0
140
0.0
140
0.0
140
0.0
140
0.0
140
0.0
140
0.0
140
0.0
140
0.0
140
0.0
140
0.0
140
0.0
140
0.0
140
0.0
140
0.0
140
0.0
140
0.0
140
0.0
140
0.0
140
0.0
140
0.0
140
0.0
140
0.0
140
0.0
140
0.0
140
0.0
140
0.0
140
0.0
140
0.0
140
0.0
140
0.0
140
0.0
140
0.0
140
0.0
140
0.0
140
0.0
140
0.0
140
0.0
140
0.0
140
0.0
140
0.0
140
0.0
140
0.0
140
0.0
140
0.0
140
0.0
140
0.0
140
0.0
140
0.0
140
0.0
140
0.0
140
0.0
140
0.0
140
0.0
140
0.0
140
0.0
140
0.0
140
0.0
140
0.0
140
0.0
140
0.0
140
0.0
140
0.0
140
0.0
140
0.0
140
0.0
140
0.0
140
0.0
140
0.0
140
0.0
140
0.0
140
0.0
140
0.0
140
0.0
140
0.0
140
0.0
140
0.0
140
0.0
140
0.0
140
0.0
140
0.0
140
0.0
140
0.0
140
0.0
140
0.0
140
0.0
140
0.0
140
0.0
140
0.0
140
0.0
140
0.0
140
0.0
140
0.0
140
0.0
140
0.0
140
0.0
140
0.0
140
0.0
140
0.0
140
0.0
140
0.0
140
0.0
140
0.0
140
0.0
140
0.0
140
0.0
140
0.0
140
0.0
140
0.0
140
0.0
140
0.0
140
0.0
140
0.0
140
0.0
140
0.0
140
0.0
140
0.0
140
0.0
140
0.0
140
0.0
140
0.0
140
0.0
140
0.0
140
0.0
140
0.0
140
0.0
140
0.0
140
0.0
140
0.0
140
0.0
140
0.0
140
0.0
140
0.0
140
0.0
140
0.0
140
0.0
140
0.0
140
0.0
140
0.0
140
0.0
140
0.0
140
0.0
140
0.0
140
0.0
140
0.0
140
0.0
140
0.0
140
0.0
140
0.0
140
0.0
140
0.0
140
0.0
140
0.0
140
0.0
140
0.0
140
0.0
140
0.0
140
0.0
140
0.0
140
0.0
140
0.0
140
0.0
140
0.0
140
0.0
140
0.0
140
0.0
140
0.0
140
0.0
140
0.0
140
0.0
140
0.0
140
0.0
140
0.0
140
0.0
140
0.0
140
0.0
140
0.0
140
0.0
140
0.0
140
0.0
140
0.0
140
0.0
140
0.0
140
0.0
140
0.0
140
0.0
140
0.0
140
0.0
140
0.0
140
0.0
140
0.0
140
0.0
140
0.0
140
0.0
140
0.0
140
0.0
140
0.0
140
0.0
140
0.0
140
0.0
140
0.0
140
0.0
140
0.0
140
0.0
140
0.0
140
0.0
140
0.0
140
0.0
140
0.0
140
0.0
140
0.0
140
0.0
140
0.0
140
0.0
140
0.0
140
0.0
140
0.0
140
0.0
140
0.0
140
0.0
140
0.0
140
0.0
140
0.0
140
0.0
140
0.0
140
0.0
140
0.0
140
0.0
140
0.0
140
0.0
140
0.0
140
0.0
140
0.0
140
0.0
140
0.0
140
0.0
140
0.0
140
0.0
140
0.0
140
0.0
140
0.0
140
0.0
140
0.0
140
0.0
140
0.0
140
0.0
140
0.0
140
0.0
140
0.0
140
0.0
140
0.0
140
0.0
140
0.0
140
0.0
140
0.0
140
0.0
140
0.0
140
0.0
140
0.0
140
0.0
140
0.0
140
0.0
140
0.0
140
0.0
140
0.0
140
0.0
140
0.0
140
0.0
140
0.0
140
0.0
140
0.0
140
0.0
140
0.0
140
0.0
140
0.0
140
0.0
140
0.0
140
0.0
140
0.0
140
0.0
140
0.0
140
0.0
140
0.0
140
0.0
140
0.0
140
0.0
140
0.0
140
0.0
140
0.0
140
0.0
140
0.0
140
0.0
140
0.0
140
0.0
140
0.0
140
0.0
140
0.0
140
0.0
140
0.0
140
0.0
140
0.0
140
0.0
140
0.0
140
0.0
140
0.0
140
0.0
140
0.0
140
0.0
140
0.0
140
0.0
140
0.0
140
0.0
140
0.0
140
0.0
140
0.0
140
0.0
140
0.0
140
0.0
140
0.0
140
0.0
140
0.0
140
0.0
140
0.0
140
0.0
140
0.0
140
0.0
140
0.0
140
0.0
140
0.0
140
0.0
140
0.0
140
0.0
140
0.0
140
0.0
140
0.0
140
0.0
140
0.0
140
0.0
140
0.0
140
0.0
140
0.0
140
0.0
140
0.0
140
0.0
140
0.0
140
0.0
140
0.0
140
0.0
140
0.0
140
0.0
140
0.0
140
0.0
140
0.0
140
0.0
140
0.0
140
0.0
140
0.0
140
0.0
140
0.0
140
0.0
140
0.0
140
0.0
140
0.0
140
0.0
140
0.0
140
0.0
140
0.0
140
0.0
140
0.0
140
0.0
140
0.0
140
0.0
140
0.0
140
0.0
140
0.0
140
0.0
140
0.0
140
0.0
140
0.0
140
0.0
140
0.0
140
0.0
140
0.0
140
0.0
140
0.0
140
0.0
140
0.0
140
0.0
140
0.0
140
0.0
140
0.0
140
0.0
140
0.0
140
0.0
140
0.0
140
0.0
140
0.0
140
0.0
140
0.0
140
0.0
140
0.0
140
0.0
140
0.0
140
0.0
140
0.0
140
0.0
140
0.0
140
0.0
140
0.0
140
0.0
140
0.0
140
0.0
140
0.0
140
0.0
140
0.0
140
0.0
140
0.0
140
0.0
140
0.0
140
0.0
140
0.0
140
0.0
140
0.0
140
0.0
140
0.0
140
0.0
140
0.0
140
0.0
140
0.0
140
0.0
140
0.0
140
0.0
140
0.0
140
0.0
140
0.0
140
0.0
140
0.0
140
0.0
140
0.0
140
0.0
140
0.0
140
0.0
140
0.0
140
0.0
140
0.0
140
0.0
140
0.0
140
0.0
140
0.0
140
0.0
140
0.0
140
0.0
140
0.0
140
0.0
140
0.0
140
0.0
140
0.0
140
0.0
140
0.0
140
0.0
140
0.0
140
0.0
140
0.0
140
0.0
140
0.0
140
0.0
140
0.0
140
0.0
140
0.0
140
0.0
140
0.0
140
0.0
140
0.0
140
0.0
140
0.0
140
0.0
140
0.0
140
0.0
140
0.0
140
0.0
140
0.0
140
0.0
140
0.0
140
0.0
140
0.0
140
0.0
140
0.0
140
0.0
140
0.0
140
0.0
140
0.0
140
0.0
140
0.0
140
0.0
140
0.0
140
0.0
140
0.0
140
0.0
140
0.0
140
0.0
140
0.0
140
0.0
140
0.0
140
0.0
140
0.0
140
0.0
 90
        0
  0
POLYLINE
  5
FA
330
1F
100
AcDbEntity
  8
OracDecor_cornice_mouldings
 62
    81
420
 10085529
100
AcDb2dPolyline
 66
     1
 10
0.0
 20
0.0
 30
0.0000217098749999
 70
     1
210
-0.9999999999999769
220
0.0000001788139343
230
-0.0000001192092896
  0
VERTEX
  5
FB
330
FA
100
AcDbEntity
  8
OracDecor_cornice_mouldings
 62
    81
420
 10085529
100
AcDbVertex
100
AcDb2dVertex
 10
-201.8746948242188
 20
-8.256031990051269
 30
0.0000217098749999
  0
VERTEX
  5
FC
330
FA
100
AcDbEntity
  8
OracDecor_cornice_mouldings
 62
    81
420
 10085529
100
AcDbVertex
100
AcDb2dVertex
 10
-197.8386993408203
 20
-8.254619598388671
 30
0.0000217098749999
  0
VERTEX
  5
FD
330
FA
100
AcDbEntity
  8
OracDecor_cornice_mouldings
 62
    81
420
 10085529
100
AcDbVertex
100
AcDb2dVertex
 10
-195.2083129882812
 20
-8.599658966064453
 30
0.0000217098749999
  0
VERTEX
  5
FE
330
FA
100
AcDbEntity
  8
OracDecor_cornice_mouldings
 62
    81
420
 10085529
100
AcDbVertex
100
AcDb2dVertex
 10
-192.4970245361328
 20
-9.52048110961914
 30
0.0000217098749999
  0
VERTEX
  5
FF
330
FA
100
AcDbEntity
  8
OracDecor_cornice_mouldings
 62
    81
420
 10085529
100
AcDbVertex
100
AcDb2dVertex
 10
-189.2855224609375
 20
-11.24048233032226
 30
0.0000217098749999
  0
VERTEX
  5
100
330
FA
100
AcDbEntity
  8
OracDecor_cornice_mouldings
 62
    81
420
 10085529
100
AcDbVertex
100
AcDb2dVertex
 10
-186.0068206787109
 20
-13.64773941040039
 30
0.0000217098749999
  0
VERTEX
  5
101
330
FA
100
AcDbEntity
  8
OracDecor_cornice_mouldings
 62
    81
420
 10085529
100
AcDbVertex
100
AcDb2dVertex
 10
-183.5414733886718
 20
-15.9461088180542
 30
0.0000217098749999
  0
VERTEX
  5
102
330
FA
100
AcDbEntity
  8
OracDecor_cornice_mouldings
 62
    81
420
 10085529
100
AcDbVertex
100
AcDb2dVertex
 10
-181.1616821289062
 20
-18.6351203918457
 30
0.0000217098749999
  0
VERTEX
  5
103
330
FA
100
AcDbEntity
  8
OracDecor_cornice_mouldings
 62
    81
420
 10085529
100
AcDbVertex
100
AcDb2dVertex
 10
-179.0950622558594
 20
-21.47592544555664
 30
0.0000217098749999
  0
VERTEX
  5
104
330
FA
100
AcDbEntity
  8
OracDecor_cornice_mouldings
 62
    81
420
 10085529
100
AcDbVertex
100
AcDb2dVertex
 10
-177.4290771484375
 20
-24.29984664916992
 30
0.0000217098749999
  0
VERTEX
  5
105
330
FA
100
AcDbEntity
  8
OracDecor_cornice_mouldings
 62
    81
420
 10085529
100
AcDbVertex
100
AcDb2dVertex
 10
-175.860366821289
 20
-27.84720039367676
 30
0.0000217098749999
  0
VERTEX
  5
106
330
FA
100
AcDbEntity
  8
OracDecor_cornice_mouldings
 62
    81
420
 10085529
100
AcDbVertex
100
AcDb2dVertex
 10
-174.9635620117187
 20
-30.97559547424316
 30
0.0000217098749999
  0
VERTEX
  5
107
330
FA
100
AcDbEntity
  8
OracDecor_cornice_mouldings
 62
    81
420
 10085529
100
AcDbVertex
100
AcDb2dVertex
 10
-174.6226806640625
 20
-34.04650497436524
 30
0.0000217098749999
  0
VERTEX
  5
108
330
FA
100
AcDbEntity
  8
OracDecor_cornice_mouldings
 62
    81
420
 10085529
100
AcDbVertex
100
AcDb2dVertex
 10
-174.622314453125
 20
-35.07848739624023
 30
0.0000217098749999
  0
VERTEX
  5
109
330
FA
100
AcDbEntity
  8
OracDecor_cornice_mouldings
 62
    81
420
 10085529
100
AcDbVertex
100
AcDb2dVertex
 10
-170.0818176269531
 20
-35.07690811157227
 30
0.0000217098749999
  0
VERTEX
  5
10A
330
FA
100
AcDbEntity
  8
OracDecor_cornice_mouldings
 62
    81
420
 10085529
100
AcDbVertex
100
AcDb2dVertex
 10
-167.1920776367187
 20
-49.49063491821289
 30
0.0000217098749999
  0
VERTEX
  5
10B
330
FA
100
AcDbEntity
  8
OracDecor_cornice_mouldings
 62
    81
420
 10085529
100
AcDbVertex
100
AcDb2dVertex
 10
-165.0746459960937
 20
-56.23395919799804
 30
0.0000217098749999
  0
VERTEX
  5
10C
330
FA
100
AcDbEntity
  8
OracDecor_cornice_mouldings
 62
    81
420
 10085529
100
AcDbVertex
100
AcDb2dVertex
 10
-162.5063171386718
 20
-62.74727249145508
 30
0.0000217098749999
  0
VERTEX
  5
10D
330
FA
100
AcDbEntity
  8
OracDecor_cornice_mouldings
 62
    81
420
 10085529
100
AcDbVertex
100
AcDb2dVertex
 10
-159.4351043701172
 20
-69.14754486083984
 30
0.0000217098749999
  0
VERTEX
  5
10E
330
FA
100
AcDbEntity
  8
OracDecor_cornice_mouldings
 62
    81
420
 10085529
100
AcDbVertex
100
AcDb2dVertex
 10
-155.8474731445312
 20
-75.42575073242187
 30
0.0000217098749999
  0
VERTEX
  5
10F
330
FA
100
AcDbEntity
  8
OracDecor_cornice_mouldings
 62
    81
420
 10085529
100
AcDbVertex
100
AcDb2dVertex
 10
-151.8535003662109
 20
-81.39007568359375
 30
0.0000217098749999
  0
VERTEX
  5
110
330
FA
100
AcDbEntity
  8
OracDecor_cornice_mouldings
 62
    81
420
 10085529
100
AcDbVertex
100
AcDb2dVertex
 10
-147.5137634277343
 20
-86.98148345947265
 30
0.0000217098749999
  0
VERTEX
  5
111
330
FA
100
AcDbEntity
  8
OracDecor_cornice_mouldings
 62
    81
420
 10085529
100
AcDbVertex
100
AcDb2dVertex
 10
-142.9718170166015
 20
-92.02427673339844
 30
0.0000217098749999
  0
VERTEX
  5
112
330
FA
100
AcDbEntity
  8
OracDecor_cornice_mouldings
 62
    81
420
 10085529
100
AcDbVertex
100
AcDb2dVertex
 10
-138.2448272705078
 20
-96.53373718261718
 30
0.0000217098749999
  0
VERTEX
  5
113
330
FA
100
AcDbEntity
  8
OracDecor_cornice_mouldings
 62
    81
420
 10085529
100
AcDbVertex
100
AcDb2dVertex
 10
-128.2938842773437
 20
-104.0334091186523
 30
0.0000217098749999
  0
VERTEX
  5
114
330
FA
100
AcDbEntity
  8
OracDecor_cornice_mouldings
 62
    81
420
 10085529
100
AcDbVertex
100
AcDb2dVertex
 10
-122.7624969482422
 20
-107.2395935058594
 30
0.0000217098749999
  0
VERTEX
  5
115
330
FA
100
AcDbEntity
  8
OracDecor_cornice_mouldings
 62
    81
420
 10085529
100
AcDbVertex
100
AcDb2dVertex
 10
-116.6470336914062
 20
-110.1587448120117
 30
0.0000217098749999
  0
VERTEX
  5
116
330
FA
100
AcDbEntity
  8
OracDecor_cornice_mouldings
 62
    81
420
 10085529
100
AcDbVertex
100
AcDb2dVertex
 10
-109.4351730346679
 20
-113.0869064331054
 30
0.0000217098749999
  0
VERTEX
  5
117
330
FA
100
AcDbEntity
  8
OracDecor_cornice_mouldings
 62
    81
420
 10085529
100
AcDbVertex
100
AcDb2dVertex
 10
-101.1200866699218
 20
-116.183967590332
 30
0.0000217098749999
  0
VERTEX
  5
118
330
FA
100
AcDbEntity
  8
OracDecor_cornice_mouldings
 62
    81
420
 10085529
100
AcDbVertex
100
AcDb2dVertex
 10
-92.81830596923828
 20
-119.3757247924804
 30
0.0000217098749999
  0
VERTEX
  5
119
330
FA
100
AcDbEntity
  8
OracDecor_cornice_mouldings
 62
    81
420
 10085529
100
AcDbVertex
100
AcDb2dVertex
 10
-85.58275604248047
 20
-122.5296478271484
 30
0.0000217098749999
  0
VERTEX
  5
11A
330
FA
100
AcDbEntity
  8
OracDecor_cornice_mouldings
 62
    81
420
 10085529
100
AcDbVertex
100
AcDb2dVertex
 10
-79.31979370117187
 20
-125.7620544433593
 30
0.0000217098749999
  0
VERTEX
  5
11B
330
FA
100
AcDbEntity
  8
OracDecor_cornice_mouldings
 62
    81
420
 10085529
100
AcDbVertex
100
AcDb2dVertex
 10
-73.70701599121094
 20
-129.2537689208984
 30
0.0000217098749999
  0
VERTEX
  5
11C
330
FA
100
AcDbEntity
  8
OracDecor_cornice_mouldings
 62
    81
420
 10085529
100
AcDbVertex
100
AcDb2dVertex
 10
-68.43812561035156
 20
-133.1456909179687
 30
0.0000217098749999
  0
VERTEX
  5
11D
330
FA
100
AcDbEntity
  8
OracDecor_cornice_mouldings
 62
    81
420
 10085529
100
AcDbVertex
100
AcDb2dVertex
 10
-63.24372863769531
 20
-137.636962890625
 30
0.0000217098749999
  0
VERTEX
  5
11E
330
FA
100
AcDbEntity
  8
OracDecor_cornice_mouldings
 62
    81
420
 10085529
100
AcDbVertex
100
AcDb2dVertex
 10
-58.27025604248047
 20
-142.6266632080078
 30
0.0000217098749999
  0
VERTEX
  5
11F
330
FA
100
AcDbEntity
  8
OracDecor_cornice_mouldings
 62
    81
420
 10085529
100
AcDbVertex
100
AcDb2dVertex
 10
-53.6429672241211
 20
-147.9632263183594
 30
0.0000217098749999
  0
VERTEX
  5
120
330
FA
100
AcDbEntity
  8
OracDecor_cornice_mouldings
 62
    81
420
 10085529
100
AcDbVertex
100
AcDb2dVertex
 10
-49.55007553100585
 20
-153.4222717285156
 30
0.0000217098749999
  0
VERTEX
  5
121
330
FA
100
AcDbEntity
  8
OracDecor_cornice_mouldings
 62
    81
420
 10085529
100
AcDbVertex
100
AcDb2dVertex
 10
-46.10913085937499
 20
-158.8321228027344
 30
0.0000217098749999
  0
VERTEX
  5
122
330
FA
100
AcDbEntity
  8
OracDecor_cornice_mouldings
 62
    81
420
 10085529
100
AcDbVertex
100
AcDb2dVertex
 10
-40.74464416503906
 20
-170.0657348632812
 30
0.0000217098749999
  0
VERTEX
  5
123
330
FA
100
AcDbEntity
  8
OracDecor_cornice_mouldings
 62
    81
420
 10085529
100
AcDbVertex
100
AcDb2dVertex
 10
-37.12801361083985
 20
-182.6698760986328
 30
0.0000217098749999
  0
VERTEX
  5
124
330
FA
100
AcDbEntity
  8
OracDecor_cornice_mouldings
 62
    81
420
 10085529
100
AcDbVertex
100
AcDb2dVertex
 10
-35.32366943359375
 20
-197.0538024902344
 30
0.0000217098749999
  0
VERTEX
  5
125
330
FA
100
AcDbEntity
  8
OracDecor_cornice_mouldings
 62
    81
420
 10085529
100
AcDbVertex
100
AcDb2dVertex
 10
-31.28767395019532
 20
-197.0523681640625
 30
0.0000217098749999
  0
VERTEX
  5
126
330
FA
100
AcDbEntity
  8
OracDecor_cornice_mouldings
 62
    81
420
 10085529
100
AcDbVertex
100
AcDb2dVertex
 10
-30.96863555908203
 20
-200.2954254150391
 30
0.0000217098749999
  0
VERTEX
  5
127
330
FA
100
AcDbEntity
  8
OracDecor_cornice_mouldings
 62
    81
420
 10085529
100
AcDbVertex
100
AcDb2dVertex
 10
-29.9556884765625
 20
-203.6666717529297
 30
0.0000217098749999
  0
VERTEX
  5
128
330
FA
100
AcDbEntity
  8
OracDecor_cornice_mouldings
 62
    81
420
 10085529
100
AcDbVertex
100
AcDb2dVertex
 10
-29.14820861816406
 20
-205.3964691162109
 30
0.0000217098749999
  0
VERTEX
  5
129
330
FA
100
AcDbEntity
  8
OracDecor_cornice_mouldings
 62
    81
420
 10085529
100
AcDbVertex
100
AcDb2dVertex
 10
-28.13453674316406
 20
-207.1108551025391
 30
0.0000217098749999
  0
VERTEX
  5
12A
330
FA
100
AcDbEntity
  8
OracDecor_cornice_mouldings
 62
    81
420
 10085529
100
AcDbVertex
100
AcDb2dVertex
 10
-26.89739227294922
 20
-208.8030090332031
 30
0.0000217098749999
  0
VERTEX
  5
12B
330
FA
100
AcDbEntity
  8
OracDecor_cornice_mouldings
 62
    81
420
 10085529
100
AcDbVertex
100
AcDb2dVertex
 10
-25.43943023681641
 20
-210.4350280761719
 30
0.0000217098749999
  0
VERTEX
  5
12C
330
FA
100
AcDbEntity
  8
OracDecor_cornice_mouldings
 62
    81
420
 10085529
100
AcDbVertex
100
AcDb2dVertex
 10
-23.75680541992188
 20
-211.9831390380859
 30
0.0000217098749999
  0
VERTEX
  5
12D
330
FA
100
AcDbEntity
  8
OracDecor_cornice_mouldings
 62
    81
420
 10085529
100
AcDbVertex
100
AcDb2dVertex
 10
-21.84342193603516
 20
-213.4222412109375
 30
0.0000217098749999
  0
VERTEX
  5
12E
330
FA
100
AcDbEntity
  8
OracDecor_cornice_mouldings
 62
    81
420
 10085529
100
AcDbVertex
100
AcDb2dVertex
 10
-19.81615447998047
 20
-214.6575317382812
 30
0.0000217098749999
  0
VERTEX
  5
12F
330
FA
100
AcDbEntity
  8
OracDecor_cornice_mouldings
 62
    81
420
 10085529
100
AcDbVertex
100
AcDb2dVertex
 10
-17.58241271972656
 20
-215.7343444824219
 30
0.0000217098749999
  0
VERTEX
  5
130
330
FA
100
AcDbEntity
  8
OracDecor_cornice_mouldings
 62
    81
420
 10085529
100
AcDbVertex
100
AcDb2dVertex
 10
-15.16983795166015
 20
-216.6106567382812
 30
0.0000217098749999
  0
VERTEX
  5
131
330
FA
100
AcDbEntity
  8
OracDecor_cornice_mouldings
 62
    81
420
 10085529
100
AcDbVertex
100
AcDb2dVertex
 10
-12.73411560058594
 20
-217.2232971191406
 30
0.0000217098749999
  0
VERTEX
  5
132
330
FA
100
AcDbEntity
  8
OracDecor_cornice_mouldings
 62
    81
420
 10085529
100
AcDbVertex
100
AcDb2dVertex
 10
-10.35806274414062
 20
-217.573974609375
 30
0.0000217098749999
  0
VERTEX
  5
133
330
FA
100
AcDbEntity
  8
OracDecor_cornice_mouldings
 62
    81
420
 10085529
100
AcDbVertex
100
AcDb2dVertex
 10
-8.073471069335937
 20
-217.6842651367187
 30
0.0000217098749999
  0
VERTEX
  5
134
330
FA
100
AcDbEntity
  8
OracDecor_cornice_mouldings
 62
    81
420
 10085529
100
AcDbVertex
100
AcDb2dVertex
 10
-8.072036743164062
 20
-221.812255859375
 30
0.0000217098749999
  0
VERTEX
  5
135
330
FA
100
AcDbEntity
  8
OracDecor_cornice_mouldings
 62
    81
420
 10085529
100
AcDbVertex
100
AcDb2dVertex
 10
-0.000030517581763
 20
-221.8094329833984
 30
0.0000217098749999
  0
VERTEX
  5
136
330
FA
100
AcDbEntity
  8
OracDecor_cornice_mouldings
 62
    81
420
 10085529
100
AcDbVertex
100
AcDb2dVertex
 10
-0.0030059814453125
 20
-213.2739562988281
 30
0.0000217098749999
  0
VERTEX
  5
137
330
FA
100
AcDbEntity
  8
OracDecor_cornice_mouldings
 62
    81
420
 10085529
100
AcDbVertex
100
AcDb2dVertex
 10
-0.6664047241210938
 20
-212.9123840332031
 30
0.0000217098749999
  0
VERTEX
  5
138
330
FA
100
AcDbEntity
  8
OracDecor_cornice_mouldings
 62
    81
420
 10085529
100
AcDbVertex
100
AcDb2dVertex
 10
-1.1298828125
 20
-212.3069610595703
 30
0.0000217098749999
  0
VERTEX
  5
139
330
FA
100
AcDbEntity
  8
OracDecor_cornice_mouldings
 62
    81
420
 10085529
100
AcDbVertex
100
AcDb2dVertex
 10
-1.313941955566406
 20
-211.5614013671875
 30
0.0000217098749999
  0
VERTEX
  5
13A
330
FA
100
AcDbEntity
  8
OracDecor_cornice_mouldings
 62
    81
420
 10085529
100
AcDbVertex
100
AcDb2dVertex
 10
-1.187042236328125
 20
-210.8035278320313
 30
0.0000217098749999
  0
VERTEX
  5
13B
330
FA
100
AcDbEntity
  8
OracDecor_cornice_mouldings
 62
    81
420
 10085529
100
AcDbVertex
100
AcDb2dVertex
 10
-0.7710113525390625
 20
-210.1631774902344
 30
0.0000217098749999
  0
VERTEX
  5
13C
330
FA
100
AcDbEntity
  8
OracDecor_cornice_mouldings
 62
    81
420
 10085529
100
AcDbVertex
100
AcDb2dVertex
 10
-0.0043716430664063
 20
-209.3939819335937
 30
0.0000217098749999
  0
VERTEX
  5
13D
330
FA
100
AcDbEntity
  8
OracDecor_cornice_mouldings
 62
    81
420
 10085529
100
AcDbVertex
100
AcDb2dVertex
 10
-0.0073394775390625
 20
-200.8929138183594
 30
0.0000217098749999
  0
VERTEX
  5
13E
330
FA
100
AcDbEntity
  8
OracDecor_cornice_mouldings
 62
    81
420
 10085529
100
AcDbVertex
100
AcDb2dVertex
 10
-0.9953384399414062
 20
-200.5254974365235
 30
0.0000217098749999
  0
VERTEX
  5
13F
330
FA
100
AcDbEntity
  8
OracDecor_cornice_mouldings
 62
    81
420
 10085529
100
AcDbVertex
100
AcDb2dVertex
 10
-2.046592712402343
 20
-200.52587890625
 30
0.0000217098749999
  0
VERTEX
  5
140
330
FA
100
AcDbEntity
  8
OracDecor_cornice_mouldings
 62
    81
420
 10085529
100
AcDbVertex
100
AcDb2dVertex
 10
-3.081695556640625
 20
-200.9219512939453
 30
0.0000217098749999
  0
VERTEX
  5
141
330
FA
100
AcDbEntity
  8
OracDecor_cornice_mouldings
 62
    81
420
 10085529
100
AcDbVertex
100
AcDb2dVertex
 10
-5.720733642578125
 20
-202.0777893066406
 30
0.0000217098749999
  0
VERTEX
  5
142
330
FA
100
AcDbEntity
  8
OracDecor_cornice_mouldings
 62
    81
420
 10085529
100
AcDbVertex
100
AcDb2dVertex
 10
-8.50177001953125
 20
-202.5337371826172
 30
0.0000217098749999
  0
VERTEX
  5
143
330
FA
100
AcDbEntity
  8
OracDecor_cornice_mouldings
 62
    81
420
 10085529
100
AcDbVertex
100
AcDb2dVertex
 10
-11.30828857421875
 20
-202.2909240722656
 30
0.0000217098749999
  0
VERTEX
  5
144
330
FA
100
AcDbEntity
  8
OracDecor_cornice_mouldings
 62
    81
420
 10085529
100
AcDbVertex
100
AcDb2dVertex
 10
-13.9749526977539
 20
-201.3636474609375
 30
0.0000217098749999
  0
VERTEX
  5
145
330
FA
100
AcDbEntity
  8
OracDecor_cornice_mouldings
 62
    81
420
 10085529
100
AcDbVertex
100
AcDb2dVertex
 10
-16.34462738037109
 20
-199.8065490722656
 30
0.0000217098749999
  0
VERTEX
  5
146
330
FA
100
AcDbEntity
  8
OracDecor_cornice_mouldings
 62
    81
420
 10085529
100
AcDbVertex
100
AcDb2dVertex
 10
-18.27769470214844
 20
-197.7113647460937
 30
0.0000217098749999
  0
VERTEX
  5
147
330
FA
100
AcDbEntity
  8
OracDecor_cornice_mouldings
 62
    81
420
 10085529
100
AcDbVertex
100
AcDb2dVertex
 10
-21.27667236328125
 20
-192.5225524902343
 30
0.0000217098749999
  0
VERTEX
  5
148
330
FA
100
AcDbEntity
  8
OracDecor_cornice_mouldings
 62
    81
420
 10085529
100
AcDbVertex
100
AcDb2dVertex
 10
-23.19828796386719
 20
-186.8243713378906
 30
0.0000217098749999
  0
VERTEX
  5
149
330
FA
100
AcDbEntity
  8
OracDecor_cornice_mouldings
 62
    81
420
 10085529
100
AcDbVertex
100
AcDb2dVertex
 10
-23.96456146240234
 20
-180.8479309082031
 30
0.0000217098749999
  0
VERTEX
  5
14A
330
FA
100
AcDbEntity
  8
OracDecor_cornice_mouldings
 62
    81
420
 10085529
100
AcDbVertex
100
AcDb2dVertex
 10
-24.13134765625
 20
-180.5031127929687
 30
0.0000217098749999
  0
VERTEX
  5
14B
330
FA
100
AcDbEntity
  8
OracDecor_cornice_mouldings
 62
    81
420
 10085529
100
AcDbVertex
100
AcDb2dVertex
 10
-24.47518920898438
 20
-180.3471984863281
 30
0.0000217098749999
  0
VERTEX
  5
14C
330
FA
100
AcDbEntity
  8
OracDecor_cornice_mouldings
 62
    81
420
 10085529
100
AcDbVertex
100
AcDb2dVertex
 10
-25.67713928222656
 20
-180.3626403808594
 30
0.0000217098749999
  0
VERTEX
  5
14D
330
FA
100
AcDbEntity
  8
OracDecor_cornice_mouldings
 62
    81
420
 10085529
100
AcDbVertex
100
AcDb2dVertex
 10
-26.01952362060547
 20
-176.4334259033203
 30
0.0000217098749999
  0
VERTEX
  5
14E
330
FA
100
AcDbEntity
  8
OracDecor_cornice_mouldings
 62
    81
420
 10085529
100
AcDbVertex
100
AcDb2dVertex
 10
-26.38262176513672
 20
-173.8681945800781
 30
0.0000217098749999
  0
VERTEX
  5
14F
330
FA
100
AcDbEntity
  8
OracDecor_cornice_mouldings
 62
    81
420
 10085529
100
AcDbVertex
100
AcDb2dVertex
 10
-26.77043151855469
 20
-172.6221313476562
 30
0.0000217098749999
  0
VERTEX
  5
150
330
FA
100
AcDbEntity
  8
OracDecor_cornice_mouldings
 62
    81
420
 10085529
100
AcDbVertex
100
AcDb2dVertex
 10
-30.39572143554688
 20
-163.9647216796875
 30
0.0000217098749999
  0
VERTEX
  5
151
330
FA
100
AcDbEntity
  8
OracDecor_cornice_mouldings
 62
    81
420
 10085529
100
AcDbVertex
100
AcDb2dVertex
 10
-34.572509765625
 20
-155.5713195800781
 30
0.0000217098749999
  0
VERTEX
  5
152
330
FA
100
AcDbEntity
  8
OracDecor_cornice_mouldings
 62
    81
420
 10085529
100
AcDbVertex
100
AcDb2dVertex
 10
-40.76881408691406
 20
-145.5808563232421
 30
0.0000217098749999
  0
VERTEX
  5
153
330
FA
100
AcDbEntity
  8
OracDecor_cornice_mouldings
 62
    81
420
 10085529
100
AcDbVertex
100
AcDb2dVertex
 10
-48.90439605712891
 20
-135.4919738769531
 30
0.0000217098749999
  0
VERTEX
  5
154
330
FA
100
AcDbEntity
  8
OracDecor_cornice_mouldings
 62
    81
420
 10085529
100
AcDbVertex
100
AcDb2dVertex
 10
-58.21467590332031
 20
-126.3589935302734
 30
0.0000217098749999
  0
VERTEX
  5
155
330
FA
100
AcDbEntity
  8
OracDecor_cornice_mouldings
 62
    81
420
 10085529
100
AcDbVertex
100
AcDb2dVertex
 10
-68.32960510253906
 20
-118.6698608398437
 30
0.0000217098749999
  0
VERTEX
  5
156
330
FA
100
AcDbEntity
  8
OracDecor_cornice_mouldings
 62
    81
420
 10085529
100
AcDbVertex
100
AcDb2dVertex
 10
-83.53847503662109
 20
-110.521484375
 30
0.0000217098749999
  0
VERTEX
  5
157
330
FA
100
AcDbEntity
  8
OracDecor_cornice_mouldings
 62
    81
420
 10085529
100
AcDbVertex
100
AcDb2dVertex
 10
-98.23833465576171
 20
-104.6321868896484
 30
0.0000217098749999
  0
VERTEX
  5
158
330
FA
100
AcDbEntity
  8
OracDecor_cornice_mouldings
 62
    81
420
 10085529
100
AcDbVertex
100
AcDb2dVertex
 10
-108.6972122192383
 20
-100.6665878295898
 30
0.0000217098749999
  0
VERTEX
  5
159
330
FA
100
AcDbEntity
  8
OracDecor_cornice_mouldings
 62
    81
420
 10085529
100
AcDbVertex
100
AcDb2dVertex
 10
-114.4599914550781
 20
-98.17179107666015
 30
0.0000217098749999
  0
VERTEX
  5
15A
330
FA
100
AcDbEntity
  8
OracDecor_cornice_mouldings
 62
    81
420
 10085529
100
AcDbVertex
100
AcDb2dVertex
 10
-119.166275024414
 20
-95.75572204589844
 30
0.0000217098749999
  0
VERTEX
  5
15B
330
FA
100
AcDbEntity
  8
OracDecor_cornice_mouldings
 62
    81
420
 10085529
100
AcDbVertex
100
AcDb2dVertex
 10
-127.3431549072265
 20
-90.27124786376953
 30
0.0000217098749999
  0
VERTEX
  5
15C
330
FA
100
AcDbEntity
  8
OracDecor_cornice_mouldings
 62
    81
420
 10085529
100
AcDbVertex
100
AcDb2dVertex
 10
-144.5380096435547
 20
-71.38651275634765
 30
0.0000217098749999
  0
VERTEX
  5
15D
330
FA
100
AcDbEntity
  8
OracDecor_cornice_mouldings
 62
    81
420
 10085529
100
AcDbVertex
100
AcDb2dVertex
 10
-150.3438720703125
 20
-61.30072784423828
 30
0.0000217098749999
  0
VERTEX
  5
15E
330
FA
100
AcDbEntity
  8
OracDecor_cornice_mouldings
 62
    81
420
 10085529
100
AcDbVertex
100
AcDb2dVertex
 10
-154.6040954589843
 20
-50.92157363891601
 30
0.0000217098749999
  0
VERTEX
  5
15F
330
FA
100
AcDbEntity
  8
OracDecor_cornice_mouldings
 62
    81
420
 10085529
100
AcDbVertex
100
AcDb2dVertex
 10
-157.4941864013672
 20
-40.08352661132812
 30
0.0000217098749999
  0
VERTEX
  5
160
330
FA
100
AcDbEntity
  8
OracDecor_cornice_mouldings
 62
    81
420
 10085529
100
AcDbVertex
100
AcDb2dVertex
 10
-159.423599243164
 20
-34.01966094970703
 30
0.0000217098749999
  0
VERTEX
  5
161
330
FA
100
AcDbEntity
  8
OracDecor_cornice_mouldings
 62
    81
420
 10085529
100
AcDbVertex
100
AcDb2dVertex
 10
-161.0006408691406
 20
-27.68927955627442
 30
0.0000217098749999
  0
VERTEX
  5
162
330
FA
100
AcDbEntity
  8
OracDecor_cornice_mouldings
 62
    81
420
 10085529
100
AcDbVertex
100
AcDb2dVertex
 10
-161.4913177490234
 20
-26.34387397766114
 30
0.0000217098749999
  0
VERTEX
  5
163
330
FA
100
AcDbEntity
  8
OracDecor_cornice_mouldings
 62
    81
420
 10085529
100
AcDbVertex
100
AcDb2dVertex
 10
-162.3253479003906
 20
-25.18900489807129
 30
0.0000217098749999
  0
VERTEX
  5
164
330
FA
100
AcDbEntity
  8
OracDecor_cornice_mouldings
 62
    81
420
 10085529
100
AcDbVertex
100
AcDb2dVertex
 10
-163.4383850097656
 20
-24.31377601623535
 30
0.0000217098749999
  0
VERTEX
  5
165
330
FA
100
AcDbEntity
  8
OracDecor_cornice_mouldings
 62
    81
420
 10085529
100
AcDbVertex
100
AcDb2dVertex
 10
-165.2937622070312
 20
-22.97669410705566
 30
0.0000217098749999
  0
VERTEX
  5
166
330
FA
100
AcDbEntity
  8
OracDecor_cornice_mouldings
 62
    81
420
 10085529
100
AcDbVertex
100
AcDb2dVertex
 10
-166.8593139648437
 20
-21.29560279846192
 30
0.0000217098749999
  0
VERTEX
  5
167
330
FA
100
AcDbEntity
  8
OracDecor_cornice_mouldings
 62
    81
420
 10085529
100
AcDbVertex
100
AcDb2dVertex
 10
-168.0848541259765
 20
-19.34273719787597
 30
0.0000217098749999
  0
VERTEX
  5
168
330
FA
100
AcDbEntity
  8
OracDecor_cornice_mouldings
 62
    81
420
 10085529
100
AcDbVertex
100
AcDb2dVertex
 10
-171.0556640625
 20
-12.19885540008545
 30
0.0000217098749999
  0
VERTEX
  5
169
330
FA
100
AcDbEntity
  8
OracDecor_cornice_mouldings
 62
    81
420
 10085529
100
AcDbVertex
100
AcDb2dVertex
 10
-171.5507049560547
 20
-11.24473857879638
 30
0.0000217098749999
  0
VERTEX
  5
16A
330
FA
100
AcDbEntity
  8
OracDecor_cornice_mouldings
 62
    81
420
 10085529
100
AcDbVertex
100
AcDb2dVertex
 10
-172.2003173828125
 20
-10.3931303024292
 30
0.0000217098749999
  0
VERTEX
  5
16B
330
FA
100
AcDbEntity
  8
OracDecor_cornice_mouldings
 62
    81
420
 10085529
100
AcDbVertex
100
AcDb2dVertex
 10
-181.6708374023437
 20
0.0070311026647687
 30
0.0000217098749999
  0
VERTEX
  5
16C
330
FA
100
AcDbEntity
  8
OracDecor_cornice_mouldings
 62
    81
420
 10085529
100
AcDbVertex
100
AcDb2dVertex
 10
-189.6144866943359
 20
0.0042535294778645
 30
0.0000217098749999
  0
VERTEX
  5
16D
330
FA
100
AcDbEntity
  8
OracDecor_cornice_mouldings
 62
    81
420
 10085529
100
AcDbVertex
100
AcDb2dVertex
 10
-190.5854797363281
 20
-0.872844636440277
 30
0.0000217098749999
  0
VERTEX
  5
16E
330
FA
100
AcDbEntity
  8
OracDecor_cornice_mouldings
 62
    81
420
 10085529
100
AcDbVertex
100
AcDb2dVertex
 10
-191.2147979736328
 20
-1.243221282958984
 30
0.0000217098749999
  0
VERTEX
  5
16F
330
FA
100
AcDbEntity
  8
OracDecor_cornice_mouldings
 62
    81
420
 10085529
100
AcDbVertex
100
AcDb2dVertex
 10
-191.9356384277343
 20
-1.331920623779296
 30
0.0000217098749999
  0
VERTEX
  5
170
330
FA
100
AcDbEntity
  8
OracDecor_cornice_mouldings
 62
    81
420
 10085529
100
AcDbVertex
100
AcDb2dVertex
 10
-192.6328735351562
 20
-1.124713897705078
 30
0.0000217098749999
  0
VERTEX
  5
171
330
FA
100
AcDbEntity
  8
OracDecor_cornice_mouldings
 62
    81
420
 10085529
100
AcDbVertex
100
AcDb2dVertex
 10
-193.1950378417969
 20
-0.6547508835792542
 30
0.0000217098749999
  0
VERTEX
  5
172
330
FA
100
AcDbEntity
  8
OracDecor_cornice_mouldings
 62
    81
420
 10085529
100
AcDbVertex
100
AcDb2dVertex
 10
-193.5323028564453
 20
0.0028800051659346
 30
0.0000217098749999
  0
VERTEX
  5
173
330
FA
100
AcDbEntity
  8
OracDecor_cornice_mouldings
 62
    81
420
 10085529
100
AcDbVertex
100
AcDb2dVertex
 10
-201.8775787353515
 20
-0.0000272916295216
 30
0.0000217098749999
  0
SEQEND
  5
174
330
FA
100
AcDbEntity
  8
OracDecor_cornice_mouldings
 62
    81
420
 10085529
  0
ENDSEC
  0
SECTION
  2
OBJECTS
  0
DICTIONARY
  5
C
330
0
100
AcDbDictionary
281
     1
  3
ACAD_COLOR
350
DC
  3
ACAD_DETAILVIEWSTYLE
350
F5
  3
ACAD_GROUP
350
D
  3
ACAD_LAYOUT
350
1A
  3
ACAD_MATERIAL
350
AA
  3
ACAD_MLEADERSTYLE
350
F1
  3
ACAD_MLINESTYLE
350
17
  3
ACAD_PLOTSETTINGS
350
19
  3
ACAD_PLOTSTYLENAME
350
E
  3
ACAD_SCALELIST
350
DF
  3
ACAD_SECTIONVIEWSTYLE
350
F3
  3
ACAD_TABLESTYLE
350
DD
  3
ACAD_VISUALSTYLE
350
C3
  3
ACDB_RECOMPOSE_DATA
350
181
  3
AcDbVariableDictionary
350
175
  0
DICTIONARY
  5
DC
102
{ACAD_REACTORS
330
C
102
}
330
C
100
AcDbDictionary
281
     1
  0
DICTIONARY
  5
F5
102
{ACAD_REACTORS
330
C
102
}
330
C
100
AcDbDictionary
281
     1
  3
Imperial24
350
F6
  0
DICTIONARY
  5
D
102
{ACAD_REACTORS
330
C
102
}
330
C
100
AcDbDictionary
281
     1
  0
DICTIONARY
  5
1A
102
{ACAD_REACTORS
330
C
102
}
330
C
100
AcDbDictionary
281
     1
  3
Layout1
350
1E
  3
Layout2
350
26
  3
Model
350
22
  0
DICTIONARY
  5
AA
102
{ACAD_REACTORS
330
C
102
}
330
C
100
AcDbDictionary
281
     1
  3
ByBlock
350
B3
  3
ByLayer
350
AB
  3
Global
350
BB
  0
DICTIONARY
  5
F1
102
{ACAD_REACTORS
330
C
102
}
330
C
100
AcDbDictionary
281
     1
  3
Standard
350
F2
  0
DICTIONARY
  5
17
102
{ACAD_REACTORS
330
C
102
}
330
C
100
AcDbDictionary
281
     1
  3
Standard
350
18
  0
DICTIONARY
  5
19
102
{ACAD_REACTORS
330
C
102
}
330
C
100
AcDbDictionary
281
     1
  0
ACDBDICTIONARYWDFLT
  5
E
102
{ACAD_REACTORS
330
C
102
}
330
C
100
AcDbDictionary
281
     1
  3
ByLayer
350
2D
  3
Normal
350
F
100
AcDbDictionaryWithDefault
340
F
  0
DICTIONARY
  5
DF
102
{ACAD_REACTORS
330
C
102
}
330
C
100
AcDbDictionary
281
     1
  3
A0
350
E0
  3
A1
350
E1
  3
A2
350
E2
  3
A3
350
E3
  3
A4
350
E4
  3
A5
350
E5
  3
A6
350
E6
  3
A7
350
E7
  3
A8
350
E8
  3
A9
350
E9
  3
B0
350
EA
  3
B1
350
EB
  3
B2
350
EC
  3
B3
350
ED
  3
B4
350
EE
  3
B5
350
EF
  3
B6
350
F0
  0
DICTIONARY
  5
F3
102
{ACAD_REACTORS
330
C
102
}
330
C
100
AcDbDictionary
281
     1
  3
Imperial24
350
F4
  0
DICTIONARY
  5
DD
102
{ACAD_REACTORS
330
C
102
}
330
C
100
AcDbDictionary
281
     1
  3
Standard
350
DE
  0
DICTIONARY
  5
C3
102
{ACAD_REACTORS
330
C
102
}
330
C
100
AcDbDictionary
281
     1
  3
2dWireframe
350
C9
  3
Basic
350
C8
  3
Brighten
350
CF
  3
ColorChange
350
D3
  3
Conceptual
350
CC
  3
Dim
350
CE
  3
EdgeColorOff
350
DB
  3
Facepattern
350
D2
  3
Flat
350
C4
  3
FlatWithEdges
350
C5
  3
Gouraud
350
C6
  3
GouraudWithEdges
350
C7
  3
Hidden
350
CB
  3
JitterOff
350
D9
  3
Linepattern
350
D1
  3
OverhangOff
350
DA
  3
Realistic
350
CD
  3
Shaded
350
D8
  3
Shaded with edges
350
D7
  3
Shades of Gray
350
D4
  3
Sketchy
350
D5
  3
Thicken
350
D0
  3
Wireframe
350
CA
  3
X-Ray
350
D6
  0
XRECORD
  5
181
102
{ACAD_REACTORS
330
C
102
}
330
C
100
AcDbXrecord
280
     1
 90
        1
330
DE
  0
DICTIONARY
  5
175
102
{ACAD_REACTORS
330
C
102
}
330
C
100
AcDbDictionary
281
     1
  3
CANNOSCALE
350
17B
  3
CMLEADERSTYLE
350
177
  3
CTABLESTYLE
350
176
  3
CVIEWDETAILSTYLE
350
178
  3
CVIEWSECTIONSTYLE
350
179
  3
LAYEREVAL
350
17D
  3
LAYERNOTIFY
350
17E
  3
LIGHTINGUNITS
350
17C
  3
MSLTSCALE
350
17A
  0
ACDBDETAILVIEWSTYLE
  5
F6
102
{ACAD_XDICTIONARY
360
1B6
102
}
102
{ACAD_REACTORS
330
F5
102
}
330
F5
100
AcDbModelDocViewStyle
 70
     0
  3
Imperial24
290
     0
100
AcDbDetailViewStyle
 70
     0
 71
     0
 90
        3
 71
     1
340
11
 62
   256
 40
0.24
340
0
 62
   256
 40
0.24
300

 40
0.36
280
     3
 71
     2
340
16
 90
       25
 62
   256
 71
     3
340
11
 62
   256
 40
0.24
 90
        1
 40
0.75
 90
        1
300
%<\AcVar ViewType \f "%tc1">% %<\AcVar ViewDetailId>%\PSCALE %<\AcVar ViewScale \f "%sn">%
 71
     4
340
16
 90
       25
 62
   256
340
16
 90
       25
 62
   256
280
     0
  0
LAYOUT
  5
1E
102
{ACAD_REACTORS
330
1A
102
}
330
1A
100
AcDbPlotSettings
  1

  2
\\KTXNTBDC\CASF2PN1
  4

  6

 40
0.0
 41
0.0
 42
0.0
 43
0.0
 44
0.0
 45
0.0
 46
0.0
 47
0.0
 48
0.0
 49
0.0
140
0.0
141
0.0
142
1.0
143
1.0
 70
   688
 72
     0
 73
     0
 74
     5
  7

 75
    16
147
1.0
 76
     0
 77
     2
 78
   300
148
0.0
149
0.0
100
AcDbLayout
  1
Layout1
 70
     1
 71
     1
 10
0.0
 20
0.0
 11
12.0
 21
9.0
 12
0.0
 22
0.0
 32
0.0
 14
1.000000000000000E+20
 24
1.000000000000000E+20
 34
1.000000000000000E+20
 15
-1.000000000000000E+20
 25
-1.000000000000000E+20
 35
-1.000000000000000E+20
146
0.0
 13
0.0
 23
0.0
 33
0.0
 16
1.0
 26
0.0
 36
0.0
 17
0.0
 27
1.0
 37
0.0
 76
     0
330
1B
  0
LAYOUT
  5
26
102
{ACAD_REACTORS
330
1A
102
}
330
1A
100
AcDbPlotSettings
  1

  2
\\KTXNTBDC\CASF2PN1
  4

  6

 40
0.0
 41
0.0
 42
0.0
 43
0.0
 44
0.0
 45
0.0
 46
0.0
 47
0.0
 48
0.0
 49
0.0
140
0.0
141
0.0
142
1.0
143
1.0
 70
   688
 72
     0
 73
     0
 74
     5
  7

 75
    16
147
1.0
 76
     0
 77
     2
 78
   300
148
0.0
149
0.0
100
AcDbLayout
  1
Layout2
 70
     1
 71
     2
 10
0.0
 20
0.0
 11
12.0
 21
9.0
 12
0.0
 22
0.0
 32
0.0
 14
0.0
 24
0.0
 34
0.0
 15
0.0
 25
0.0
 35
0.0
146
0.0
 13
0.0
 23
0.0
 33
0.0
 16
1.0
 26
0.0
 36
0.0
 17
0.0
 27
1.0
 37
0.0
 76
     0
330
23
  0
LAYOUT
  5
22
102
{ACAD_REACTORS
330
1A
102
}
330
1A
100
AcDbPlotSettings
  1

  2
\\KTXNTBDC\CASF2PN1
  4

  6

 40
0.0
 41
0.0
 42
0.0
 43
0.0
 44
0.0
 45
0.0
 46
0.0
 47
0.0
 48
0.0
 49
0.0
140
0.0
141
0.0
142
1.0
143
1.0
 70
  1712
 72
     0
 73
     0
 74
     0
  7

 75
     0
147
1.0
 76
     0
 77
     2
 78
   300
148
0.0
149
0.0
100
AcDbLayout
  1
Model
 70
     1
 71
     0
 10
0.0
 20
0.0
 11
12.0
 21
9.0
 12
0.0
 22
0.0
 32
0.0
 14
0.0
 24
0.0
 34
0.0
 15
0.0
 25
0.0
 35
0.0
146
0.0
 13
0.0
 23
0.0
 33
0.0
 16
1.0
 26
0.0
 36
0.0
 17
0.0
 27
1.0
 37
0.0
 76
     0
330
1F
  0
MATERIAL
  5
B3
102
{ACAD_XDICTIONARY
360
B4
102
}
102
{ACAD_REACTORS
330
AA
102
}
330
AA
100
AcDbMaterial
  1
ByBlock
 72
     0
 43
0.0208333333333333
 43
0.0
 43
0.0
 43
0.0
 43
0.0
 43
0.0208333333333333
 43
0.0
 43
0.0
 43
0.0
 43
0.0
 43
1.0
 43
0.0
 43
0.0
 43
0.0
 43
0.0
 43
1.0
 77
     0
 47
0.0208333333333333
 47
0.0
 47
0.0
 47
0.0
 47
0.0
 47
0.0208333333333333
 47
0.0
 47
0.0
 47
0.0
 47
0.0
 47
1.0
 47
0.0
 47
0.0
 47
0.0
 47
0.0
 47
1.0
171
     0
 49
0.0208333333333333
 49
0.0
 49
0.0
 49
0.0
 49
0.0
 49
0.0208333333333333
 49
0.0
 49
0.0
 49
0.0
 49
0.0
 49
1.0
 49
0.0
 49
0.0
 49
0.0
 49
0.0
 49
1.0
175
     0
142
0.0208333333333333
142
0.0
142
0.0
142
0.0
142
0.0
142
0.0208333333333333
142
0.0
142
0.0
142
0.0
142
0.0
142
1.0
142
0.0
142
0.0
142
0.0
142
0.0
142
1.0
179
     0
144
0.0208333333333333
144
0.0
144
0.0
144
0.0
144
0.0
144
0.0208333333333333
144
0.0
144
0.0
144
0.0
144
0.0
144
1.0
144
0.0
144
0.0
144
0.0
144
0.0
144
1.0
147
0.0208333333333333
147
0.0
147
0.0
147
0.0
147
0.0
147
0.0208333333333333
147
0.0
147
0.0
147
0.0
147
0.0
147
1.0
147
0.0
147
0.0
147
0.0
147
0.0
147
1.0
  0
MATERIAL
  5
AB
102
{ACAD_XDICTIONARY
360
AC
102
}
102
{ACAD_REACTORS
330
AA
102
}
330
AA
100
AcDbMaterial
  1
ByLayer
 72
     0
 43
0.0208333333333333
 43
0.0
 43
0.0
 43
0.0
 43
0.0
 43
0.0208333333333333
 43
0.0
 43
0.0
 43
0.0
 43
0.0
 43
1.0
 43
0.0
 43
0.0
 43
0.0
 43
0.0
 43
1.0
 77
     0
 47
0.0208333333333333
 47
0.0
 47
0.0
 47
0.0
 47
0.0
 47
0.0208333333333333
 47
0.0
 47
0.0
 47
0.0
 47
0.0
 47
1.0
 47
0.0
 47
0.0
 47
0.0
 47
0.0
 47
1.0
171
     0
 49
0.0208333333333333
 49
0.0
 49
0.0
 49
0.0
 49
0.0
 49
0.0208333333333333
 49
0.0
 49
0.0
 49
0.0
 49
0.0
 49
1.0
 49
0.0
 49
0.0
 49
0.0
 49
0.0
 49
1.0
175
     0
142
0.0208333333333333
142
0.0
142
0.0
142
0.0
142
0.0
142
0.0208333333333333
142
0.0
142
0.0
142
0.0
142
0.0
142
1.0
142
0.0
142
0.0
142
0.0
142
0.0
142
1.0
179
     0
144
0.0208333333333333
144
0.0
144
0.0
144
0.0
144
0.0
144
0.0208333333333333
144
0.0
144
0.0
144
0.0
144
0.0
144
1.0
144
0.0
144
0.0
144
0.0
144
0.0
144
1.0
147
0.0208333333333333
147
0.0
147
0.0
147
0.0
147
0.0
147
0.0208333333333333
147
0.0
147
0.0
147
0.0
147
0.0
147
1.0
147
0.0
147
0.0
147
0.0
147
0.0
147
1.0
  0
MATERIAL
  5
BB
102
{ACAD_XDICTIONARY
360
BC
102
}
102
{ACAD_REACTORS
330
AA
102
}
330
AA
100
AcDbMaterial
  1
Global
 72
     0
 43
0.0208333333333333
 43
0.0
 43
0.0
 43
0.0
 43
0.0
 43
0.0208333333333333
 43
0.0
 43
0.0
 43
0.0
 43
0.0
 43
1.0
 43
0.0
 43
0.0
 43
0.0
 43
0.0
 43
1.0
 77
     0
 47
0.0208333333333333
 47
0.0
 47
0.0
 47
0.0
 47
0.0
 47
0.0208333333333333
 47
0.0
 47
0.0
 47
0.0
 47
0.0
 47
1.0
 47
0.0
 47
0.0
 47
0.0
 47
0.0
 47
1.0
171
     0
 49
0.0208333333333333
 49
0.0
 49
0.0
 49
0.0
 49
0.0
 49
0.0208333333333333
 49
0.0
 49
0.0
 49
0.0
 49
0.0
 49
1.0
 49
0.0
 49
0.0
 49
0.0
 49
0.0
 49
1.0
175
     0
142
0.0208333333333333
142
0.0
142
0.0
142
0.0
142
0.0
142
0.0208333333333333
142
0.0
142
0.0
142
0.0
142
0.0
142
1.0
142
0.0
142
0.0
142
0.0
142
0.0
142
1.0
179
     0
144
0.0208333333333333
144
0.0
144
0.0
144
0.0
144
0.0
144
0.0208333333333333
144
0.0
144
0.0
144
0.0
144
0.0
144
1.0
144
0.0
144
0.0
144
0.0
144
0.0
144
1.0
147
0.0208333333333333
147
0.0
147
0.0
147
0.0
147
0.0
147
0.0208333333333333
147
0.0
147
0.0
147
0.0
147
0.0
147
1.0
147
0.0
147
0.0
147
0.0
147
0.0
147
1.0
  0
MLEADERSTYLE
  5
F2
102
{ACAD_XDICTIONARY
360
1B2
102
}
102
{ACAD_REACTORS
330
F1
102
}
330
F1
100
AcDbMLeaderStyle
179
     2
170
     2
171
     1
172
     0
 90
        2
 40
0.0
 41
0.0
173
     1
 91
-1056964608
340
14
 92
       -2
290
     1
 42
0.09
291
     1
 43
0.36
  3
Standard
 44
0.18
300

342
11
174
     1
178
     6
175
     1
176
     0
 93
-1056964608
 45
0.18
292
     0
297
     0
 46
0.18
 94
-1056964608
 47
1.0
 49
1.0
140
1.0
293
     1
141
0.0
294
     1
177
     0
142
1.0
295
     0
296
     0
143
0.125
271
     0
272
     9
273
     9
  0
MLINESTYLE
  5
18
102
{ACAD_REACTORS
330
17
102
}
330
17
100
AcDbMlineStyle
  2
STANDARD
 70
     0
  3

 62
   256
 51
90.0
 52
90.0
 71
     2
 49
0.5
 62
   256
  6
BYLAYER
 49
-0.5
 62
   256
  6
BYLAYER
  0
ACDBPLACEHOLDER
  5
2D
102
{ACAD_REACTORS
330
E
102
}
330
E
  0
ACDBPLACEHOLDER
  5
F
102
{ACAD_REACTORS
330
E
102
}
330
E
  0
SCALE
  5
E0
102
{ACAD_REACTORS
330
DF
102
}
330
DF
100
AcDbScale
 70
     0
300
1:1
140
1.0
141
1.0
290
     1
  0
SCALE
  5
E1
102
{ACAD_REACTORS
330
DF
102
}
330
DF
100
AcDbScale
 70
     0
300
1/128" = 1'-0"
140
0.0078125
141
12.0
290
     0
  0
SCALE
  5
E2
102
{ACAD_REACTORS
330
DF
102
}
330
DF
100
AcDbScale
 70
     0
300
1/64" = 1'-0"
140
0.015625
141
12.0
290
     0
  0
SCALE
  5
E3
102
{ACAD_REACTORS
330
DF
102
}
330
DF
100
AcDbScale
 70
     0
300
1/32" = 1'-0"
140
0.03125
141
12.0
290
     0
  0
SCALE
  5
E4
102
{ACAD_REACTORS
330
DF
102
}
330
DF
100
AcDbScale
 70
     0
300
1/16" = 1'-0"
140
0.0625
141
12.0
290
     0
  0
SCALE
  5
E5
102
{ACAD_REACTORS
330
DF
102
}
330
DF
100
AcDbScale
 70
     0
300
3/32" = 1'-0"
140
0.09375
141
12.0
290
     0
  0
SCALE
  5
E6
102
{ACAD_REACTORS
330
DF
102
}
330
DF
100
AcDbScale
 70
     0
300
1/8" = 1'-0"
140
0.125
141
12.0
290
     0
  0
SCALE
  5
E7
102
{ACAD_REACTORS
330
DF
102
}
330
DF
100
AcDbScale
 70
     0
300
3/16" = 1'-0"
140
0.1875
141
12.0
290
     0
  0
SCALE
  5
E8
102
{ACAD_REACTORS
330
DF
102
}
330
DF
100
AcDbScale
 70
     0
300
1/4" = 1'-0"
140
0.25
141
12.0
290
     0
  0
SCALE
  5
E9
102
{ACAD_REACTORS
330
DF
102
}
330
DF
100
AcDbScale
 70
     0
300
3/8" = 1'-0"
140
0.375
141
12.0
290
     0
  0
SCALE
  5
EA
102
{ACAD_REACTORS
330
DF
102
}
330
DF
100
AcDbScale
 70
     0
300
1/2" = 1'-0"
140
0.5
141
12.0
290
     0
  0
SCALE
  5
EB
102
{ACAD_REACTORS
330
DF
102
}
330
DF
100
AcDbScale
 70
     0
300
3/4" = 1'-0"
140
0.75
141
12.0
290
     0
  0
SCALE
  5
EC
102
{ACAD_REACTORS
330
DF
102
}
330
DF
100
AcDbScale
 70
     0
300
1" = 1'-0"
140
1.0
141
12.0
290
     0
  0
SCALE
  5
ED
102
{ACAD_REACTORS
330
DF
102
}
330
DF
100
AcDbScale
 70
     0
300
1-1/2" = 1'-0"
140
1.5
141
12.0
290
     0
  0
SCALE
  5
EE
102
{ACAD_REACTORS
330
DF
102
}
330
DF
100
AcDbScale
 70
     0
300
3" = 1'-0"
140
3.0
141
12.0
290
     0
  0
SCALE
  5
EF
102
{ACAD_REACTORS
330
DF
102
}
330
DF
100
AcDbScale
 70
     0
300
6" = 1'-0"
140
6.0
141
12.0
290
     0
  0
SCALE
  5
F0
102
{ACAD_REACTORS
330
DF
102
}
330
DF
100
AcDbScale
 70
     0
300
1'-0" = 1'-0"
140
12.0
141
12.0
290
     0
  0
ACDBSECTIONVIEWSTYLE
  5
F4
102
{ACAD_XDICTIONARY
360
1B4
102
}
102
{ACAD_REACTORS
330
F3
102
}
330
F3
100
AcDbModelDocViewStyle
 70
     0
  3
Imperial24
290
     0
100
AcDbSectionViewStyle
 70
     0
 71
     0
 90
       78
 71
     1
340
11
 62
   256
 40
0.24
340
0
340
0
 62
   256
 40
0.24
300
I, O, Q, S, X, Z
 40
0.48
 90
        3
 40
0.18
 90
        1
 71
     2
340
16
 90
       25
 62
   256
340
16
 90
       50
 62
   256
 40
0.24
 40
0.0
 40
0.24
 71
     3
340
11
 62
   256
 40
0.24
 90
        1
 40
0.75
 90
        1
300
%<\AcVar ViewType \f "%tc1">% %<\AcVar ViewSectionStartId>%-%<\AcVar ViewSectionEndId>%\PSCALE %<\AcVar ViewScale \f "%sn">%
 71
     4
 62
   256
 62
   257
300
ANSI31
 40
1.0
 90
        0
290
     0
290
     0
 90
        6
 40
0.0
 40
1.570796326794896
 40
0.2617993877991494
 40
1.308996938995747
 40
-0.2617993877991494
 40
1.832595714594046
  0
TABLESTYLE
  5
DE
102
{ACAD_XDICTIONARY
360
17F
102
}
102
{ACAD_REACTORS
330
DD
102
}
330
DD
100
AcDbTableStyle
280
     0
  3
Standard
 70
     0
 71
     0
 40
0.06
 41
0.06
280
     0
281
     0
  7
Standard
140
0.18
170
     2
 62
     0
 63
     7
283
     0
 90
      512
 91
        0
  1

274
    -2
284
     1
 64
     0
275
    -2
285
     1
 65
     0
276
    -2
286
     1
 66
     0
277
    -2
287
     1
 67
     0
278
    -2
288
     1
 68
     0
279
    -2
289
     1
 69
     0
  7
Standard
140
0.25
170
     5
 62
     0
 63
     7
283
     0
 90
      512
 91
        0
  1

274
    -2
284
     1
 64
     0
275
    -2
285
     1
 65
     0
276
    -2
286
     1
 66
     0
277
    -2
287
     1
 67
     0
278
    -2
288
     1
 68
     0
279
    -2
289
     1
 69
     0
  7
Standard
140
0.18
170
     5
 62
     0
 63
     7
283
     0
 90
      512
 91
        0
  1

274
    -2
284
     1
 64
     0
275
    -2
285
     1
 65
     0
276
    -2
286
     1
 66
     0
277
    -2
287
     1
 67
     0
278
    -2
288
     1
 68
     0
279
    -2
289
     1
 69
     0
  0
VISUALSTYLE
  5
C9
102
{ACAD_XDICTIONARY
360
18C
102
}
102
{ACAD_REACTORS
330
C3
102
}
330
C3
100
AcDbVisualStyle
  2
2dWireframe
 70
     4
177
     2
291
     0
 71
     0
176
     1
 72
     2
176
     1
 73
     0
176
     1
 90
        0
176
     1
 40
0.6
176
     1
 41
30.0
176
     1
 63
     7
421
 16777215
176
     1
 74
     1
176
     1
 91
        4
176
     1
 64
     7
176
     1
 65
   257
176
     1
 75
     1
176
     1
175
     1
176
     1
 42
1.0
176
     1
 92
        0
176
     1
 66
   257
176
     1
 43
1.0
176
     1
 76
     1
176
     1
 77
     6
176
     1
 78
     2
176
     1
 67
     7
176
     1
 79
     5
176
     1
170
     0
176
     1
171
     0
176
     1
290
     0
176
     1
 93
        1
176
     1
 44
0.0
176
     1
173
     0
176
     1
1001
ACAD
1000
AcDbSavedByObjectVersion
1070
     0
  0
VISUALSTYLE
  5
C8
102
{ACAD_XDICTIONARY
360
18A
102
}
102
{ACAD_REACTORS
330
C3
102
}
330
C3
100
AcDbVisualStyle
  2
Basic
 70
     7
177
     2
291
     1
 71
     1
176
     1
 72
     0
176
     1
 73
     1
176
     1
 90
        0
176
     1
 40
0.6
176
     1
 41
30.0
176
     1
 63
     7
421
 16777215
176
     1
 74
     0
176
     1
 91
        4
176
     1
 64
     7
176
     1
 65
   257
176
     1
 75
     1
176
     1
175
     1
176
     1
 42
1.0
176
     1
 92
        8
176
     1
 66
     7
176
     1
 43
1.0
176
     1
 76
     1
176
     1
 77
     6
176
     1
 78
     2
176
     1
 67
     7
176
     1
 79
     5
176
     1
170
     0
176
     1
171
     0
176
     1
290
     0
176
     1
 93
        1
176
     1
 44
0.0
176
     1
173
     0
176
     1
1001
ACAD
1000
AcDbSavedByObjectVersion
1070
     0
  0
VISUALSTYLE
  5
CF
102
{ACAD_XDICTIONARY
360
198
102
}
102
{ACAD_REACTORS
330
C3
102
}
330
C3
100
AcDbVisualStyle
  2
Brighten
 70
    12
177
     2
291
     1
 71
     2
176
     1
 72
     2
176
     1
 73
     0
176
     1
 90
        0
176
     1
 40
0.6
176
     1
 41
30.0
176
     1
 63
     7
421
 16777215
176
     1
 74
     1
176
     1
 91
        4
176
     1
 64
     7
176
     1
 65
   257
176
     1
 75
     1
176
     1
175
     1
176
     1
 42
1.0
176
     1
 92
        8
176
     1
 66
     7
176
     1
 43
1.0
176
     1
 76
     1
176
     1
 77
     6
176
     1
 78
     2
176
     1
 67
     7
176
     1
 79
     5
176
     1
170
     0
176
     1
171
     0
176
     1
290
     0
176
     1
 93
        1
176
     1
 44
50.0
176
     1
173
     0
176
     1
1001
ACAD
1000
AcDbSavedByObjectVersion
1070
     0
  0
VISUALSTYLE
  5
D3
102
{ACAD_XDICTIONARY
360
1A0
102
}
102
{ACAD_REACTORS
330
C3
102
}
330
C3
100
AcDbVisualStyle
  2
ColorChange
 70
    16
177
     2
291
     1
 71
     2
176
     1
 72
     2
176
     1
 73
     3
176
     1
 90
        0
176
     1
 40
0.6
176
     1
 41
30.0
176
     1
 63
     8
421
  8421504
176
     1
 74
     1
176
     1
 91
        4
176
     1
 64
     7
176
     1
 65
   257
176
     1
 75
     1
176
     1
175
     1
176
     1
 42
1.0
176
     1
 92
        8
176
     1
 66
     8
424
  8421504
176
     1
 43
1.0
176
     1
 76
     1
176
     1
 77
     6
176
     1
 78
     2
176
     1
 67
     7
176
     1
 79
     5
176
     1
170
     0
176
     1
171
     0
176
     1
290
     0
176
     1
 93
        1
176
     1
 44
0.0
176
     1
173
     0
176
     1
1001
ACAD
1000
AcDbSavedByObjectVersion
1070
     0
  0
VISUALSTYLE
  5
CC
102
{ACAD_XDICTIONARY
360
192
102
}
102
{ACAD_REACTORS
330
C3
102
}
330
C3
100
AcDbVisualStyle
  2
Conceptual
 70
     9
177
     2
291
     0
 71
     3
176
     1
 72
     2
176
     1
 73
     0
176
     1
 90
        0
176
     1
 40
0.6
176
     1
 41
30.0
176
     1
 63
     7
421
 16777215
176
     1
 74
     2
176
     1
 91
        2
176
     1
 64
     7
176
     1
 65
   257
176
     1
 75
     1
176
     1
175
     1
176
     1
 42
179.0
176
     1
 92
        8
176
     1
 66
     7
176
     1
 43
1.0
176
     1
 76
     1
176
     1
 77
     6
176
     1
 78
     2
176
     1
 67
     7
176
     1
 79
     3
176
     1
170
     0
176
     1
171
     0
176
     1
290
     0
176
     1
 93
        1
176
     1
 44
0.0
176
     1
173
     0
176
     1
1001
ACAD
1000
AcDbSavedByObjectVersion
1070
     0
  0
VISUALSTYLE
  5
CE
102
{ACAD_XDICTIONARY
360
196
102
}
102
{ACAD_REACTORS
330
C3
102
}
330
C3
100
AcDbVisualStyle
  2
Dim
 70
    11
177
     2
291
     1
 71
     2
176
     1
 72
     2
176
     1
 73
     0
176
     1
 90
        0
176
     1
 40
0.6
176
     1
 41
30.0
176
     1
 63
     7
421
 16777215
176
     1
 74
     1
176
     1
 91
        4
176
     1
 64
     7
176
     1
 65
   257
176
     1
 75
     1
176
     1
175
     1
176
     1
 42
1.0
176
     1
 92
        8
176
     1
 66
     7
176
     1
 43
1.0
176
     1
 76
     1
176
     1
 77
     6
176
     1
 78
     2
176
     1
 67
     7
176
     1
 79
     5
176
     1
170
     0
176
     1
171
     0
176
     1
290
     0
176
     1
 93
        1
176
     1
 44
-50.0
176
     1
173
     0
176
     1
1001
ACAD
1000
AcDbSavedByObjectVersion
1070
     0
  0
VISUALSTYLE
  5
DB
102
{ACAD_XDICTIONARY
360
1B0
102
}
102
{ACAD_REACTORS
330
C3
102
}
330
C3
100
AcDbVisualStyle
  2
EdgeColorOff
 70
    22
177
     2
291
     1
 71
     2
176
     0
 72
     2
176
     0
 73
     0
176
     0
 90
        0
176
     0
 40
0.6
176
     0
 41
30.0
176
     0
 63
     7
421
 16777215
176
     0
 74
     1
176
     0
 91
        4
176
     0
 64
     7
176
     0
 65
   257
176
     0
 75
     1
176
     0
175
     1
176
     0
 42
1.0
176
     0
 92
        8
176
     2
 66
     7
176
     0
 43
1.0
176
     0
 76
     1
176
     0
 77
     6
176
     0
 78
     2
176
     0
 67
     7
176
     0
 79
     5
176
     0
170
     0
176
     0
171
     0
176
     0
290
     0
176
     0
 93
        1
176
     0
 44
0.0
176
     0
173
     0
176
     0
1001
ACAD
1000
AcDbSavedByObjectVersion
1070
     0
  0
VISUALSTYLE
  5
D2
102
{ACAD_XDICTIONARY
360
19E
102
}
102
{ACAD_REACTORS
330
C3
102
}
330
C3
100
AcDbVisualStyle
  2
Facepattern
 70
    15
177
     2
291
     1
 71
     2
176
     1
 72
     2
176
     1
 73
     0
176
     1
 90
        0
176
     1
 40
0.6
176
     1
 41
30.0
176
     1
 63
     7
421
 16777215
176
     1
 74
     1
176
     1
 91
        4
176
     1
 64
     7
176
     1
 65
   257
176
     1
 75
     1
176
     1
175
     1
176
     1
 42
1.0
176
     1
 92
        8
176
     1
 66
     7
176
     1
 43
1.0
176
     1
 76
     1
176
     1
 77
     6
176
     1
 78
     2
176
     1
 67
     7
176
     1
 79
     5
176
     1
170
     0
176
     1
171
     0
176
     1
290
     0
176
     1
 93
        1
176
     1
 44
0.0
176
     1
173
     0
176
     1
1001
ACAD
1000
AcDbSavedByObjectVersion
1070
     0
  0
VISUALSTYLE
  5
C4
102
{ACAD_XDICTIONARY
360
182
102
}
102
{ACAD_REACTORS
330
C3
102
}
330
C3
100
AcDbVisualStyle
  2
Flat
 70
     0
177
     2
291
     1
 71
     2
176
     1
 72
     1
176
     1
 73
     1
176
     1
 90
        2
176
     1
 40
0.6
176
     1
 41
30.0
176
     1
 63
     7
421
 16777215
176
     1
 74
     0
176
     1
 91
        0
176
     1
 64
     7
176
     1
 65
   257
176
     1
 75
     1
176
     1
175
     1
176
     1
 42
1.0
176
     1
 92
        8
176
     1
 66
     7
176
     1
 43
1.0
176
     1
 76
     1
176
     1
 77
     6
176
     1
 78
     2
176
     1
 67
     7
176
     1
 79
     5
176
     1
170
     0
176
     1
171
     0
176
     1
290
     0
176
     1
 93
       13
176
     1
 44
0.0
176
     1
173
     0
176
     1
1001
ACAD
1000
AcDbSavedByObjectVersion
1070
     0
  0
VISUALSTYLE
  5
C5
102
{ACAD_XDICTIONARY
360
184
102
}
102
{ACAD_REACTORS
330
C3
102
}
330
C3
100
AcDbVisualStyle
  2
FlatWithEdges
 70
     1
177
     2
291
     1
 71
     2
176
     1
 72
     1
176
     1
 73
     1
176
     1
 90
        2
176
     1
 40
0.6
176
     1
 41
30.0
176
     1
 63
     7
421
 16777215
176
     1
 74
     1
176
     1
 91
        0
176
     1
 64
     7
176
     1
 65
   257
176
     1
 75
     1
176
     1
175
     1
176
     1
 42
1.0
176
     1
 92
        0
176
     1
 66
   257
176
     1
 43
1.0
176
     1
 76
     1
176
     1
 77
     6
176
     1
 78
     2
176
     1
 67
     7
176
     1
 79
     5
176
     1
170
     0
176
     1
171
     0
176
     1
290
     0
176
     1
 93
       13
176
     1
 44
0.0
176
     1
173
     0
176
     1
1001
ACAD
1000
AcDbSavedByObjectVersion
1070
     0
  0
VISUALSTYLE
  5
C6
102
{ACAD_XDICTIONARY
360
186
102
}
102
{ACAD_REACTORS
330
C3
102
}
330
C3
100
AcDbVisualStyle
  2
Gouraud
 70
     2
177
     2
291
     1
 71
     2
176
     1
 72
     2
176
     1
 73
     1
176
     1
 90
        2
176
     1
 40
0.6
176
     1
 41
30.0
176
     1
 63
     7
421
 16777215
176
     1
 74
     0
176
     1
 91
        0
176
     1
 64
     7
176
     1
 65
   257
176
     1
 75
     1
176
     1
175
     1
176
     1
 42
1.0
176
     1
 92
        0
176
     1
 66
     7
176
     1
 43
1.0
176
     1
 76
     1
176
     1
 77
     6
176
     1
 78
     2
176
     1
 67
     7
176
     1
 79
     5
176
     1
170
     0
176
     1
171
     0
176
     1
290
     0
176
     1
 93
       13
176
     1
 44
0.0
176
     1
173
     0
176
     1
1001
ACAD
1000
AcDbSavedByObjectVersion
1070
     0
  0
VISUALSTYLE
  5
C7
102
{ACAD_XDICTIONARY
360
188
102
}
102
{ACAD_REACTORS
330
C3
102
}
330
C3
100
AcDbVisualStyle
  2
GouraudWithEdges
 70
     3
177
     2
291
     1
 71
     2
176
     1
 72
     2
176
     1
 73
     1
176
     1
 90
        2
176
     1
 40
0.6
176
     1
 41
30.0
176
     1
 63
     7
421
 16777215
176
     1
 74
     1
176
     1
 91
        0
176
     1
 64
     7
176
     1
 65
   257
176
     1
 75
     1
176
     1
175
     1
176
     1
 42
1.0
176
     1
 92
        0
176
     1
 66
   257
176
     1
 43
1.0
176
     1
 76
     1
176
     1
 77
     6
176
     1
 78
     2
176
     1
 67
     7
176
     1
 79
     5
176
     1
170
     0
176
     1
171
     0
176
     1
290
     0
176
     1
 93
       13
176
     1
 44
0.0
176
     1
173
     0
176
     1
1001
ACAD
1000
AcDbSavedByObjectVersion
1070
     0
  0
VISUALSTYLE
  5
CB
102
{ACAD_XDICTIONARY
360
190
102
}
102
{ACAD_REACTORS
330
C3
102
}
330
C3
100
AcDbVisualStyle
  2
Hidden
 70
     6
177
     2
291
     0
 71
     1
176
     1
 72
     2
176
     1
 73
     2
176
     1
 90
        0
176
     1
 40
0.6
176
     1
 41
30.0
176
     1
 63
     7
421
 16777215
176
     1
 74
     2
176
     1
 91
        2
176
     1
 64
     7
176
     1
 65
   257
176
     1
 75
     2
176
     1
175
     1
176
     1
 42
40.0
176
     1
 92
        0
176
     1
 66
   257
176
     1
 43
1.0
176
     1
 76
     1
176
     1
 77
     6
176
     1
 78
     2
176
     1
 67
     7
176
     1
 79
     3
176
     1
170
     0
176
     1
171
     0
176
     1
290
     0
176
     1
 93
        1
176
     1
 44
0.0
176
     1
173
     0
176
     1
1001
ACAD
1000
AcDbSavedByObjectVersion
1070
     0
  0
VISUALSTYLE
  5
D9
102
{ACAD_XDICTIONARY
360
1AC
102
}
102
{ACAD_REACTORS
330
C3
102
}
330
C3
100
AcDbVisualStyle
  2
JitterOff
 70
    20
177
     2
291
     1
 71
     2
176
     0
 72
     2
176
     0
 73
     0
176
     0
 90
        0
176
     0
 40
0.6
176
     0
 41
30.0
176
     0
 63
     7
421
 16777215
176
     0
 74
     1
176
     0
 91
        4
176
     0
 64
     7
176
     0
 65
   257
176
     0
 75
     1
176
     0
175
     1
176
     0
 42
1.0
176
     0
 92
       10
176
     2
 66
     7
176
     0
 43
1.0
176
     0
 76
     1
176
     0
 77
     6
176
     0
 78
     2
176
     0
 67
     7
176
     0
 79
     5
176
     0
170
     0
176
     0
171
     0
176
     0
290
     0
176
     0
 93
        1
176
     0
 44
0.0
176
     0
173
     0
176
     0
1001
ACAD
1000
AcDbSavedByObjectVersion
1070
     0
  0
VISUALSTYLE
  5
D1
102
{ACAD_XDICTIONARY
360
19C
102
}
102
{ACAD_REACTORS
330
C3
102
}
330
C3
100
AcDbVisualStyle
  2
Linepattern
 70
    14
177
     2
291
     1
 71
     2
176
     1
 72
     2
176
     1
 73
     0
176
     1
 90
        0
176
     1
 40
0.6
176
     1
 41
30.0
176
     1
 63
     7
421
 16777215
176
     1
 74
     1
176
     1
 91
        4
176
     1
 64
     7
176
     1
 65
   257
176
     1
 75
     7
176
     1
175
     7
176
     1
 42
1.0
176
     1
 92
        8
176
     1
 66
     7
176
     1
 43
1.0
176
     1
 76
     1
176
     1
 77
     6
176
     1
 78
     2
176
     1
 67
     7
176
     1
 79
     5
176
     1
170
     0
176
     1
171
     0
176
     1
290
     0
176
     1
 93
        1
176
     1
 44
0.0
176
     1
173
     0
176
     1
1001
ACAD
1000
AcDbSavedByObjectVersion
1070
     0
  0
VISUALSTYLE
  5
DA
102
{ACAD_XDICTIONARY
360
1AE
102
}
102
{ACAD_REACTORS
330
C3
102
}
330
C3
100
AcDbVisualStyle
  2
OverhangOff
 70
    21
177
     2
291
     1
 71
     2
176
     0
 72
     2
176
     0
 73
     0
176
     0
 90
        0
176
     0
 40
0.6
176
     0
 41
30.0
176
     0
 63
     7
421
 16777215
176
     0
 74
     1
176
     0
 91
        4
176
     0
 64
     7
176
     0
 65
   257
176
     0
 75
     1
176
     0
175
     1
176
     0
 42
1.0
176
     0
 92
        9
176
     2
 66
     7
176
     0
 43
1.0
176
     0
 76
     1
176
     0
 77
     6
176
     0
 78
     2
176
     0
 67
     7
176
     0
 79
     5
176
     0
170
     0
176
     0
171
     0
176
     0
290
     0
176
     0
 93
        1
176
     0
 44
0.0
176
     0
173
     0
176
     0
1001
ACAD
1000
AcDbSavedByObjectVersion
1070
     0
  0
VISUALSTYLE
  5
CD
102
{ACAD_XDICTIONARY
360
194
102
}
102
{ACAD_REACTORS
330
C3
102
}
330
C3
100
AcDbVisualStyle
  2
Realistic
 70
     8
177
     2
291
     0
 71
     2
176
     1
 72
     3
176
     1
 73
     0
176
     1
 90
        2
176
     1
 40
0.6
176
     1
 41
30.0
176
     1
 63
     7
421
 16777215
176
     1
 74
     0
176
     1
 91
        0
176
     1
 64
     7
176
     1
 65
   257
176
     1
 75
     1
176
     1
175
     1
176
     1
 42
1.0
176
     1
 92
        8
176
     1
 66
   257
176
     1
 43
1.0
176
     1
 76
     1
176
     1
 77
     6
176
     1
 78
     2
176
     1
 67
     7
176
     1
 79
     3
176
     1
170
     0
176
     1
171
     0
176
     1
290
     0
176
     1
 93
       13
176
     1
 44
0.0
176
     1
173
     0
176
     1
1001
ACAD
1000
AcDbSavedByObjectVersion
1070
     0
  0
VISUALSTYLE
  5
D8
102
{ACAD_XDICTIONARY
360
1AA
102
}
102
{ACAD_REACTORS
330
C3
102
}
330
C3
100
AcDbVisualStyle
  2
Shaded
 70
    27
177
     2
291
     0
 71
     2
176
     1
 72
     2
176
     1
 73
     1
176
     1
 90
        2
176
     1
 40
0.6
176
     1
 41
30.0
176
     1
 63
     7
421
 16777215
176
     1
 74
     0
176
     1
 91
        4
176
     1
 64
     7
176
     1
 65
   257
176
     1
 75
     1
176
     1
175
     1
176
     1
 42
1.0
176
     1
 92
        8
176
     1
 66
   257
176
     1
 43
1.0
176
     1
 76
     1
176
     1
 77
     6
176
     1
 78
     2
176
     1
 67
     8
425
  7895160
176
     1
 79
     3
176
     1
170
     0
176
     1
171
     0
176
     1
290
     0
176
     1
 93
        5
176
     1
 44
0.0
176
     1
173
     0
176
     1
1001
ACAD
1000
AcDbSavedByObjectVersion
1070
     0
  0
VISUALSTYLE
  5
D7
102
{ACAD_XDICTIONARY
360
1A8
102
}
102
{ACAD_REACTORS
330
C3
102
}
330
C3
100
AcDbVisualStyle
  2
Shaded with edges
 70
    26
177
     2
291
     0
 71
     2
176
     1
 72
     2
176
     1
 73
     1
176
     1
 90
        2
176
     1
 40
0.6
176
     1
 41
30.0
176
     1
 63
     7
421
 16777215
176
     1
 74
     1
176
     1
 91
       10
176
     1
 64
     7
176
     1
 65
   257
176
     1
 75
     2
176
     1
175
     1
176
     1
 42
1.0
176
     1
 92
        8
176
     1
 66
   257
176
     1
 43
1.0
176
     1
 76
     1
176
     1
 77
     6
176
     1
 78
     2
176
     1
 67
     7
176
     1
 79
     3
176
     1
170
     0
176
     1
171
     0
176
     1
290
     0
176
     1
 93
        5
176
     1
 44
0.0
176
     1
173
     0
176
     1
1001
ACAD
1000
AcDbSavedByObjectVersion
1070
     0
  0
VISUALSTYLE
  5
D4
102
{ACAD_XDICTIONARY
360
1A2
102
}
102
{ACAD_REACTORS
330
C3
102
}
330
C3
100
AcDbVisualStyle
  2
Shades of Gray
 70
    23
177
     2
291
     0
 71
     2
176
     1
 72
     2
176
     1
 73
     3
176
     1
 90
        0
176
     1
 40
0.6
176
     1
 41
30.0
176
     1
 63
     7
421
 16777215
176
     1
 74
     2
176
     1
 91
        2
176
     1
 64
     7
176
     1
 65
     7
176
     1
 75
     1
176
     1
175
     1
176
     1
 42
40.0
176
     1
 92
        8
176
     1
 66
     7
176
     1
 43
1.0
176
     1
 76
     1
176
     1
 77
     6
176
     1
 78
     2
176
     1
 67
     7
176
     1
 79
     3
176
     1
170
     0
176
     1
171
     0
176
     1
290
     0
176
     1
 93
        1
176
     1
 44
0.0
176
     1
173
     0
176
     1
1001
ACAD
1000
AcDbSavedByObjectVersion
1070
     0
  0
VISUALSTYLE
  5
D5
102
{ACAD_XDICTIONARY
360
1A4
102
}
102
{ACAD_REACTORS
330
C3
102
}
330
C3
100
AcDbVisualStyle
  2
Sketchy
 70
    24
177
     2
291
     0
 71
     1
176
     1
 72
     2
176
     1
 73
     2
176
     1
 90
        0
176
     1
 40
0.6
176
     1
 41
30.0
176
     1
 63
     7
421
 16777215
176
     1
 74
     2
176
     1
 91
        2
176
     1
 64
     7
176
     1
 65
     7
176
     1
 75
     1
176
     1
175
     1
176
     1
 42
40.0
176
     1
 92
       11
176
     1
 66
     7
176
     1
 43
1.0
176
     1
 76
     1
176
     1
 77
     6
176
     1
 78
     2
176
     1
 67
     7
176
     1
 79
     6
176
     1
170
     0
176
     1
171
     0
176
     1
290
     0
176
     1
 93
        1
176
     1
 44
0.0
176
     1
173
     0
176
     1
1001
ACAD
1000
AcDbSavedByObjectVersion
1070
     0
  0
VISUALSTYLE
  5
D0
102
{ACAD_XDICTIONARY
360
19A
102
}
102
{ACAD_REACTORS
330
C3
102
}
330
C3
100
AcDbVisualStyle
  2
Thicken
 70
    13
177
     2
291
     1
 71
     2
176
     1
 72
     2
176
     1
 73
     0
176
     1
 90
        0
176
     1
 40
0.6
176
     1
 41
30.0
176
     1
 63
     7
421
 16777215
176
     1
 74
     1
176
     1
 91
        4
176
     1
 64
     7
176
     1
 65
   257
176
     1
 75
     1
176
     1
175
     1
176
     1
 42
1.0
176
     1
 92
       12
176
     1
 66
     7
176
     1
 43
1.0
176
     1
 76
     1
176
     1
 77
     6
176
     1
 78
     2
176
     1
 67
     7
176
     1
 79
     5
176
     1
170
     0
176
     1
171
     0
176
     1
290
     0
176
     1
 93
        1
176
     1
 44
0.0
176
     1
173
     0
176
     1
1001
ACAD
1000
AcDbSavedByObjectVersion
1070
     0
  0
VISUALSTYLE
  5
CA
102
{ACAD_XDICTIONARY
360
18E
102
}
102
{ACAD_REACTORS
330
C3
102
}
330
C3
100
AcDbVisualStyle
  2
Wireframe
 70
     5
177
     2
291
     0
 71
     0
176
     1
 72
     2
176
     1
 73
     0
176
     1
 90
        0
176
     1
 40
0.6
176
     1
 41
30.0
176
     1
 63
     7
421
 16777215
176
     1
 74
     1
176
     1
 91
        4
176
     1
 64
     7
176
     1
 65
   257
176
     1
 75
     1
176
     1
175
     1
176
     1
 42
1.0
176
     1
 92
        0
176
     1
 66
   257
176
     1
 43
1.0
176
     1
 76
     1
176
     1
 77
     6
176
     1
 78
     2
176
     1
 67
     7
176
     1
 79
     3
176
     1
170
     0
176
     1
171
     0
176
     1
290
     0
176
     1
 93
        1
176
     1
 44
0.0
176
     1
173
     0
176
     1
1001
ACAD
1000
AcDbSavedByObjectVersion
1070
     0
  0
VISUALSTYLE
  5
D6
102
{ACAD_XDICTIONARY
360
1A6
102
}
102
{ACAD_REACTORS
330
C3
102
}
330
C3
100
AcDbVisualStyle
  2
X-Ray
 70
    25
177
     2
291
     0
 71
     2
176
     1
 72
     2
176
     1
 73
     1
176
     1
 90
        1
176
     1
 40
0.5
176
     1
 41
30.0
176
     1
 63
     7
421
 16777215
176
     1
 74
     1
176
     1
 91
        0
176
     1
 64
     7
176
     1
 65
   257
176
     1
 75
     1
176
     1
175
     1
176
     1
 42
1.0
176
     1
 92
        8
176
     1
 66
     7
176
     1
 43
1.0
176
     1
 76
     1
176
     1
 77
     6
176
     1
 78
     2
176
     1
 67
     7
176
     1
 79
     3
176
     1
170
     0
176
     1
171
     0
176
     1
290
     0
176
     1
 93
       13
176
     1
 44
0.0
176
     1
173
     0
176
     1
1001
ACAD
1000
AcDbSavedByObjectVersion
1070
     0
  0
DICTIONARYVAR
  5
17B
102
{ACAD_REACTORS
330
175
102
}
330
175
100
DictionaryVariables
280
     0
  1
1:1
  0
DICTIONARYVAR
  5
177
102
{ACAD_REACTORS
330
175
102
}
330
175
100
DictionaryVariables
280
     0
  1
STANDARD
  0
DICTIONARYVAR
  5
176
102
{ACAD_REACTORS
330
175
102
}
330
175
100
DictionaryVariables
280
     0
  1
STANDARD
  0
DICTIONARYVAR
  5
178
102
{ACAD_REACTORS
330
175
102
}
330
175
100
DictionaryVariables
280
     0
  1
Imperial24
  0
DICTIONARYVAR
  5
179
102
{ACAD_REACTORS
330
175
102
}
330
175
100
DictionaryVariables
280
     0
  1
Imperial24
  0
DICTIONARYVAR
  5
17D
102
{ACAD_REACTORS
330
175
102
}
330
175
100
DictionaryVariables
280
     0
  1
1
  0
DICTIONARYVAR
  5
17E
102
{ACAD_REACTORS
330
175
102
}
330
175
100
DictionaryVariables
280
     0
  1
15
  0
DICTIONARYVAR
  5
17C
102
{ACAD_REACTORS
330
175
102
}
330
175
100
DictionaryVariables
280
     0
  1
0
  0
DICTIONARYVAR
  5
17A
102
{ACAD_REACTORS
330
175
102
}
330
175
100
DictionaryVariables
280
     0
  1
0
  0
DICTIONARY
  5
1B6
330
F6
100
AcDbDictionary
280
     1
281
     1
  3
ACAD_XREC_ROUNDTRIP
360
1B7
  0
DICTIONARY
  5
B4
330
B3
100
AcDbDictionary
280
     1
281
     1
  3
BUMPTILE
360
B6
  3
DIFFUSETILE
360
B5
  3
OPACITYTILE
360
B9
  3
REFLECTIONTILE
360
B8
  3
REFRACTIONTILE
360
BA
  3
SPECULARTILE
360
B7
  0
DICTIONARY
  5
AC
330
AB
100
AcDbDictionary
280
     1
281
     1
  3
BUMPTILE
360
AE
  3
DIFFUSETILE
360
AD
  3
OPACITYTILE
360
B1
  3
REFLECTIONTILE
360
B0
  3
REFRACTIONTILE
360
B2
  3
SPECULARTILE
360
AF
  0
DICTIONARY
  5
BC
330
BB
100
AcDbDictionary
280
     1
281
     1
  3
BUMPTILE
360
BE
  3
DIFFUSETILE
360
BD
  3
OPACITYTILE
360
C1
  3
REFLECTIONTILE
360
C0
  3
REFRACTIONTILE
360
C2
  3
SPECULARTILE
360
BF
  0
DICTIONARY
  5
1B2
330
F2
100
AcDbDictionary
280
     1
281
     1
  3
ACAD_XREC_ROUNDTRIP
360
1B3
  0
DICTIONARY
  5
1B4
330
F4
100
AcDbDictionary
280
     1
281
     1
  3
ACAD_XREC_ROUNDTRIP
360
1B5
  0
DICTIONARY
  5
17F
330
DE
100
AcDbDictionary
280
     1
281
     1
  3
ACAD_ROUNDTRIP_2008_TABLESTYLE_CELLSTYLEMAP
360
180
  0
DICTIONARY
  5
18C
330
C9
100
AcDbDictionary
280
     1
281
     1
  3
ACAD_XREC_ROUNDTRIP
360
18D
  0
DICTIONARY
  5
18A
330
C8
100
AcDbDictionary
280
     1
281
     1
  3
ACAD_XREC_ROUNDTRIP
360
18B
  0
DICTIONARY
  5
198
330
CF
100
AcDbDictionary
280
     1
281
     1
  3
ACAD_XREC_ROUNDTRIP
360
199
  0
DICTIONARY
  5
1A0
330
D3
100
AcDbDictionary
280
     1
281
     1
  3
ACAD_XREC_ROUNDTRIP
360
1A1
  0
DICTIONARY
  5
192
330
CC
100
AcDbDictionary
280
     1
281
     1
  3
ACAD_XREC_ROUNDTRIP
360
193
  0
DICTIONARY
  5
196
330
CE
100
AcDbDictionary
280
     1
281
     1
  3
ACAD_XREC_ROUNDTRIP
360
197
  0
DICTIONARY
  5
1B0
330
DB
100
AcDbDictionary
280
     1
281
     1
  3
ACAD_XREC_ROUNDTRIP
360
1B1
  0
DICTIONARY
  5
19E
330
D2
100
AcDbDictionary
280
     1
281
     1
  3
ACAD_XREC_ROUNDTRIP
360
19F
  0
DICTIONARY
  5
182
330
C4
100
AcDbDictionary
280
     1
281
     1
  3
ACAD_XREC_ROUNDTRIP
360
183
  0
DICTIONARY
  5
184
330
C5
100
AcDbDictionary
280
     1
281
     1
  3
ACAD_XREC_ROUNDTRIP
360
185
  0
DICTIONARY
  5
186
330
C6
100
AcDbDictionary
280
     1
281
     1
  3
ACAD_XREC_ROUNDTRIP
360
187
  0
DICTIONARY
  5
188
330
C7
100
AcDbDictionary
280
     1
281
     1
  3
ACAD_XREC_ROUNDTRIP
360
189
  0
DICTIONARY
  5
190
330
CB
100
AcDbDictionary
280
     1
281
     1
  3
ACAD_XREC_ROUNDTRIP
360
191
  0
DICTIONARY
  5
1AC
330
D9
100
AcDbDictionary
280
     1
281
     1
  3
ACAD_XREC_ROUNDTRIP
360
1AD
  0
DICTIONARY
  5
19C
330
D1
100
AcDbDictionary
280
     1
281
     1
  3
ACAD_XREC_ROUNDTRIP
360
19D
  0
DICTIONARY
  5
1AE
330
DA
100
AcDbDictionary
280
     1
281
     1
  3
ACAD_XREC_ROUNDTRIP
360
1AF
  0
DICTIONARY
  5
194
330
CD
100
AcDbDictionary
280
     1
281
     1
  3
ACAD_XREC_ROUNDTRIP
360
195
  0
DICTIONARY
  5
1AA
330
D8
100
AcDbDictionary
280
     1
281
     1
  3
ACAD_XREC_ROUNDTRIP
360
1AB
  0
DICTIONARY
  5
1A8
330
D7
100
AcDbDictionary
280
     1
281
     1
  3
ACAD_XREC_ROUNDTRIP
360
1A9
  0
DICTIONARY
  5
1A2
330
D4
100
AcDbDictionary
280
     1
281
     1
  3
ACAD_XREC_ROUNDTRIP
360
1A3
  0
DICTIONARY
  5
1A4
330
D5
100
AcDbDictionary
280
     1
281
     1
  3
ACAD_XREC_ROUNDTRIP
360
1A5
  0
DICTIONARY
  5
19A
330
D0
100
AcDbDictionary
280
     1
281
     1
  3
ACAD_XREC_ROUNDTRIP
360
19B
  0
DICTIONARY
  5
18E
330
CA
100
AcDbDictionary
280
     1
281
     1
  3
ACAD_XREC_ROUNDTRIP
360
18F
  0
DICTIONARY
  5
1A6
330
D6
100
AcDbDictionary
280
     1
281
     1
  3
ACAD_XREC_ROUNDTRIP
360
1A7
  0
XRECORD
  5
1B7
102
{ACAD_REACTORS
330
1B6
102
}
330
1B6
100
AcDbXrecord
280
     1
102
DISPLAYNAME
  1
Imperial24
102
FLAGS
 90
        0
  0
XRECORD
  5
B6
102
{ACAD_REACTORS
330
B4
102
}
330
B4
100
AcDbXrecord
280
     1
270
     1
271
     1
  0
XRECORD
  5
B5
102
{ACAD_REACTORS
330
B4
102
}
330
B4
100
AcDbXrecord
280
     1
270
     1
271
     1
  0
XRECORD
  5
B9
102
{ACAD_REACTORS
330
B4
102
}
330
B4
100
AcDbXrecord
280
     1
270
     1
271
     1
  0
XRECORD
  5
B8
102
{ACAD_REACTORS
330
B4
102
}
330
B4
100
AcDbXrecord
280
     1
270
     1
271
     1
  0
XRECORD
  5
BA
102
{ACAD_REACTORS
330
B4
102
}
330
B4
100
AcDbXrecord
280
     1
270
     1
271
     1
  0
XRECORD
  5
B7
102
{ACAD_REACTORS
330
B4
102
}
330
B4
100
AcDbXrecord
280
     1
270
     1
271
     1
  0
XRECORD
  5
AE
102
{ACAD_REACTORS
330
AC
102
}
330
AC
100
AcDbXrecord
280
     1
270
     1
271
     1
  0
XRECORD
  5
AD
102
{ACAD_REACTORS
330
AC
102
}
330
AC
100
AcDbXrecord
280
     1
270
     1
271
     1
  0
XRECORD
  5
B1
102
{ACAD_REACTORS
330
AC
102
}
330
AC
100
AcDbXrecord
280
     1
270
     1
271
     1
  0
XRECORD
  5
B0
102
{ACAD_REACTORS
330
AC
102
}
330
AC
100
AcDbXrecord
280
     1
270
     1
271
     1
  0
XRECORD
  5
B2
102
{ACAD_REACTORS
330
AC
102
}
330
AC
100
AcDbXrecord
280
     1
270
     1
271
     1
  0
XRECORD
  5
AF
102
{ACAD_REACTORS
330
AC
102
}
330
AC
100
AcDbXrecord
280
     1
270
     1
271
     1
  0
XRECORD
  5
BE
102
{ACAD_REACTORS
330
BC
102
}
330
BC
100
AcDbXrecord
280
     1
270
     1
271
     1
  0
XRECORD
  5
BD
102
{ACAD_REACTORS
330
BC
102
}
330
BC
100
AcDbXrecord
280
     1
270
     1
271
     1
  0
XRECORD
  5
C1
102
{ACAD_REACTORS
330
BC
102
}
330
BC
100
AcDbXrecord
280
     1
270
     1
271
     1
  0
XRECORD
  5
C0
102
{ACAD_REACTORS
330
BC
102
}
330
BC
100
AcDbXrecord
280
     1
270
     1
271
     1
  0
XRECORD
  5
C2
102
{ACAD_REACTORS
330
BC
102
}
330
BC
100
AcDbXrecord
280
     1
270
     1
271
     1
  0
XRECORD
  5
BF
102
{ACAD_REACTORS
330
BC
102
}
330
BC
100
AcDbXrecord
280
     1
270
     1
271
     1
  0
XRECORD
  5
1B3
102
{ACAD_REACTORS
330
1B2
102
}
330
1B2
100
AcDbXrecord
280
     1
102
ACAD_ROUNDTRIP_2012_MLEADER_STYLE
298
     1
  0
XRECORD
  5
1B5
102
{ACAD_REACTORS
330
1B4
102
}
330
1B4
100
AcDbXrecord
280
     1
102
DISPLAYNAME
  1
Imperial24
102
FLAGS
 90
        0
  0
CELLSTYLEMAP
  5
180
102
{ACAD_REACTORS
330
17F
102
}
330
17F
100
AcDbCellStyleMap
 90
        3
300
CELLSTYLE
  1
TABLEFORMAT_BEGIN
 90
        5
170
     1
 91
        0
 92
    32768
 62
   257
 93
        1
300
CONTENTFORMAT
  1
CONTENTFORMAT_BEGIN
 90
        0
 91
        0
 92
      512
 93
        0
300

 40
0.0
140
1.0
 94
        5
 62
     0
340
11
144
0.25
309
CONTENTFORMAT_END
171
     0
 94
        0
309
TABLEFORMAT_END
  1
CELLSTYLE_BEGIN
 90
        1
 91
        1
300
_TITLE
309
CELLSTYLE_END
300
CELLSTYLE
  1
TABLEFORMAT_BEGIN
 90
        5
170
     1
 91
        0
 92
        0
 62
   257
 93
        1
300
CONTENTFORMAT
  1
CONTENTFORMAT_BEGIN
 90
        0
 91
        0
 92
      512
 93
        0
300

 40
0.0
140
1.0
 94
        5
 62
     0
340
11
144
0.18
309
CONTENTFORMAT_END
171
     0
 94
        0
309
TABLEFORMAT_END
  1
CELLSTYLE_BEGIN
 90
        2
 91
        1
300
_HEADER
309
CELLSTYLE_END
300
CELLSTYLE
  1
TABLEFORMAT_BEGIN
 90
        5
170
     1
 91
        0
 92
        0
 62
   257
 93
        1
300
CONTENTFORMAT
  1
CONTENTFORMAT_BEGIN
 90
        0
 91
        0
 92
      512
 93
        0
300

 40
0.0
140
1.0
 94
        2
 62
     0
340
11
144
0.18
309
CONTENTFORMAT_END
171
     0
 94
        0
309
TABLEFORMAT_END
  1
CELLSTYLE_BEGIN
 90
        3
 91
        2
300
_DATA
309
CELLSTYLE_END
  0
XRECORD
  5
18D
102
{ACAD_REACTORS
330
18C
102
}
330
18C
100
AcDbXrecord
280
     1
102
RTVSPost2010Prop28
280
     1
102
RTVSPost2010PropOp28
 70
     1
102
RTVSPost2010Prop29
280
     1
102
RTVSPost2010PropOp29
 70
     1
102
RTVSPost2010Prop30
280
     0
102
RTVSPost2010PropOp30
 70
     1
102
RTVSPost2010Prop31
280
     0
102
RTVSPost2010PropOp31
 70
     1
102
RTVSPost2010Prop32
280
     0
102
RTVSPost2010PropOp32
 70
     1
102
RTVSPost2010Prop33
280
     0
102
RTVSPost2010PropOp33
 70
     1
102
RTVSPost2010Prop34
280
     0
102
RTVSPost2010PropOp34
 70
     1
102
RTVSPost2010Prop35
280
     0
102
RTVSPost2010PropOp35
 70
     1
102
RTVSPost2010Prop36
280
     0
102
RTVSPost2010PropOp36
 70
     1
102
RTVSPost2010Prop37
 90
       50
102
RTVSPost2010PropOp37
 70
     1
102
RTVSPost2010Prop38
140
0.0
102
RTVSPost2010PropOp38
 70
     1
102
RTVSPost2010Prop39
140
1.0
102
RTVSPost2010PropOp39
 70
     1
102
RTVSPost2010Prop40
 90
        0
102
RTVSPost2010PropOp40
 70
     1
102
RTVSPost2010Prop41ColorIndex
 90
       18
102
RTVSPost2010Prop41ColorRGB
 90
        0
102
RTVSPost2010PropOp41
 70
     1
102
RTVSPost2010Prop42
 90
       50
102
RTVSPost2010PropOp42
 70
     1
102
RTVSPost2010Prop43
 90
        3
102
RTVSPost2010PropOp43
 70
     1
102
RTVSPost2010Prop44ColorIndex
 90
        5
102
RTVSPost2010Prop44ColorRGB
 90
      255
102
RTVSPost2010PropOp44
 70
     1
102
RTVSPost2010Prop45
280
     0
102
RTVSPost2010PropOp45
 70
     1
102
RTVSPost2010Prop46
 90
       50
102
RTVSPost2010PropOp46
 70
     1
102
RTVSPost2010Prop47
 90
       50
102
RTVSPost2010PropOp47
 70
     1
102
RTVSPost2010Prop48
 90
       50
102
RTVSPost2010PropOp48
 70
     1
102
RTVSPost2010Prop49
280
     0
102
RTVSPost2010PropOp49
 70
     1
102
RTVSPost2010Prop50
 90
       50
102
RTVSPost2010PropOp50
 70
     1
102
RTVSPost2010Prop51ColorIndex
 90
      256
102
RTVSPost2010Prop51ColorRGB
 90
-16777216
102
RTVSPost2010PropOp51
 70
     0
102
RTVSPost2010Prop52
140
1.0
102
RTVSPost2010PropOp52
 70
     0
102
RTVSPost2010Prop53
 90
        2
102
RTVSPost2010PropOp53
 70
     1
102
RTVSPost2010Prop54
  1
strokes_ogs.tif
102
RTVSPost2010PropOp54
 70
     1
102
RTVSPost2010Prop55
280
     0
102
RTVSPost2010PropOp55
 70
     1
102
RTVSPost2010Prop56
140
1.0
102
RTVSPost2010PropOp56
 70
     1
102
RTVSPost2010Prop57
140
1.0
102
RTVSPost2010PropOp57
 70
     1
  0
XRECORD
  5
18B
102
{ACAD_REACTORS
330
18A
102
}
330
18A
100
AcDbXrecord
280
     1
102
RTVSPost2010Prop28
280
     0
102
RTVSPost2010PropOp28
 70
     1
102
RTVSPost2010Prop29
280
     1
102
RTVSPost2010PropOp29
 70
     1
102
RTVSPost2010Prop30
280
     1
102
RTVSPost2010PropOp30
 70
     1
102
RTVSPost2010Prop31
280
     0
102
RTVSPost2010PropOp31
 70
     1
102
RTVSPost2010Prop32
280
     0
102
RTVSPost2010PropOp32
 70
     1
102
RTVSPost2010Prop33
280
     0
102
RTVSPost2010PropOp33
 70
     1
102
RTVSPost2010Prop34
280
     0
102
RTVSPost2010PropOp34
 70
     1
102
RTVSPost2010Prop35
280
     0
102
RTVSPost2010PropOp35
 70
     1
102
RTVSPost2010Prop36
280
     0
102
RTVSPost2010PropOp36
 70
     1
102
RTVSPost2010Prop37
 90
       50
102
RTVSPost2010PropOp37
 70
     1
102
RTVSPost2010Prop38
140
0.0
102
RTVSPost2010PropOp38
 70
     1
102
RTVSPost2010Prop39
140
1.0
102
RTVSPost2010PropOp39
 70
     1
102
RTVSPost2010Prop40
 90
        0
102
RTVSPost2010PropOp40
 70
     1
102
RTVSPost2010Prop41ColorIndex
 90
       18
102
RTVSPost2010Prop41ColorRGB
 90
        0
102
RTVSPost2010PropOp41
 70
     1
102
RTVSPost2010Prop42
 90
       50
102
RTVSPost2010PropOp42
 70
     1
102
RTVSPost2010Prop43
 90
        3
102
RTVSPost2010PropOp43
 70
     1
102
RTVSPost2010Prop44ColorIndex
 90
        5
102
RTVSPost2010Prop44ColorRGB
 90
      255
102
RTVSPost2010PropOp44
 70
     1
102
RTVSPost2010Prop45
280
     0
102
RTVSPost2010PropOp45
 70
     1
102
RTVSPost2010Prop46
 90
       50
102
RTVSPost2010PropOp46
 70
     1
102
RTVSPost2010Prop47
 90
       50
102
RTVSPost2010PropOp47
 70
     1
102
RTVSPost2010Prop48
 90
       50
102
RTVSPost2010PropOp48
 70
     1
102
RTVSPost2010Prop49
280
     0
102
RTVSPost2010PropOp49
 70
     1
102
RTVSPost2010Prop50
 90
       50
102
RTVSPost2010PropOp50
 70
     1
102
RTVSPost2010Prop51ColorIndex
 90
      256
102
RTVSPost2010Prop51ColorRGB
 90
-16777216
102
RTVSPost2010PropOp51
 70
     0
102
RTVSPost2010Prop52
140
1.0
102
RTVSPost2010PropOp52
 70
     0
102
RTVSPost2010Prop53
 90
        2
102
RTVSPost2010PropOp53
 70
     1
102
RTVSPost2010Prop54
  1
strokes_ogs.tif
102
RTVSPost2010PropOp54
 70
     1
102
RTVSPost2010Prop55
280
     0
102
RTVSPost2010PropOp55
 70
     1
102
RTVSPost2010Prop56
140
1.0
102
RTVSPost2010PropOp56
 70
     1
102
RTVSPost2010Prop57
140
1.0
102
RTVSPost2010PropOp57
 70
     1
  0
XRECORD
  5
199
102
{ACAD_REACTORS
330
198
102
}
330
198
100
AcDbXrecord
280
     1
102
RTVSPost2010Prop28
280
     0
102
RTVSPost2010PropOp28
 70
     1
102
RTVSPost2010Prop29
280
     1
102
RTVSPost2010PropOp29
 70
     1
102
RTVSPost2010Prop30
280
     1
102
RTVSPost2010PropOp30
 70
     1
102
RTVSPost2010Prop31
280
     0
102
RTVSPost2010PropOp31
 70
     1
102
RTVSPost2010Prop32
280
     0
102
RTVSPost2010PropOp32
 70
     1
102
RTVSPost2010Prop33
280
     0
102
RTVSPost2010PropOp33
 70
     1
102
RTVSPost2010Prop34
280
     0
102
RTVSPost2010PropOp34
 70
     1
102
RTVSPost2010Prop35
280
     0
102
RTVSPost2010PropOp35
 70
     1
102
RTVSPost2010Prop36
280
     0
102
RTVSPost2010PropOp36
 70
     1
102
RTVSPost2010Prop37
 90
       50
102
RTVSPost2010PropOp37
 70
     1
102
RTVSPost2010Prop38
140
0.0
102
RTVSPost2010PropOp38
 70
     1
102
RTVSPost2010Prop39
140
1.0
102
RTVSPost2010PropOp39
 70
     1
102
RTVSPost2010Prop40
 90
        0
102
RTVSPost2010PropOp40
 70
     1
102
RTVSPost2010Prop41ColorIndex
 90
       18
102
RTVSPost2010Prop41ColorRGB
 90
        0
102
RTVSPost2010PropOp41
 70
     1
102
RTVSPost2010Prop42
 90
       50
102
RTVSPost2010PropOp42
 70
     1
102
RTVSPost2010Prop43
 90
        3
102
RTVSPost2010PropOp43
 70
     1
102
RTVSPost2010Prop44ColorIndex
 90
        5
102
RTVSPost2010Prop44ColorRGB
 90
      255
102
RTVSPost2010PropOp44
 70
     1
102
RTVSPost2010Prop45
280
     0
102
RTVSPost2010PropOp45
 70
     1
102
RTVSPost2010Prop46
 90
       50
102
RTVSPost2010PropOp46
 70
     1
102
RTVSPost2010Prop47
 90
       50
102
RTVSPost2010PropOp47
 70
     1
102
RTVSPost2010Prop48
 90
       50
102
RTVSPost2010PropOp48
 70
     1
102
RTVSPost2010Prop49
280
     0
102
RTVSPost2010PropOp49
 70
     1
102
RTVSPost2010Prop50
 90
       50
102
RTVSPost2010PropOp50
 70
     1
102
RTVSPost2010Prop51ColorIndex
 90
      256
102
RTVSPost2010Prop51ColorRGB
 90
-16777216
102
RTVSPost2010PropOp51
 70
     0
102
RTVSPost2010Prop52
140
1.0
102
RTVSPost2010PropOp52
 70
     0
102
RTVSPost2010Prop53
 90
        2
102
RTVSPost2010PropOp53
 70
     1
102
RTVSPost2010Prop54
  1
strokes_ogs.tif
102
RTVSPost2010PropOp54
 70
     1
102
RTVSPost2010Prop55
280
     0
102
RTVSPost2010PropOp55
 70
     1
102
RTVSPost2010Prop56
140
1.0
102
RTVSPost2010PropOp56
 70
     1
102
RTVSPost2010Prop57
140
1.0
102
RTVSPost2010PropOp57
 70
     1
  0
XRECORD
  5
1A1
102
{ACAD_REACTORS
330
1A0
102
}
330
1A0
100
AcDbXrecord
280
     1
102
RTVSPost2010Prop28
280
     0
102
RTVSPost2010PropOp28
 70
     1
102
RTVSPost2010Prop29
280
     1
102
RTVSPost2010PropOp29
 70
     1
102
RTVSPost2010Prop30
280
     1
102
RTVSPost2010PropOp30
 70
     1
102
RTVSPost2010Prop31
280
     0
102
RTVSPost2010PropOp31
 70
     1
102
RTVSPost2010Prop32
280
     0
102
RTVSPost2010PropOp32
 70
     1
102
RTVSPost2010Prop33
280
     0
102
RTVSPost2010PropOp33
 70
     1
102
RTVSPost2010Prop34
280
     0
102
RTVSPost2010PropOp34
 70
     1
102
RTVSPost2010Prop35
280
     0
102
RTVSPost2010PropOp35
 70
     1
102
RTVSPost2010Prop36
280
     0
102
RTVSPost2010PropOp36
 70
     1
102
RTVSPost2010Prop37
 90
       50
102
RTVSPost2010PropOp37
 70
     1
102
RTVSPost2010Prop38
140
0.0
102
RTVSPost2010PropOp38
 70
     1
102
RTVSPost2010Prop39
140
1.0
102
RTVSPost2010PropOp39
 70
     1
102
RTVSPost2010Prop40
 90
        0
102
RTVSPost2010PropOp40
 70
     1
102
RTVSPost2010Prop41ColorIndex
 90
       18
102
RTVSPost2010Prop41ColorRGB
 90
        0
102
RTVSPost2010PropOp41
 70
     1
102
RTVSPost2010Prop42
 90
       50
102
RTVSPost2010PropOp42
 70
     1
102
RTVSPost2010Prop43
 90
        3
102
RTVSPost2010PropOp43
 70
     1
102
RTVSPost2010Prop44ColorIndex
 90
        5
102
RTVSPost2010Prop44ColorRGB
 90
      255
102
RTVSPost2010PropOp44
 70
     1
102
RTVSPost2010Prop45
280
     0
102
RTVSPost2010PropOp45
 70
     1
102
RTVSPost2010Prop46
 90
       50
102
RTVSPost2010PropOp46
 70
     1
102
RTVSPost2010Prop47
 90
       50
102
RTVSPost2010PropOp47
 70
     1
102
RTVSPost2010Prop48
 90
       50
102
RTVSPost2010PropOp48
 70
     1
102
RTVSPost2010Prop49
280
     0
102
RTVSPost2010PropOp49
 70
     1
102
RTVSPost2010Prop50
 90
       50
102
RTVSPost2010PropOp50
 70
     1
102
RTVSPost2010Prop51ColorIndex
 90
      256
102
RTVSPost2010Prop51ColorRGB
 90
-16777216
102
RTVSPost2010PropOp51
 70
     0
102
RTVSPost2010Prop52
140
1.0
102
RTVSPost2010PropOp52
 70
     0
102
RTVSPost2010Prop53
 90
        2
102
RTVSPost2010PropOp53
 70
     1
102
RTVSPost2010Prop54
  1
strokes_ogs.tif
102
RTVSPost2010PropOp54
 70
     1
102
RTVSPost2010Prop55
280
     0
102
RTVSPost2010PropOp55
 70
     1
102
RTVSPost2010Prop56
140
1.0
102
RTVSPost2010PropOp56
 70
     1
102
RTVSPost2010Prop57
140
1.0
102
RTVSPost2010PropOp57
 70
     1
  0
XRECORD
  5
193
102
{ACAD_REACTORS
330
192
102
}
330
192
100
AcDbXrecord
280
     1
102
RTVSPost2010Prop28
280
     0
102
RTVSPost2010PropOp28
 70
     1
102
RTVSPost2010Prop29
280
     1
102
RTVSPost2010PropOp29
 70
     1
102
RTVSPost2010Prop30
280
     1
102
RTVSPost2010PropOp30
 70
     1
102
RTVSPost2010Prop31
280
     0
102
RTVSPost2010PropOp31
 70
     1
102
RTVSPost2010Prop32
280
     0
102
RTVSPost2010PropOp32
 70
     1
102
RTVSPost2010Prop33
280
     0
102
RTVSPost2010PropOp33
 70
     1
102
RTVSPost2010Prop34
280
     0
102
RTVSPost2010PropOp34
 70
     1
102
RTVSPost2010Prop35
280
     0
102
RTVSPost2010PropOp35
 70
     1
102
RTVSPost2010Prop36
280
     0
102
RTVSPost2010PropOp36
 70
     1
102
RTVSPost2010Prop37
 90
       50
102
RTVSPost2010PropOp37
 70
     1
102
RTVSPost2010Prop38
140
0.0
102
RTVSPost2010PropOp38
 70
     1
102
RTVSPost2010Prop39
140
1.0
102
RTVSPost2010PropOp39
 70
     1
102
RTVSPost2010Prop40
 90
        0
102
RTVSPost2010PropOp40
 70
     1
102
RTVSPost2010Prop41ColorIndex
 90
       18
102
RTVSPost2010Prop41ColorRGB
 90
        0
102
RTVSPost2010PropOp41
 70
     1
102
RTVSPost2010Prop42
 90
       50
102
RTVSPost2010PropOp42
 70
     1
102
RTVSPost2010Prop43
 90
        3
102
RTVSPost2010PropOp43
 70
     1
102
RTVSPost2010Prop44ColorIndex
 90
        5
102
RTVSPost2010Prop44ColorRGB
 90
      255
102
RTVSPost2010PropOp44
 70
     1
102
RTVSPost2010Prop45
280
     0
102
RTVSPost2010PropOp45
 70
     1
102
RTVSPost2010Prop46
 90
       50
102
RTVSPost2010PropOp46
 70
     1
102
RTVSPost2010Prop47
 90
       50
102
RTVSPost2010PropOp47
 70
     1
102
RTVSPost2010Prop48
 90
       50
102
RTVSPost2010PropOp48
 70
     1
102
RTVSPost2010Prop49
280
     0
102
RTVSPost2010PropOp49
 70
     1
102
RTVSPost2010Prop50
 90
       50
102
RTVSPost2010PropOp50
 70
     1
102
RTVSPost2010Prop51ColorIndex
 90
      256
102
RTVSPost2010Prop51ColorRGB
 90
-16777216
102
RTVSPost2010PropOp51
 70
     0
102
RTVSPost2010Prop52
140
1.0
102
RTVSPost2010PropOp52
 70
     0
102
RTVSPost2010Prop53
 90
        2
102
RTVSPost2010PropOp53
 70
     1
102
RTVSPost2010Prop54
  1
strokes_ogs.tif
102
RTVSPost2010PropOp54
 70
     1
102
RTVSPost2010Prop55
280
     0
102
RTVSPost2010PropOp55
 70
     1
102
RTVSPost2010Prop56
140
1.0
102
RTVSPost2010PropOp56
 70
     1
102
RTVSPost2010Prop57
140
1.0
102
RTVSPost2010PropOp57
 70
     1
  0
XRECORD
  5
197
102
{ACAD_REACTORS
330
196
102
}
330
196
100
AcDbXrecord
280
     1
102
RTVSPost2010Prop28
280
     0
102
RTVSPost2010PropOp28
 70
     1
102
RTVSPost2010Prop29
280
     1
102
RTVSPost2010PropOp29
 70
     1
102
RTVSPost2010Prop30
280
     1
102
RTVSPost2010PropOp30
 70
     1
102
RTVSPost2010Prop31
280
     0
102
RTVSPost2010PropOp31
 70
     1
102
RTVSPost2010Prop32
280
     0
102
RTVSPost2010PropOp32
 70
     1
102
RTVSPost2010Prop33
280
     0
102
RTVSPost2010PropOp33
 70
     1
102
RTVSPost2010Prop34
280
     0
102
RTVSPost2010PropOp34
 70
     1
102
RTVSPost2010Prop35
280
     0
102
RTVSPost2010PropOp35
 70
     1
102
RTVSPost2010Prop36
280
     0
102
RTVSPost2010PropOp36
 70
     1
102
RTVSPost2010Prop37
 90
       50
102
RTVSPost2010PropOp37
 70
     1
102
RTVSPost2010Prop38
140
0.0
102
RTVSPost2010PropOp38
 70
     1
102
RTVSPost2010Prop39
140
1.0
102
RTVSPost2010PropOp39
 70
     1
102
RTVSPost2010Prop40
 90
        0
102
RTVSPost2010PropOp40
 70
     1
102
RTVSPost2010Prop41ColorIndex
 90
       18
102
RTVSPost2010Prop41ColorRGB
 90
        0
102
RTVSPost2010PropOp41
 70
     1
102
RTVSPost2010Prop42
 90
       50
102
RTVSPost2010PropOp42
 70
     1
102
RTVSPost2010Prop43
 90
        3
102
RTVSPost2010PropOp43
 70
     1
102
RTVSPost2010Prop44ColorIndex
 90
        5
102
RTVSPost2010Prop44ColorRGB
 90
      255
102
RTVSPost2010PropOp44
 70
     1
102
RTVSPost2010Prop45
280
     0
102
RTVSPost2010PropOp45
 70
     1
102
RTVSPost2010Prop46
 90
       50
102
RTVSPost2010PropOp46
 70
     1
102
RTVSPost2010Prop47
 90
       50
102
RTVSPost2010PropOp47
 70
     1
102
RTVSPost2010Prop48
 90
       50
102
RTVSPost2010PropOp48
 70
     1
102
RTVSPost2010Prop49
280
     0
102
RTVSPost2010PropOp49
 70
     1
102
RTVSPost2010Prop50
 90
       50
102
RTVSPost2010PropOp50
 70
     1
102
RTVSPost2010Prop51ColorIndex
 90
      256
102
RTVSPost2010Prop51ColorRGB
 90
-16777216
102
RTVSPost2010PropOp51
 70
     0
102
RTVSPost2010Prop52
140
1.0
102
RTVSPost2010PropOp52
 70
     0
102
RTVSPost2010Prop53
 90
        2
102
RTVSPost2010PropOp53
 70
     1
102
RTVSPost2010Prop54
  1
strokes_ogs.tif
102
RTVSPost2010PropOp54
 70
     1
102
RTVSPost2010Prop55
280
     0
102
RTVSPost2010PropOp55
 70
     1
102
RTVSPost2010Prop56
140
1.0
102
RTVSPost2010PropOp56
 70
     1
102
RTVSPost2010Prop57
140
1.0
102
RTVSPost2010PropOp57
 70
     1
  0
XRECORD
  5
1B1
102
{ACAD_REACTORS
330
1B0
102
}
330
1B0
100
AcDbXrecord
280
     1
102
RTVSPost2010Prop28
280
     0
102
RTVSPost2010PropOp28
 70
     0
102
RTVSPost2010Prop29
280
     1
102
RTVSPost2010PropOp29
 70
     0
102
RTVSPost2010Prop30
280
     1
102
RTVSPost2010PropOp30
 70
     0
102
RTVSPost2010Prop31
280
     0
102
RTVSPost2010PropOp31
 70
     0
102
RTVSPost2010Prop32
280
     0
102
RTVSPost2010PropOp32
 70
     0
102
RTVSPost2010Prop33
280
     0
102
RTVSPost2010PropOp33
 70
     0
102
RTVSPost2010Prop34
280
     0
102
RTVSPost2010PropOp34
 70
     0
102
RTVSPost2010Prop35
280
     0
102
RTVSPost2010PropOp35
 70
     0
102
RTVSPost2010Prop36
280
     0
102
RTVSPost2010PropOp36
 70
     0
102
RTVSPost2010Prop37
 90
       50
102
RTVSPost2010PropOp37
 70
     0
102
RTVSPost2010Prop38
140
0.0
102
RTVSPost2010PropOp38
 70
     0
102
RTVSPost2010Prop39
140
1.0
102
RTVSPost2010PropOp39
 70
     0
102
RTVSPost2010Prop40
 90
        0
102
RTVSPost2010PropOp40
 70
     0
102
RTVSPost2010Prop41ColorIndex
 90
       18
102
RTVSPost2010Prop41ColorRGB
 90
        0
102
RTVSPost2010PropOp41
 70
     0
102
RTVSPost2010Prop42
 90
       50
102
RTVSPost2010PropOp42
 70
     0
102
RTVSPost2010Prop43
 90
        3
102
RTVSPost2010PropOp43
 70
     0
102
RTVSPost2010Prop44ColorIndex
 90
        5
102
RTVSPost2010Prop44ColorRGB
 90
      255
102
RTVSPost2010PropOp44
 70
     0
102
RTVSPost2010Prop45
280
     0
102
RTVSPost2010PropOp45
 70
     0
102
RTVSPost2010Prop46
 90
       50
102
RTVSPost2010PropOp46
 70
     0
102
RTVSPost2010Prop47
 90
       50
102
RTVSPost2010PropOp47
 70
     0
102
RTVSPost2010Prop48
 90
       50
102
RTVSPost2010PropOp48
 70
     0
102
RTVSPost2010Prop49
280
     0
102
RTVSPost2010PropOp49
 70
     0
102
RTVSPost2010Prop50
 90
       50
102
RTVSPost2010PropOp50
 70
     0
102
RTVSPost2010Prop51ColorIndex
 90
      256
102
RTVSPost2010Prop51ColorRGB
 90
-16777216
102
RTVSPost2010PropOp51
 70
     0
102
RTVSPost2010Prop52
140
1.0
102
RTVSPost2010PropOp52
 70
     0
102
RTVSPost2010Prop53
 90
        2
102
RTVSPost2010PropOp53
 70
     0
102
RTVSPost2010Prop54
  1
strokes_ogs.tif
102
RTVSPost2010PropOp54
 70
     0
102
RTVSPost2010Prop55
280
     0
102
RTVSPost2010PropOp55
 70
     0
102
RTVSPost2010Prop56
140
1.0
102
RTVSPost2010PropOp56
 70
     0
102
RTVSPost2010Prop57
140
1.0
102
RTVSPost2010PropOp57
 70
     0
  0
XRECORD
  5
19F
102
{ACAD_REACTORS
330
19E
102
}
330
19E
100
AcDbXrecord
280
     1
102
RTVSPost2010Prop28
280
     0
102
RTVSPost2010PropOp28
 70
     1
102
RTVSPost2010Prop29
280
     1
102
RTVSPost2010PropOp29
 70
     1
102
RTVSPost2010Prop30
280
     1
102
RTVSPost2010PropOp30
 70
     1
102
RTVSPost2010Prop31
280
     0
102
RTVSPost2010PropOp31
 70
     1
102
RTVSPost2010Prop32
280
     0
102
RTVSPost2010PropOp32
 70
     1
102
RTVSPost2010Prop33
280
     0
102
RTVSPost2010PropOp33
 70
     1
102
RTVSPost2010Prop34
280
     0
102
RTVSPost2010PropOp34
 70
     1
102
RTVSPost2010Prop35
280
     0
102
RTVSPost2010PropOp35
 70
     1
102
RTVSPost2010Prop36
280
     0
102
RTVSPost2010PropOp36
 70
     1
102
RTVSPost2010Prop37
 90
       50
102
RTVSPost2010PropOp37
 70
     1
102
RTVSPost2010Prop38
140
0.0
102
RTVSPost2010PropOp38
 70
     1
102
RTVSPost2010Prop39
140
1.0
102
RTVSPost2010PropOp39
 70
     1
102
RTVSPost2010Prop40
 90
        0
102
RTVSPost2010PropOp40
 70
     1
102
RTVSPost2010Prop41ColorIndex
 90
       18
102
RTVSPost2010Prop41ColorRGB
 90
        0
102
RTVSPost2010PropOp41
 70
     1
102
RTVSPost2010Prop42
 90
       50
102
RTVSPost2010PropOp42
 70
     1
102
RTVSPost2010Prop43
 90
        3
102
RTVSPost2010PropOp43
 70
     1
102
RTVSPost2010Prop44ColorIndex
 90
        5
102
RTVSPost2010Prop44ColorRGB
 90
      255
102
RTVSPost2010PropOp44
 70
     1
102
RTVSPost2010Prop45
280
     0
102
RTVSPost2010PropOp45
 70
     1
102
RTVSPost2010Prop46
 90
       50
102
RTVSPost2010PropOp46
 70
     1
102
RTVSPost2010Prop47
 90
       50
102
RTVSPost2010PropOp47
 70
     1
102
RTVSPost2010Prop48
 90
       50
102
RTVSPost2010PropOp48
 70
     1
102
RTVSPost2010Prop49
280
     0
102
RTVSPost2010PropOp49
 70
     1
102
RTVSPost2010Prop50
 90
       50
102
RTVSPost2010PropOp50
 70
     1
102
RTVSPost2010Prop51ColorIndex
 90
      256
102
RTVSPost2010Prop51ColorRGB
 90
-16777216
102
RTVSPost2010PropOp51
 70
     0
102
RTVSPost2010Prop52
140
1.0
102
RTVSPost2010PropOp52
 70
     0
102
RTVSPost2010Prop53
 90
        2
102
RTVSPost2010PropOp53
 70
     1
102
RTVSPost2010Prop54
  1
strokes_ogs.tif
102
RTVSPost2010PropOp54
 70
     1
102
RTVSPost2010Prop55
280
     0
102
RTVSPost2010PropOp55
 70
     1
102
RTVSPost2010Prop56
140
1.0
102
RTVSPost2010PropOp56
 70
     1
102
RTVSPost2010Prop57
140
1.0
102
RTVSPost2010PropOp57
 70
     1
  0
XRECORD
  5
183
102
{ACAD_REACTORS
330
182
102
}
330
182
100
AcDbXrecord
280
     1
102
RTVSPost2010Prop28
280
     0
102
RTVSPost2010PropOp28
 70
     1
102
RTVSPost2010Prop29
280
     1
102
RTVSPost2010PropOp29
 70
     1
102
RTVSPost2010Prop30
280
     1
102
RTVSPost2010PropOp30
 70
     1
102
RTVSPost2010Prop31
280
     0
102
RTVSPost2010PropOp31
 70
     1
102
RTVSPost2010Prop32
280
     0
102
RTVSPost2010PropOp32
 70
     1
102
RTVSPost2010Prop33
280
     0
102
RTVSPost2010PropOp33
 70
     1
102
RTVSPost2010Prop34
280
     0
102
RTVSPost2010PropOp34
 70
     1
102
RTVSPost2010Prop35
280
     0
102
RTVSPost2010PropOp35
 70
     1
102
RTVSPost2010Prop36
280
     0
102
RTVSPost2010PropOp36
 70
     1
102
RTVSPost2010Prop37
 90
       50
102
RTVSPost2010PropOp37
 70
     1
102
RTVSPost2010Prop38
140
0.0
102
RTVSPost2010PropOp38
 70
     1
102
RTVSPost2010Prop39
140
1.0
102
RTVSPost2010PropOp39
 70
     1
102
RTVSPost2010Prop40
 90
        0
102
RTVSPost2010PropOp40
 70
     1
102
RTVSPost2010Prop41ColorIndex
 90
       18
102
RTVSPost2010Prop41ColorRGB
 90
        0
102
RTVSPost2010PropOp41
 70
     1
102
RTVSPost2010Prop42
 90
       50
102
RTVSPost2010PropOp42
 70
     1
102
RTVSPost2010Prop43
 90
        3
102
RTVSPost2010PropOp43
 70
     1
102
RTVSPost2010Prop44ColorIndex
 90
        5
102
RTVSPost2010Prop44ColorRGB
 90
      255
102
RTVSPost2010PropOp44
 70
     1
102
RTVSPost2010Prop45
280
     0
102
RTVSPost2010PropOp45
 70
     1
102
RTVSPost2010Prop46
 90
       50
102
RTVSPost2010PropOp46
 70
     1
102
RTVSPost2010Prop47
 90
       50
102
RTVSPost2010PropOp47
 70
     1
102
RTVSPost2010Prop48
 90
       50
102
RTVSPost2010PropOp48
 70
     1
102
RTVSPost2010Prop49
280
     0
102
RTVSPost2010PropOp49
 70
     1
102
RTVSPost2010Prop50
 90
       50
102
RTVSPost2010PropOp50
 70
     1
102
RTVSPost2010Prop51ColorIndex
 90
      256
102
RTVSPost2010Prop51ColorRGB
 90
-16777216
102
RTVSPost2010PropOp51
 70
     0
102
RTVSPost2010Prop52
140
1.0
102
RTVSPost2010PropOp52
 70
     0
102
RTVSPost2010Prop53
 90
        2
102
RTVSPost2010PropOp53
 70
     1
102
RTVSPost2010Prop54
  1
strokes_ogs.tif
102
RTVSPost2010PropOp54
 70
     1
102
RTVSPost2010Prop55
280
     0
102
RTVSPost2010PropOp55
 70
     1
102
RTVSPost2010Prop56
140
1.0
102
RTVSPost2010PropOp56
 70
     1
102
RTVSPost2010Prop57
140
1.0
102
RTVSPost2010PropOp57
 70
     1
  0
XRECORD
  5
185
102
{ACAD_REACTORS
330
184
102
}
330
184
100
AcDbXrecord
280
     1
102
RTVSPost2010Prop28
280
     0
102
RTVSPost2010PropOp28
 70
     1
102
RTVSPost2010Prop29
280
     1
102
RTVSPost2010PropOp29
 70
     1
102
RTVSPost2010Prop30
280
     1
102
RTVSPost2010PropOp30
 70
     1
102
RTVSPost2010Prop31
280
     0
102
RTVSPost2010PropOp31
 70
     1
102
RTVSPost2010Prop32
280
     0
102
RTVSPost2010PropOp32
 70
     1
102
RTVSPost2010Prop33
280
     0
102
RTVSPost2010PropOp33
 70
     1
102
RTVSPost2010Prop34
280
     0
102
RTVSPost2010PropOp34
 70
     1
102
RTVSPost2010Prop35
280
     0
102
RTVSPost2010PropOp35
 70
     1
102
RTVSPost2010Prop36
280
     0
102
RTVSPost2010PropOp36
 70
     1
102
RTVSPost2010Prop37
 90
       50
102
RTVSPost2010PropOp37
 70
     1
102
RTVSPost2010Prop38
140
0.0
102
RTVSPost2010PropOp38
 70
     1
102
RTVSPost2010Prop39
140
1.0
102
RTVSPost2010PropOp39
 70
     1
102
RTVSPost2010Prop40
 90
        0
102
RTVSPost2010PropOp40
 70
     1
102
RTVSPost2010Prop41ColorIndex
 90
       18
102
RTVSPost2010Prop41ColorRGB
 90
        0
102
RTVSPost2010PropOp41
 70
     1
102
RTVSPost2010Prop42
 90
       50
102
RTVSPost2010PropOp42
 70
     1
102
RTVSPost2010Prop43
 90
        3
102
RTVSPost2010PropOp43
 70
     1
102
RTVSPost2010Prop44ColorIndex
 90
        5
102
RTVSPost2010Prop44ColorRGB
 90
      255
102
RTVSPost2010PropOp44
 70
     1
102
RTVSPost2010Prop45
280
     0
102
RTVSPost2010PropOp45
 70
     1
102
RTVSPost2010Prop46
 90
       50
102
RTVSPost2010PropOp46
 70
     1
102
RTVSPost2010Prop47
 90
       50
102
RTVSPost2010PropOp47
 70
     1
102
RTVSPost2010Prop48
 90
       50
102
RTVSPost2010PropOp48
 70
     1
102
RTVSPost2010Prop49
280
     0
102
RTVSPost2010PropOp49
 70
     1
102
RTVSPost2010Prop50
 90
       50
102
RTVSPost2010PropOp50
 70
     1
102
RTVSPost2010Prop51ColorIndex
 90
      256
102
RTVSPost2010Prop51ColorRGB
 90
-16777216
102
RTVSPost2010PropOp51
 70
     0
102
RTVSPost2010Prop52
140
1.0
102
RTVSPost2010PropOp52
 70
     0
102
RTVSPost2010Prop53
 90
        2
102
RTVSPost2010PropOp53
 70
     1
102
RTVSPost2010Prop54
  1
strokes_ogs.tif
102
RTVSPost2010PropOp54
 70
     1
102
RTVSPost2010Prop55
280
     0
102
RTVSPost2010PropOp55
 70
     1
102
RTVSPost2010Prop56
140
1.0
102
RTVSPost2010PropOp56
 70
     1
102
RTVSPost2010Prop57
140
1.0
102
RTVSPost2010PropOp57
 70
     1
  0
XRECORD
  5
187
102
{ACAD_REACTORS
330
186
102
}
330
186
100
AcDbXrecord
280
     1
102
RTVSPost2010Prop28
280
     0
102
RTVSPost2010PropOp28
 70
     1
102
RTVSPost2010Prop29
280
     1
102
RTVSPost2010PropOp29
 70
     1
102
RTVSPost2010Prop30
280
     1
102
RTVSPost2010PropOp30
 70
     1
102
RTVSPost2010Prop31
280
     0
102
RTVSPost2010PropOp31
 70
     1
102
RTVSPost2010Prop32
280
     0
102
RTVSPost2010PropOp32
 70
     1
102
RTVSPost2010Prop33
280
     0
102
RTVSPost2010PropOp33
 70
     1
102
RTVSPost2010Prop34
280
     0
102
RTVSPost2010PropOp34
 70
     1
102
RTVSPost2010Prop35
280
     0
102
RTVSPost2010PropOp35
 70
     1
102
RTVSPost2010Prop36
280
     0
102
RTVSPost2010PropOp36
 70
     1
102
RTVSPost2010Prop37
 90
       50
102
RTVSPost2010PropOp37
 70
     1
102
RTVSPost2010Prop38
140
0.0
102
RTVSPost2010PropOp38
 70
     1
102
RTVSPost2010Prop39
140
1.0
102
RTVSPost2010PropOp39
 70
     1
102
RTVSPost2010Prop40
 90
        0
102
RTVSPost2010PropOp40
 70
     1
102
RTVSPost2010Prop41ColorIndex
 90
       18
102
RTVSPost2010Prop41ColorRGB
 90
        0
102
RTVSPost2010PropOp41
 70
     1
102
RTVSPost2010Prop42
 90
       50
102
RTVSPost2010PropOp42
 70
     1
102
RTVSPost2010Prop43
 90
        3
102
RTVSPost2010PropOp43
 70
     1
102
RTVSPost2010Prop44ColorIndex
 90
        5
102
RTVSPost2010Prop44ColorRGB
 90
      255
102
RTVSPost2010PropOp44
 70
     1
102
RTVSPost2010Prop45
280
     0
102
RTVSPost2010PropOp45
 70
     1
102
RTVSPost2010Prop46
 90
       50
102
RTVSPost2010PropOp46
 70
     1
102
RTVSPost2010Prop47
 90
       50
102
RTVSPost2010PropOp47
 70
     1
102
RTVSPost2010Prop48
 90
       50
102
RTVSPost2010PropOp48
 70
     1
102
RTVSPost2010Prop49
280
     0
102
RTVSPost2010PropOp49
 70
     1
102
RTVSPost2010Prop50
 90
       50
102
RTVSPost2010PropOp50
 70
     1
102
RTVSPost2010Prop51ColorIndex
 90
      256
102
RTVSPost2010Prop51ColorRGB
 90
-16777216
102
RTVSPost2010PropOp51
 70
     0
102
RTVSPost2010Prop52
140
1.0
102
RTVSPost2010PropOp52
 70
     0
102
RTVSPost2010Prop53
 90
        2
102
RTVSPost2010PropOp53
 70
     1
102
RTVSPost2010Prop54
  1
strokes_ogs.tif
102
RTVSPost2010PropOp54
 70
     1
102
RTVSPost2010Prop55
280
     0
102
RTVSPost2010PropOp55
 70
     1
102
RTVSPost2010Prop56
140
1.0
102
RTVSPost2010PropOp56
 70
     1
102
RTVSPost2010Prop57
140
1.0
102
RTVSPost2010PropOp57
 70
     1
  0
XRECORD
  5
189
102
{ACAD_REACTORS
330
188
102
}
330
188
100
AcDbXrecord
280
     1
102
RTVSPost2010Prop28
280
     0
102
RTVSPost2010PropOp28
 70
     1
102
RTVSPost2010Prop29
280
     1
102
RTVSPost2010PropOp29
 70
     1
102
RTVSPost2010Prop30
280
     1
102
RTVSPost2010PropOp30
 70
     1
102
RTVSPost2010Prop31
280
     0
102
RTVSPost2010PropOp31
 70
     1
102
RTVSPost2010Prop32
280
     0
102
RTVSPost2010PropOp32
 70
     1
102
RTVSPost2010Prop33
280
     0
102
RTVSPost2010PropOp33
 70
     1
102
RTVSPost2010Prop34
280
     0
102
RTVSPost2010PropOp34
 70
     1
102
RTVSPost2010Prop35
280
     0
102
RTVSPost2010PropOp35
 70
     1
102
RTVSPost2010Prop36
280
     0
102
RTVSPost2010PropOp36
 70
     1
102
RTVSPost2010Prop37
 90
       50
102
RTVSPost2010PropOp37
 70
     1
102
RTVSPost2010Prop38
140
0.0
102
RTVSPost2010PropOp38
 70
     1
102
RTVSPost2010Prop39
140
1.0
102
RTVSPost2010PropOp39
 70
     1
102
RTVSPost2010Prop40
 90
        0
102
RTVSPost2010PropOp40
 70
     1
102
RTVSPost2010Prop41ColorIndex
 90
       18
102
RTVSPost2010Prop41ColorRGB
 90
        0
102
RTVSPost2010PropOp41
 70
     1
102
RTVSPost2010Prop42
 90
       50
102
RTVSPost2010PropOp42
 70
     1
102
RTVSPost2010Prop43
 90
        3
102
RTVSPost2010PropOp43
 70
     1
102
RTVSPost2010Prop44ColorIndex
 90
        5
102
RTVSPost2010Prop44ColorRGB
 90
      255
102
RTVSPost2010PropOp44
 70
     1
102
RTVSPost2010Prop45
280
     0
102
RTVSPost2010PropOp45
 70
     1
102
RTVSPost2010Prop46
 90
       50
102
RTVSPost2010PropOp46
 70
     1
102
RTVSPost2010Prop47
 90
       50
102
RTVSPost2010PropOp47
 70
     1
102
RTVSPost2010Prop48
 90
       50
102
RTVSPost2010PropOp48
 70
     1
102
RTVSPost2010Prop49
280
     0
102
RTVSPost2010PropOp49
 70
     1
102
RTVSPost2010Prop50
 90
       50
102
RTVSPost2010PropOp50
 70
     1
102
RTVSPost2010Prop51ColorIndex
 90
      256
102
RTVSPost2010Prop51ColorRGB
 90
-16777216
102
RTVSPost2010PropOp51
 70
     0
102
RTVSPost2010Prop52
140
1.0
102
RTVSPost2010PropOp52
 70
     0
102
RTVSPost2010Prop53
 90
        2
102
RTVSPost2010PropOp53
 70
     1
102
RTVSPost2010Prop54
  1
strokes_ogs.tif
102
RTVSPost2010PropOp54
 70
     1
102
RTVSPost2010Prop55
280
     0
102
RTVSPost2010PropOp55
 70
     1
102
RTVSPost2010Prop56
140
1.0
102
RTVSPost2010PropOp56
 70
     1
102
RTVSPost2010Prop57
140
1.0
102
RTVSPost2010PropOp57
 70
     1
  0
XRECORD
  5
191
102
{ACAD_REACTORS
330
190
102
}
330
190
100
AcDbXrecord
280
     1
102
RTVSPost2010Prop28
280
     0
102
RTVSPost2010PropOp28
 70
     1
102
RTVSPost2010Prop29
280
     1
102
RTVSPost2010PropOp29
 70
     1
102
RTVSPost2010Prop30
280
     1
102
RTVSPost2010PropOp30
 70
     1
102
RTVSPost2010Prop31
280
     0
102
RTVSPost2010PropOp31
 70
     1
102
RTVSPost2010Prop32
280
     0
102
RTVSPost2010PropOp32
 70
     1
102
RTVSPost2010Prop33
280
     0
102
RTVSPost2010PropOp33
 70
     1
102
RTVSPost2010Prop34
280
     0
102
RTVSPost2010PropOp34
 70
     1
102
RTVSPost2010Prop35
280
     0
102
RTVSPost2010PropOp35
 70
     1
102
RTVSPost2010Prop36
280
     0
102
RTVSPost2010PropOp36
 70
     1
102
RTVSPost2010Prop37
 90
       50
102
RTVSPost2010PropOp37
 70
     1
102
RTVSPost2010Prop38
140
0.0
102
RTVSPost2010PropOp38
 70
     1
102
RTVSPost2010Prop39
140
1.0
102
RTVSPost2010PropOp39
 70
     1
102
RTVSPost2010Prop40
 90
        0
102
RTVSPost2010PropOp40
 70
     1
102
RTVSPost2010Prop41ColorIndex
 90
       18
102
RTVSPost2010Prop41ColorRGB
 90
        0
102
RTVSPost2010PropOp41
 70
     1
102
RTVSPost2010Prop42
 90
       50
102
RTVSPost2010PropOp42
 70
     1
102
RTVSPost2010Prop43
 90
        3
102
RTVSPost2010PropOp43
 70
     1
102
RTVSPost2010Prop44ColorIndex
 90
        5
102
RTVSPost2010Prop44ColorRGB
 90
      255
102
RTVSPost2010PropOp44
 70
     1
102
RTVSPost2010Prop45
280
     0
102
RTVSPost2010PropOp45
 70
     1
102
RTVSPost2010Prop46
 90
       50
102
RTVSPost2010PropOp46
 70
     1
102
RTVSPost2010Prop47
 90
       50
102
RTVSPost2010PropOp47
 70
     1
102
RTVSPost2010Prop48
 90
       50
102
RTVSPost2010PropOp48
 70
     1
102
RTVSPost2010Prop49
280
     0
102
RTVSPost2010PropOp49
 70
     1
102
RTVSPost2010Prop50
 90
       50
102
RTVSPost2010PropOp50
 70
     1
102
RTVSPost2010Prop51ColorIndex
 90
      256
102
RTVSPost2010Prop51ColorRGB
 90
-16777216
102
RTVSPost2010PropOp51
 70
     0
102
RTVSPost2010Prop52
140
1.0
102
RTVSPost2010PropOp52
 70
     0
102
RTVSPost2010Prop53
 90
        2
102
RTVSPost2010PropOp53
 70
     1
102
RTVSPost2010Prop54
  1
strokes_ogs.tif
102
RTVSPost2010PropOp54
 70
     1
102
RTVSPost2010Prop55
280
     0
102
RTVSPost2010PropOp55
 70
     1
102
RTVSPost2010Prop56
140
1.0
102
RTVSPost2010PropOp56
 70
     1
102
RTVSPost2010Prop57
140
1.0
102
RTVSPost2010PropOp57
 70
     1
  0
XRECORD
  5
1AD
102
{ACAD_REACTORS
330
1AC
102
}
330
1AC
100
AcDbXrecord
280
     1
102
RTVSPost2010Prop28
280
     0
102
RTVSPost2010PropOp28
 70
     0
102
RTVSPost2010Prop29
280
     1
102
RTVSPost2010PropOp29
 70
     0
102
RTVSPost2010Prop30
280
     1
102
RTVSPost2010PropOp30
 70
     0
102
RTVSPost2010Prop31
280
     0
102
RTVSPost2010PropOp31
 70
     0
102
RTVSPost2010Prop32
280
     0
102
RTVSPost2010PropOp32
 70
     0
102
RTVSPost2010Prop33
280
     0
102
RTVSPost2010PropOp33
 70
     0
102
RTVSPost2010Prop34
280
     0
102
RTVSPost2010PropOp34
 70
     0
102
RTVSPost2010Prop35
280
     0
102
RTVSPost2010PropOp35
 70
     0
102
RTVSPost2010Prop36
280
     0
102
RTVSPost2010PropOp36
 70
     0
102
RTVSPost2010Prop37
 90
       50
102
RTVSPost2010PropOp37
 70
     0
102
RTVSPost2010Prop38
140
0.0
102
RTVSPost2010PropOp38
 70
     0
102
RTVSPost2010Prop39
140
1.0
102
RTVSPost2010PropOp39
 70
     0
102
RTVSPost2010Prop40
 90
        0
102
RTVSPost2010PropOp40
 70
     0
102
RTVSPost2010Prop41ColorIndex
 90
       18
102
RTVSPost2010Prop41ColorRGB
 90
        0
102
RTVSPost2010PropOp41
 70
     0
102
RTVSPost2010Prop42
 90
       50
102
RTVSPost2010PropOp42
 70
     0
102
RTVSPost2010Prop43
 90
        3
102
RTVSPost2010PropOp43
 70
     0
102
RTVSPost2010Prop44ColorIndex
 90
        5
102
RTVSPost2010Prop44ColorRGB
 90
      255
102
RTVSPost2010PropOp44
 70
     0
102
RTVSPost2010Prop45
280
     0
102
RTVSPost2010PropOp45
 70
     0
102
RTVSPost2010Prop46
 90
       50
102
RTVSPost2010PropOp46
 70
     0
102
RTVSPost2010Prop47
 90
       50
102
RTVSPost2010PropOp47
 70
     0
102
RTVSPost2010Prop48
 90
       50
102
RTVSPost2010PropOp48
 70
     0
102
RTVSPost2010Prop49
280
     0
102
RTVSPost2010PropOp49
 70
     0
102
RTVSPost2010Prop50
 90
       50
102
RTVSPost2010PropOp50
 70
     0
102
RTVSPost2010Prop51ColorIndex
 90
      256
102
RTVSPost2010Prop51ColorRGB
 90
-16777216
102
RTVSPost2010PropOp51
 70
     0
102
RTVSPost2010Prop52
140
1.0
102
RTVSPost2010PropOp52
 70
     0
102
RTVSPost2010Prop53
 90
        2
102
RTVSPost2010PropOp53
 70
     0
102
RTVSPost2010Prop54
  1
strokes_ogs.tif
102
RTVSPost2010PropOp54
 70
     0
102
RTVSPost2010Prop55
280
     0
102
RTVSPost2010PropOp55
 70
     0
102
RTVSPost2010Prop56
140
1.0
102
RTVSPost2010PropOp56
 70
     0
102
RTVSPost2010Prop57
140
1.0
102
RTVSPost2010PropOp57
 70
     0
  0
XRECORD
  5
19D
102
{ACAD_REACTORS
330
19C
102
}
330
19C
100
AcDbXrecord
280
     1
102
RTVSPost2010Prop28
280
     0
102
RTVSPost2010PropOp28
 70
     1
102
RTVSPost2010Prop29
280
     1
102
RTVSPost2010PropOp29
 70
     1
102
RTVSPost2010Prop30
280
     1
102
RTVSPost2010PropOp30
 70
     1
102
RTVSPost2010Prop31
280
     0
102
RTVSPost2010PropOp31
 70
     1
102
RTVSPost2010Prop32
280
     0
102
RTVSPost2010PropOp32
 70
     1
102
RTVSPost2010Prop33
280
     0
102
RTVSPost2010PropOp33
 70
     1
102
RTVSPost2010Prop34
280
     0
102
RTVSPost2010PropOp34
 70
     1
102
RTVSPost2010Prop35
280
     0
102
RTVSPost2010PropOp35
 70
     1
102
RTVSPost2010Prop36
280
     0
102
RTVSPost2010PropOp36
 70
     1
102
RTVSPost2010Prop37
 90
       50
102
RTVSPost2010PropOp37
 70
     1
102
RTVSPost2010Prop38
140
0.0
102
RTVSPost2010PropOp38
 70
     1
102
RTVSPost2010Prop39
140
1.0
102
RTVSPost2010PropOp39
 70
     1
102
RTVSPost2010Prop40
 90
        0
102
RTVSPost2010PropOp40
 70
     1
102
RTVSPost2010Prop41ColorIndex
 90
       18
102
RTVSPost2010Prop41ColorRGB
 90
        0
102
RTVSPost2010PropOp41
 70
     1
102
RTVSPost2010Prop42
 90
       50
102
RTVSPost2010PropOp42
 70
     1
102
RTVSPost2010Prop43
 90
        3
102
RTVSPost2010PropOp43
 70
     1
102
RTVSPost2010Prop44ColorIndex
 90
        5
102
RTVSPost2010Prop44ColorRGB
 90
      255
102
RTVSPost2010PropOp44
 70
     1
102
RTVSPost2010Prop45
280
     0
102
RTVSPost2010PropOp45
 70
     1
102
RTVSPost2010Prop46
 90
       50
102
RTVSPost2010PropOp46
 70
     1
102
RTVSPost2010Prop47
 90
       50
102
RTVSPost2010PropOp47
 70
     1
102
RTVSPost2010Prop48
 90
       50
102
RTVSPost2010PropOp48
 70
     1
102
RTVSPost2010Prop49
280
     0
102
RTVSPost2010PropOp49
 70
     1
102
RTVSPost2010Prop50
 90
       50
102
RTVSPost2010PropOp50
 70
     1
102
RTVSPost2010Prop51ColorIndex
 90
      256
102
RTVSPost2010Prop51ColorRGB
 90
-16777216
102
RTVSPost2010PropOp51
 70
     0
102
RTVSPost2010Prop52
140
1.0
102
RTVSPost2010PropOp52
 70
     0
102
RTVSPost2010Prop53
 90
        2
102
RTVSPost2010PropOp53
 70
     1
102
RTVSPost2010Prop54
  1
strokes_ogs.tif
102
RTVSPost2010PropOp54
 70
     1
102
RTVSPost2010Prop55
280
     0
102
RTVSPost2010PropOp55
 70
     1
102
RTVSPost2010Prop56
140
1.0
102
RTVSPost2010PropOp56
 70
     1
102
RTVSPost2010Prop57
140
1.0
102
RTVSPost2010PropOp57
 70
     1
  0
XRECORD
  5
1AF
102
{ACAD_REACTORS
330
1AE
102
}
330
1AE
100
AcDbXrecord
280
     1
102
RTVSPost2010Prop28
280
     0
102
RTVSPost2010PropOp28
 70
     0
102
RTVSPost2010Prop29
280
     1
102
RTVSPost2010PropOp29
 70
     0
102
RTVSPost2010Prop30
280
     1
102
RTVSPost2010PropOp30
 70
     0
102
RTVSPost2010Prop31
280
     0
102
RTVSPost2010PropOp31
 70
     0
102
RTVSPost2010Prop32
280
     0
102
RTVSPost2010PropOp32
 70
     0
102
RTVSPost2010Prop33
280
     0
102
RTVSPost2010PropOp33
 70
     0
102
RTVSPost2010Prop34
280
     0
102
RTVSPost2010PropOp34
 70
     0
102
RTVSPost2010Prop35
280
     0
102
RTVSPost2010PropOp35
 70
     0
102
RTVSPost2010Prop36
280
     0
102
RTVSPost2010PropOp36
 70
     0
102
RTVSPost2010Prop37
 90
       50
102
RTVSPost2010PropOp37
 70
     0
102
RTVSPost2010Prop38
140
0.0
102
RTVSPost2010PropOp38
 70
     0
102
RTVSPost2010Prop39
140
1.0
102
RTVSPost2010PropOp39
 70
     0
102
RTVSPost2010Prop40
 90
        0
102
RTVSPost2010PropOp40
 70
     0
102
RTVSPost2010Prop41ColorIndex
 90
       18
102
RTVSPost2010Prop41ColorRGB
 90
        0
102
RTVSPost2010PropOp41
 70
     0
102
RTVSPost2010Prop42
 90
       50
102
RTVSPost2010PropOp42
 70
     0
102
RTVSPost2010Prop43
 90
        3
102
RTVSPost2010PropOp43
 70
     0
102
RTVSPost2010Prop44ColorIndex
 90
        5
102
RTVSPost2010Prop44ColorRGB
 90
      255
102
RTVSPost2010PropOp44
 70
     0
102
RTVSPost2010Prop45
280
     0
102
RTVSPost2010PropOp45
 70
     0
102
RTVSPost2010Prop46
 90
       50
102
RTVSPost2010PropOp46
 70
     0
102
RTVSPost2010Prop47
 90
       50
102
RTVSPost2010PropOp47
 70
     0
102
RTVSPost2010Prop48
 90
       50
102
RTVSPost2010PropOp48
 70
     0
102
RTVSPost2010Prop49
280
     0
102
RTVSPost2010PropOp49
 70
     0
102
RTVSPost2010Prop50
 90
       50
102
RTVSPost2010PropOp50
 70
     0
102
RTVSPost2010Prop51ColorIndex
 90
      256
102
RTVSPost2010Prop51ColorRGB
 90
-16777216
102
RTVSPost2010PropOp51
 70
     0
102
RTVSPost2010Prop52
140
1.0
102
RTVSPost2010PropOp52
 70
     0
102
RTVSPost2010Prop53
 90
        2
102
RTVSPost2010PropOp53
 70
     0
102
RTVSPost2010Prop54
  1
strokes_ogs.tif
102
RTVSPost2010PropOp54
 70
     0
102
RTVSPost2010Prop55
280
     0
102
RTVSPost2010PropOp55
 70
     0
102
RTVSPost2010Prop56
140
1.0
102
RTVSPost2010PropOp56
 70
     0
102
RTVSPost2010Prop57
140
1.0
102
RTVSPost2010PropOp57
 70
     0
  0
XRECORD
  5
195
102
{ACAD_REACTORS
330
194
102
}
330
194
100
AcDbXrecord
280
     1
102
RTVSPost2010Prop28
280
     0
102
RTVSPost2010PropOp28
 70
     1
102
RTVSPost2010Prop29
280
     1
102
RTVSPost2010PropOp29
 70
     1
102
RTVSPost2010Prop30
280
     1
102
RTVSPost2010PropOp30
 70
     1
102
RTVSPost2010Prop31
280
     0
102
RTVSPost2010PropOp31
 70
     1
102
RTVSPost2010Prop32
280
     0
102
RTVSPost2010PropOp32
 70
     1
102
RTVSPost2010Prop33
280
     0
102
RTVSPost2010PropOp33
 70
     1
102
RTVSPost2010Prop34
280
     0
102
RTVSPost2010PropOp34
 70
     1
102
RTVSPost2010Prop35
280
     0
102
RTVSPost2010PropOp35
 70
     1
102
RTVSPost2010Prop36
280
     0
102
RTVSPost2010PropOp36
 70
     1
102
RTVSPost2010Prop37
 90
       50
102
RTVSPost2010PropOp37
 70
     1
102
RTVSPost2010Prop38
140
0.0
102
RTVSPost2010PropOp38
 70
     1
102
RTVSPost2010Prop39
140
1.0
102
RTVSPost2010PropOp39
 70
     1
102
RTVSPost2010Prop40
 90
        0
102
RTVSPost2010PropOp40
 70
     1
102
RTVSPost2010Prop41ColorIndex
 90
       18
102
RTVSPost2010Prop41ColorRGB
 90
        0
102
RTVSPost2010PropOp41
 70
     1
102
RTVSPost2010Prop42
 90
       50
102
RTVSPost2010PropOp42
 70
     1
102
RTVSPost2010Prop43
 90
        3
102
RTVSPost2010PropOp43
 70
     1
102
RTVSPost2010Prop44ColorIndex
 90
        5
102
RTVSPost2010Prop44ColorRGB
 90
      255
102
RTVSPost2010PropOp44
 70
     1
102
RTVSPost2010Prop45
280
     0
102
RTVSPost2010PropOp45
 70
     1
102
RTVSPost2010Prop46
 90
       50
102
RTVSPost2010PropOp46
 70
     1
102
RTVSPost2010Prop47
 90
       50
102
RTVSPost2010PropOp47
 70
     1
102
RTVSPost2010Prop48
 90
       50
102
RTVSPost2010PropOp48
 70
     1
102
RTVSPost2010Prop49
280
     0
102
RTVSPost2010PropOp49
 70
     1
102
RTVSPost2010Prop50
 90
       50
102
RTVSPost2010PropOp50
 70
     1
102
RTVSPost2010Prop51ColorIndex
 90
      256
102
RTVSPost2010Prop51ColorRGB
 90
-16777216
102
RTVSPost2010PropOp51
 70
     0
102
RTVSPost2010Prop52
140
1.0
102
RTVSPost2010PropOp52
 70
     0
102
RTVSPost2010Prop53
 90
        2
102
RTVSPost2010PropOp53
 70
     1
102
RTVSPost2010Prop54
  1
strokes_ogs.tif
102
RTVSPost2010PropOp54
 70
     1
102
RTVSPost2010Prop55
280
     0
102
RTVSPost2010PropOp55
 70
     1
102
RTVSPost2010Prop56
140
1.0
102
RTVSPost2010PropOp56
 70
     1
102
RTVSPost2010Prop57
140
1.0
102
RTVSPost2010PropOp57
 70
     1
  0
XRECORD
  5
1AB
102
{ACAD_REACTORS
330
1AA
102
}
330
1AA
100
AcDbXrecord
280
     1
102
RTVSPost2010Prop28
280
     0
102
RTVSPost2010PropOp28
 70
     1
102
RTVSPost2010Prop29
280
     1
102
RTVSPost2010PropOp29
 70
     1
102
RTVSPost2010Prop30
280
     1
102
RTVSPost2010PropOp30
 70
     1
102
RTVSPost2010Prop31
280
     0
102
RTVSPost2010PropOp31
 70
     1
102
RTVSPost2010Prop32
280
     0
102
RTVSPost2010PropOp32
 70
     1
102
RTVSPost2010Prop33
280
     0
102
RTVSPost2010PropOp33
 70
     1
102
RTVSPost2010Prop34
280
     0
102
RTVSPost2010PropOp34
 70
     1
102
RTVSPost2010Prop35
280
     0
102
RTVSPost2010PropOp35
 70
     1
102
RTVSPost2010Prop36
280
     0
102
RTVSPost2010PropOp36
 70
     1
102
RTVSPost2010Prop37
 90
       50
102
RTVSPost2010PropOp37
 70
     1
102
RTVSPost2010Prop38
140
0.0
102
RTVSPost2010PropOp38
 70
     1
102
RTVSPost2010Prop39
140
1.0
102
RTVSPost2010PropOp39
 70
     1
102
RTVSPost2010Prop40
 90
        0
102
RTVSPost2010PropOp40
 70
     1
102
RTVSPost2010Prop41ColorIndex
 90
       18
102
RTVSPost2010Prop41ColorRGB
 90
        0
102
RTVSPost2010PropOp41
 70
     1
102
RTVSPost2010Prop42
 90
       50
102
RTVSPost2010PropOp42
 70
     1
102
RTVSPost2010Prop43
 90
        3
102
RTVSPost2010PropOp43
 70
     1
102
RTVSPost2010Prop44ColorIndex
 90
        5
102
RTVSPost2010Prop44ColorRGB
 90
      255
102
RTVSPost2010PropOp44
 70
     1
102
RTVSPost2010Prop45
280
     0
102
RTVSPost2010PropOp45
 70
     1
102
RTVSPost2010Prop46
 90
       50
102
RTVSPost2010PropOp46
 70
     1
102
RTVSPost2010Prop47
 90
       50
102
RTVSPost2010PropOp47
 70
     1
102
RTVSPost2010Prop48
 90
       50
102
RTVSPost2010PropOp48
 70
     1
102
RTVSPost2010Prop49
280
     0
102
RTVSPost2010PropOp49
 70
     1
102
RTVSPost2010Prop50
 90
       50
102
RTVSPost2010PropOp50
 70
     1
102
RTVSPost2010Prop51ColorIndex
 90
      256
102
RTVSPost2010Prop51ColorRGB
 90
-16777216
102
RTVSPost2010PropOp51
 70
     0
102
RTVSPost2010Prop52
140
1.0
102
RTVSPost2010PropOp52
 70
     0
102
RTVSPost2010Prop53
 90
        2
102
RTVSPost2010PropOp53
 70
     1
102
RTVSPost2010Prop54
  1
strokes_ogs.tif
102
RTVSPost2010PropOp54
 70
     1
102
RTVSPost2010Prop55
280
     0
102
RTVSPost2010PropOp55
 70
     1
102
RTVSPost2010Prop56
140
1.0
102
RTVSPost2010PropOp56
 70
     1
102
RTVSPost2010Prop57
140
1.0
102
RTVSPost2010PropOp57
 70
     1
  0
XRECORD
  5
1A9
102
{ACAD_REACTORS
330
1A8
102
}
330
1A8
100
AcDbXrecord
280
     1
102
RTVSPost2010Prop28
280
     0
102
RTVSPost2010PropOp28
 70
     1
102
RTVSPost2010Prop29
280
     1
102
RTVSPost2010PropOp29
 70
     1
102
RTVSPost2010Prop30
280
     1
102
RTVSPost2010PropOp30
 70
     1
102
RTVSPost2010Prop31
280
     0
102
RTVSPost2010PropOp31
 70
     1
102
RTVSPost2010Prop32
280
     0
102
RTVSPost2010PropOp32
 70
     1
102
RTVSPost2010Prop33
280
     0
102
RTVSPost2010PropOp33
 70
     1
102
RTVSPost2010Prop34
280
     0
102
RTVSPost2010PropOp34
 70
     1
102
RTVSPost2010Prop35
280
     0
102
RTVSPost2010PropOp35
 70
     1
102
RTVSPost2010Prop36
280
     0
102
RTVSPost2010PropOp36
 70
     1
102
RTVSPost2010Prop37
 90
       50
102
RTVSPost2010PropOp37
 70
     1
102
RTVSPost2010Prop38
140
0.0
102
RTVSPost2010PropOp38
 70
     1
102
RTVSPost2010Prop39
140
1.0
102
RTVSPost2010PropOp39
 70
     1
102
RTVSPost2010Prop40
 90
        0
102
RTVSPost2010PropOp40
 70
     1
102
RTVSPost2010Prop41ColorIndex
 90
       18
102
RTVSPost2010Prop41ColorRGB
 90
        0
102
RTVSPost2010PropOp41
 70
     1
102
RTVSPost2010Prop42
 90
       50
102
RTVSPost2010PropOp42
 70
     1
102
RTVSPost2010Prop43
 90
        3
102
RTVSPost2010PropOp43
 70
     1
102
RTVSPost2010Prop44ColorIndex
 90
        5
102
RTVSPost2010Prop44ColorRGB
 90
      255
102
RTVSPost2010PropOp44
 70
     1
102
RTVSPost2010Prop45
280
     0
102
RTVSPost2010PropOp45
 70
     1
102
RTVSPost2010Prop46
 90
       50
102
RTVSPost2010PropOp46
 70
     1
102
RTVSPost2010Prop47
 90
       50
102
RTVSPost2010PropOp47
 70
     1
102
RTVSPost2010Prop48
 90
       50
102
RTVSPost2010PropOp48
 70
     1
102
RTVSPost2010Prop49
280
     0
102
RTVSPost2010PropOp49
 70
     1
102
RTVSPost2010Prop50
 90
       50
102
RTVSPost2010PropOp50
 70
     1
102
RTVSPost2010Prop51ColorIndex
 90
      256
102
RTVSPost2010Prop51ColorRGB
 90
-16777216
102
RTVSPost2010PropOp51
 70
     0
102
RTVSPost2010Prop52
140
1.0
102
RTVSPost2010PropOp52
 70
     0
102
RTVSPost2010Prop53
 90
        2
102
RTVSPost2010PropOp53
 70
     1
102
RTVSPost2010Prop54
  1
strokes_ogs.tif
102
RTVSPost2010PropOp54
 70
     1
102
RTVSPost2010Prop55
280
     0
102
RTVSPost2010PropOp55
 70
     1
102
RTVSPost2010Prop56
140
1.0
102
RTVSPost2010PropOp56
 70
     1
102
RTVSPost2010Prop57
140
1.0
102
RTVSPost2010PropOp57
 70
     1
  0
XRECORD
  5
1A3
102
{ACAD_REACTORS
330
1A2
102
}
330
1A2
100
AcDbXrecord
280
     1
102
RTVSPost2010Prop28
280
     0
102
RTVSPost2010PropOp28
 70
     1
102
RTVSPost2010Prop29
280
     1
102
RTVSPost2010PropOp29
 70
     1
102
RTVSPost2010Prop30
280
     1
102
RTVSPost2010PropOp30
 70
     1
102
RTVSPost2010Prop31
280
     0
102
RTVSPost2010PropOp31
 70
     1
102
RTVSPost2010Prop32
280
     0
102
RTVSPost2010PropOp32
 70
     1
102
RTVSPost2010Prop33
280
     0
102
RTVSPost2010PropOp33
 70
     1
102
RTVSPost2010Prop34
280
     0
102
RTVSPost2010PropOp34
 70
     1
102
RTVSPost2010Prop35
280
     0
102
RTVSPost2010PropOp35
 70
     1
102
RTVSPost2010Prop36
280
     0
102
RTVSPost2010PropOp36
 70
     1
102
RTVSPost2010Prop37
 90
       50
102
RTVSPost2010PropOp37
 70
     1
102
RTVSPost2010Prop38
140
0.0
102
RTVSPost2010PropOp38
 70
     1
102
RTVSPost2010Prop39
140
1.0
102
RTVSPost2010PropOp39
 70
     1
102
RTVSPost2010Prop40
 90
        0
102
RTVSPost2010PropOp40
 70
     1
102
RTVSPost2010Prop41ColorIndex
 90
       18
102
RTVSPost2010Prop41ColorRGB
 90
        0
102
RTVSPost2010PropOp41
 70
     1
102
RTVSPost2010Prop42
 90
       50
102
RTVSPost2010PropOp42
 70
     1
102
RTVSPost2010Prop43
 90
        3
102
RTVSPost2010PropOp43
 70
     1
102
RTVSPost2010Prop44ColorIndex
 90
        5
102
RTVSPost2010Prop44ColorRGB
 90
      255
102
RTVSPost2010PropOp44
 70
     1
102
RTVSPost2010Prop45
280
     0
102
RTVSPost2010PropOp45
 70
     1
102
RTVSPost2010Prop46
 90
       50
102
RTVSPost2010PropOp46
 70
     1
102
RTVSPost2010Prop47
 90
       50
102
RTVSPost2010PropOp47
 70
     1
102
RTVSPost2010Prop48
 90
       50
102
RTVSPost2010PropOp48
 70
     1
102
RTVSPost2010Prop49
280
     0
102
RTVSPost2010PropOp49
 70
     1
102
RTVSPost2010Prop50
 90
       50
102
RTVSPost2010PropOp50
 70
     1
102
RTVSPost2010Prop51ColorIndex
 90
      256
102
RTVSPost2010Prop51ColorRGB
 90
-16777216
102
RTVSPost2010PropOp51
 70
     0
102
RTVSPost2010Prop52
140
1.0
102
RTVSPost2010PropOp52
 70
     0
102
RTVSPost2010Prop53
 90
        2
102
RTVSPost2010PropOp53
 70
     1
102
RTVSPost2010Prop54
  1
strokes_ogs.tif
102
RTVSPost2010PropOp54
 70
     1
102
RTVSPost2010Prop55
280
     0
102
RTVSPost2010PropOp55
 70
     1
102
RTVSPost2010Prop56
140
1.0
102
RTVSPost2010PropOp56
 70
     1
102
RTVSPost2010Prop57
140
1.0
102
RTVSPost2010PropOp57
 70
     1
  0
XRECORD
  5
1A5
102
{ACAD_REACTORS
330
1A4
102
}
330
1A4
100
AcDbXrecord
280
     1
102
RTVSPost2010Prop28
280
     0
102
RTVSPost2010PropOp28
 70
     1
102
RTVSPost2010Prop29
280
     1
102
RTVSPost2010PropOp29
 70
     1
102
RTVSPost2010Prop30
280
     1
102
RTVSPost2010PropOp30
 70
     1
102
RTVSPost2010Prop31
280
     0
102
RTVSPost2010PropOp31
 70
     1
102
RTVSPost2010Prop32
280
     0
102
RTVSPost2010PropOp32
 70
     1
102
RTVSPost2010Prop33
280
     0
102
RTVSPost2010PropOp33
 70
     1
102
RTVSPost2010Prop34
280
     0
102
RTVSPost2010PropOp34
 70
     1
102
RTVSPost2010Prop35
280
     0
102
RTVSPost2010PropOp35
 70
     1
102
RTVSPost2010Prop36
280
     0
102
RTVSPost2010PropOp36
 70
     1
102
RTVSPost2010Prop37
 90
       50
102
RTVSPost2010PropOp37
 70
     1
102
RTVSPost2010Prop38
140
0.0
102
RTVSPost2010PropOp38
 70
     1
102
RTVSPost2010Prop39
140
1.0
102
RTVSPost2010PropOp39
 70
     1
102
RTVSPost2010Prop40
 90
        0
102
RTVSPost2010PropOp40
 70
     1
102
RTVSPost2010Prop41ColorIndex
 90
       18
102
RTVSPost2010Prop41ColorRGB
 90
        0
102
RTVSPost2010PropOp41
 70
     1
102
RTVSPost2010Prop42
 90
       50
102
RTVSPost2010PropOp42
 70
     1
102
RTVSPost2010Prop43
 90
        3
102
RTVSPost2010PropOp43
 70
     1
102
RTVSPost2010Prop44ColorIndex
 90
        5
102
RTVSPost2010Prop44ColorRGB
 90
      255
102
RTVSPost2010PropOp44
 70
     1
102
RTVSPost2010Prop45
280
     0
102
RTVSPost2010PropOp45
 70
     1
102
RTVSPost2010Prop46
 90
       50
102
RTVSPost2010PropOp46
 70
     1
102
RTVSPost2010Prop47
 90
       50
102
RTVSPost2010PropOp47
 70
     1
102
RTVSPost2010Prop48
 90
       50
102
RTVSPost2010PropOp48
 70
     1
102
RTVSPost2010Prop49
280
     0
102
RTVSPost2010PropOp49
 70
     1
102
RTVSPost2010Prop50
 90
       50
102
RTVSPost2010PropOp50
 70
     1
102
RTVSPost2010Prop51ColorIndex
 90
      256
102
RTVSPost2010Prop51ColorRGB
 90
-16777216
102
RTVSPost2010PropOp51
 70
     0
102
RTVSPost2010Prop52
140
1.0
102
RTVSPost2010PropOp52
 70
     0
102
RTVSPost2010Prop53
 90
        2
102
RTVSPost2010PropOp53
 70
     1
102
RTVSPost2010Prop54
  1
strokes_ogs.tif
102
RTVSPost2010PropOp54
 70
     1
102
RTVSPost2010Prop55
280
     0
102
RTVSPost2010PropOp55
 70
     1
102
RTVSPost2010Prop56
140
1.0
102
RTVSPost2010PropOp56
 70
     1
102
RTVSPost2010Prop57
140
1.0
102
RTVSPost2010PropOp57
 70
     1
  0
XRECORD
  5
19B
102
{ACAD_REACTORS
330
19A
102
}
330
19A
100
AcDbXrecord
280
     1
102
RTVSPost2010Prop28
280
     0
102
RTVSPost2010PropOp28
 70
     1
102
RTVSPost2010Prop29
280
     1
102
RTVSPost2010PropOp29
 70
     1
102
RTVSPost2010Prop30
280
     1
102
RTVSPost2010PropOp30
 70
     1
102
RTVSPost2010Prop31
280
     0
102
RTVSPost2010PropOp31
 70
     1
102
RTVSPost2010Prop32
280
     0
102
RTVSPost2010PropOp32
 70
     1
102
RTVSPost2010Prop33
280
     0
102
RTVSPost2010PropOp33
 70
     1
102
RTVSPost2010Prop34
280
     0
102
RTVSPost2010PropOp34
 70
     1
102
RTVSPost2010Prop35
280
     0
102
RTVSPost2010PropOp35
 70
     1
102
RTVSPost2010Prop36
280
     0
102
RTVSPost2010PropOp36
 70
     1
102
RTVSPost2010Prop37
 90
       50
102
RTVSPost2010PropOp37
 70
     1
102
RTVSPost2010Prop38
140
0.0
102
RTVSPost2010PropOp38
 70
     1
102
RTVSPost2010Prop39
140
1.0
102
RTVSPost2010PropOp39
 70
     1
102
RTVSPost2010Prop40
 90
        0
102
RTVSPost2010PropOp40
 70
     1
102
RTVSPost2010Prop41ColorIndex
 90
       18
102
RTVSPost2010Prop41ColorRGB
 90
        0
102
RTVSPost2010PropOp41
 70
     1
102
RTVSPost2010Prop42
 90
       50
102
RTVSPost2010PropOp42
 70
     1
102
RTVSPost2010Prop43
 90
        3
102
RTVSPost2010PropOp43
 70
     1
102
RTVSPost2010Prop44ColorIndex
 90
        5
102
RTVSPost2010Prop44ColorRGB
 90
      255
102
RTVSPost2010PropOp44
 70
     1
102
RTVSPost2010Prop45
280
     0
102
RTVSPost2010PropOp45
 70
     1
102
RTVSPost2010Prop46
 90
       50
102
RTVSPost2010PropOp46
 70
     1
102
RTVSPost2010Prop47
 90
       50
102
RTVSPost2010PropOp47
 70
     1
102
RTVSPost2010Prop48
 90
       50
102
RTVSPost2010PropOp48
 70
     1
102
RTVSPost2010Prop49
280
     0
102
RTVSPost2010PropOp49
 70
     1
102
RTVSPost2010Prop50
 90
       50
102
RTVSPost2010PropOp50
 70
     1
102
RTVSPost2010Prop51ColorIndex
 90
      256
102
RTVSPost2010Prop51ColorRGB
 90
-16777216
102
RTVSPost2010PropOp51
 70
     0
102
RTVSPost2010Prop52
140
1.0
102
RTVSPost2010PropOp52
 70
     0
102
RTVSPost2010Prop53
 90
        2
102
RTVSPost2010PropOp53
 70
     1
102
RTVSPost2010Prop54
  1
strokes_ogs.tif
102
RTVSPost2010PropOp54
 70
     1
102
RTVSPost2010Prop55
280
     0
102
RTVSPost2010PropOp55
 70
     1
102
RTVSPost2010Prop56
140
1.0
102
RTVSPost2010PropOp56
 70
     1
102
RTVSPost2010Prop57
140
1.0
102
RTVSPost2010PropOp57
 70
     1
  0
XRECORD
  5
18F
102
{ACAD_REACTORS
330
18E
102
}
330
18E
100
AcDbXrecord
280
     1
102
RTVSPost2010Prop28
280
     0
102
RTVSPost2010PropOp28
 70
     1
102
RTVSPost2010Prop29
280
     1
102
RTVSPost2010PropOp29
 70
     1
102
RTVSPost2010Prop30
280
     1
102
RTVSPost2010PropOp30
 70
     1
102
RTVSPost2010Prop31
280
     0
102
RTVSPost2010PropOp31
 70
     1
102
RTVSPost2010Prop32
280
     0
102
RTVSPost2010PropOp32
 70
     1
102
RTVSPost2010Prop33
280
     0
102
RTVSPost2010PropOp33
 70
     1
102
RTVSPost2010Prop34
280
     0
102
RTVSPost2010PropOp34
 70
     1
102
RTVSPost2010Prop35
280
     0
102
RTVSPost2010PropOp35
 70
     1
102
RTVSPost2010Prop36
280
     0
102
RTVSPost2010PropOp36
 70
     1
102
RTVSPost2010Prop37
 90
       50
102
RTVSPost2010PropOp37
 70
     1
102
RTVSPost2010Prop38
140
0.0
102
RTVSPost2010PropOp38
 70
     1
102
RTVSPost2010Prop39
140
1.0
102
RTVSPost2010PropOp39
 70
     1
102
RTVSPost2010Prop40
 90
        0
102
RTVSPost2010PropOp40
 70
     1
102
RTVSPost2010Prop41ColorIndex
 90
       18
102
RTVSPost2010Prop41ColorRGB
 90
        0
102
RTVSPost2010PropOp41
 70
     1
102
RTVSPost2010Prop42
 90
       50
102
RTVSPost2010PropOp42
 70
     1
102
RTVSPost2010Prop43
 90
        3
102
RTVSPost2010PropOp43
 70
     1
102
RTVSPost2010Prop44ColorIndex
 90
        5
102
RTVSPost2010Prop44ColorRGB
 90
      255
102
RTVSPost2010PropOp44
 70
     1
102
RTVSPost2010Prop45
280
     0
102
RTVSPost2010PropOp45
 70
     1
102
RTVSPost2010Prop46
 90
       50
102
RTVSPost2010PropOp46
 70
     1
102
RTVSPost2010Prop47
 90
       50
102
RTVSPost2010PropOp47
 70
     1
102
RTVSPost2010Prop48
 90
       50
102
RTVSPost2010PropOp48
 70
     1
102
RTVSPost2010Prop49
280
     0
102
RTVSPost2010PropOp49
 70
     1
102
RTVSPost2010Prop50
 90
       50
102
RTVSPost2010PropOp50
 70
     1
102
RTVSPost2010Prop51ColorIndex
 90
      256
102
RTVSPost2010Prop51ColorRGB
 90
-16777216
102
RTVSPost2010PropOp51
 70
     0
102
RTVSPost2010Prop52
140
1.0
102
RTVSPost2010PropOp52
 70
     0
102
RTVSPost2010Prop53
 90
        2
102
RTVSPost2010PropOp53
 70
     1
102
RTVSPost2010Prop54
  1
strokes_ogs.tif
102
RTVSPost2010PropOp54
 70
     1
102
RTVSPost2010Prop55
280
     0
102
RTVSPost2010PropOp55
 70
     1
102
RTVSPost2010Prop56
140
1.0
102
RTVSPost2010PropOp56
 70
     1
102
RTVSPost2010Prop57
140
1.0
102
RTVSPost2010PropOp57
 70
     1
  0
XRECORD
  5
1A7
102
{ACAD_REACTORS
330
1A6
102
}
330
1A6
100
AcDbXrecord
280
     1
102
RTVSPost2010Prop28
280
     0
102
RTVSPost2010PropOp28
 70
     1
102
RTVSPost2010Prop29
280
     1
102
RTVSPost2010PropOp29
 70
     1
102
RTVSPost2010Prop30
280
     1
102
RTVSPost2010PropOp30
 70
     1
102
RTVSPost2010Prop31
280
     0
102
RTVSPost2010PropOp31
 70
     1
102
RTVSPost2010Prop32
280
     0
102
RTVSPost2010PropOp32
 70
     1
102
RTVSPost2010Prop33
280
     0
102
RTVSPost2010PropOp33
 70
     1
102
RTVSPost2010Prop34
280
     0
102
RTVSPost2010PropOp34
 70
     1
102
RTVSPost2010Prop35
280
     0
102
RTVSPost2010PropOp35
 70
     1
102
RTVSPost2010Prop36
280
     0
102
RTVSPost2010PropOp36
 70
     1
102
RTVSPost2010Prop37
 90
       50
102
RTVSPost2010PropOp37
 70
     1
102
RTVSPost2010Prop38
140
0.0
102
RTVSPost2010PropOp38
 70
     1
102
RTVSPost2010Prop39
140
1.0
102
RTVSPost2010PropOp39
 70
     1
102
RTVSPost2010Prop40
 90
        0
102
RTVSPost2010PropOp40
 70
     1
102
RTVSPost2010Prop41ColorIndex
 90
       18
102
RTVSPost2010Prop41ColorRGB
 90
        0
102
RTVSPost2010PropOp41
 70
     1
102
RTVSPost2010Prop42
 90
       50
102
RTVSPost2010PropOp42
 70
     1
102
RTVSPost2010Prop43
 90
        3
102
RTVSPost2010PropOp43
 70
     1
102
RTVSPost2010Prop44ColorIndex
 90
        5
102
RTVSPost2010Prop44ColorRGB
 90
      255
102
RTVSPost2010PropOp44
 70
     1
102
RTVSPost2010Prop45
280
     0
102
RTVSPost2010PropOp45
 70
     1
102
RTVSPost2010Prop46
 90
       50
102
RTVSPost2010PropOp46
 70
     1
102
RTVSPost2010Prop47
 90
       50
102
RTVSPost2010PropOp47
 70
     1
102
RTVSPost2010Prop48
 90
       50
102
RTVSPost2010PropOp48
 70
     1
102
RTVSPost2010Prop49
280
     0
102
RTVSPost2010PropOp49
 70
     1
102
RTVSPost2010Prop50
 90
       50
102
RTVSPost2010PropOp50
 70
     1
102
RTVSPost2010Prop51ColorIndex
 90
      256
102
RTVSPost2010Prop51ColorRGB
 90
-16777216
102
RTVSPost2010PropOp51
 70
     0
102
RTVSPost2010Prop52
140
1.0
102
RTVSPost2010PropOp52
 70
     0
102
RTVSPost2010Prop53
 90
        2
102
RTVSPost2010PropOp53
 70
     1
102
RTVSPost2010Prop54
  1
strokes_ogs.tif
102
RTVSPost2010PropOp54
 70
     1
102
RTVSPost2010Prop55
280
     0
102
RTVSPost2010PropOp55
 70
     1
102
RTVSPost2010Prop56
140
1.0
102
RTVSPost2010PropOp56
 70
     1
102
RTVSPost2010Prop57
140
1.0
102
RTVSPost2010PropOp57
 70
     1
  0
ENDSEC
  0
EOF
