  0
SECTION
  2
HEADER
  9
$ACADVER
  1
AC1024
  9
$ACADMAINTVER
 70
   205
  9
$DWGCODEPAGE
  3
ANSI_1251
  9
$INSBASE
 10
0.0
 20
0.0
 30
0.0
  9
$EXTMIN
 10
1.000000000000000E+20
 20
1.000000000000000E+20
 30
1.000000000000000E+20
  9
$EXTMAX
 10
-1.000000000000000E+20
 20
-1.000000000000000E+20
 30
-1.000000000000000E+20
  9
$LIMMIN
 10
0.0
 20
0.0
  9
$LIMMAX
 10
12.0
 20
9.0
  9
$ORTHOMODE
 70
     0
  9
$REGENMODE
 70
     1
  9
$FILLMODE
 70
     1
  9
$QTEXTMODE
 70
     0
  9
$MIRRTEXT
 70
     1
  9
$LTSCALE
 40
1.0
  9
$ATTMODE
 70
     1
  9
$TEXTSIZE
 40
0.2
  9
$TRACEWID
 40
0.05
  9
$TEXTSTYLE
  7
Standard
  9
$CLAYER
  8
OracDecor_cornice_mouldings
  9
$CELTYPE
  6
ByLayer
  9
$CECOLOR
 62
   256
  9
$CELTSCALE
 40
1.0
  9
$DISPSILH
 70
     0
  9
$DIMSCALE
 40
1.0
  9
$DIMASZ
 40
0.18
  9
$DIMEXO
 40
0.0625
  9
$DIMDLI
 40
0.38
  9
$DIMRND
 40
0.0
  9
$DIMDLE
 40
0.0
  9
$DIMEXE
 40
0.18
  9
$DIMTP
 40
0.0
  9
$DIMTM
 40
0.0
  9
$DIMTXT
 40
0.18
  9
$DIMCEN
 40
0.09
  9
$DIMTSZ
 40
0.0
  9
$DIMTOL
 70
     0
  9
$DIMLIM
 70
     0
  9
$DIMTIH
 70
     1
  9
$DIMTOH
 70
     1
  9
$DIMSE1
 70
     0
  9
$DIMSE2
 70
     0
  9
$DIMTAD
 70
     0
  9
$DIMZIN
 70
     0
  9
$DIMBLK
  1

  9
$DIMASO
 70
     1
  9
$DIMSHO
 70
     1
  9
$DIMPOST
  1

  9
$DIMAPOST
  1

  9
$DIMALT
 70
     0
  9
$DIMALTD
 70
     2
  9
$DIMALTF
 40
25.4
  9
$DIMLFAC
 40
1.0
  9
$DIMTOFL
 70
     0
  9
$DIMTVP
 40
0.0
  9
$DIMTIX
 70
     0
  9
$DIMSOXD
 70
     0
  9
$DIMSAH
 70
     0
  9
$DIMBLK1
  1

  9
$DIMBLK2
  1

  9
$DIMSTYLE
  2
Standard
  9
$DIMCLRD
 70
     0
  9
$DIMCLRE
 70
     0
  9
$DIMCLRT
 70
     0
  9
$DIMTFAC
 40
1.0
  9
$DIMGAP
 40
0.09
  9
$DIMJUST
 70
     0
  9
$DIMSD1
 70
     0
  9
$DIMSD2
 70
     0
  9
$DIMTOLJ
 70
     1
  9
$DIMTZIN
 70
     0
  9
$DIMALTZ
 70
     0
  9
$DIMALTTZ
 70
     0
  9
$DIMUPT
 70
     0
  9
$DIMDEC
 70
     4
  9
$DIMTDEC
 70
     4
  9
$DIMALTU
 70
     2
  9
$DIMALTTD
 70
     2
  9
$DIMTXSTY
  7
Standard
  9
$DIMAUNIT
 70
     0
  9
$DIMADEC
 70
     0
  9
$DIMALTRND
 40
0.0
  9
$DIMAZIN
 70
     0
  9
$DIMDSEP
 70
    46
  9
$DIMATFIT
 70
     3
  9
$DIMFRAC
 70
     0
  9
$DIMLDRBLK
  1

  9
$DIMLUNIT
 70
     2
  9
$DIMLWD
 70
    -2
  9
$DIMLWE
 70
    -2
  9
$DIMTMOVE
 70
     0
  9
$DIMFXL
 40
1.0
  9
$DIMFXLON
 70
     0
  9
$DIMJOGANG
 40
0.7853981633974483
  9
$DIMTFILL
 70
     0
  9
$DIMTFILLCLR
 70
     0
  9
$DIMARCSYM
 70
     0
  9
$DIMLTYPE
  6

  9
$DIMLTEX1
  6

  9
$DIMLTEX2
  6

  9
$DIMTXTDIRECTION
 70
     0
  9
$LUNITS
 70
     2
  9
$LUPREC
 70
     4
  9
$SKETCHINC
 40
0.1
  9
$FILLETRAD
 40
0.5
  9
$AUNITS
 70
     0
  9
$AUPREC
 70
     0
  9
$MENU
  1
.
  9
$ELEVATION
 40
0.0
  9
$PELEVATION
 40
0.0
  9
$THICKNESS
 40
0.0
  9
$LIMCHECK
 70
     0
  9
$CHAMFERA
 40
0.5
  9
$CHAMFERB
 40
0.5
  9
$CHAMFERC
 40
1.0
  9
$CHAMFERD
 40
0.0
  9
$SKPOLY
 70
     0
  9
$TDCREATE
 40
2451380.930432396
  9
$TDUCREATE
 40
2451380.805432396
  9
$TDUPDATE
 40
2451380.966180555
  9
$TDUUPDATE
 40
2451380.841180556
  9
$TDINDWG
 40
0.0075613426
  9
$TDUSRTIMER
 40
0.0075523032
  9
$USRTIMER
 70
     1
  9
$ANGBASE
 50
0.0
  9
$ANGDIR
 70
     0
  9
$PDMODE
 70
     0
  9
$PDSIZE
 40
0.0
  9
$PLINEWID
 40
0.0
  9
$SPLFRAME
 70
     0
  9
$SPLINETYPE
 70
     6
  9
$SPLINESEGS
 70
     8
  9
$HANDSEED
  5
1D7
  9
$SURFTAB1
 70
     6
  9
$SURFTAB2
 70
     6
  9
$SURFTYPE
 70
     6
  9
$SURFU
 70
     6
  9
$SURFV
 70
     6
  9
$UCSBASE
  2

  9
$UCSNAME
  2

  9
$UCSORG
 10
0.0
 20
0.0
 30
0.0
  9
$UCSXDIR
 10
1.0
 20
0.0
 30
0.0
  9
$UCSYDIR
 10
0.0
 20
1.0
 30
0.0
  9
$UCSORTHOREF
  2

  9
$UCSORTHOVIEW
 70
     0
  9
$UCSORGTOP
 10
0.0
 20
0.0
 30
0.0
  9
$UCSORGBOTTOM
 10
0.0
 20
0.0
 30
0.0
  9
$UCSORGLEFT
 10
0.0
 20
0.0
 30
0.0
  9
$UCSORGRIGHT
 10
0.0
 20
0.0
 30
0.0
  9
$UCSORGFRONT
 10
0.0
 20
0.0
 30
0.0
  9
$UCSORGBACK
 10
0.0
 20
0.0
 30
0.0
  9
$PUCSBASE
  2

  9
$PUCSNAME
  2

  9
$PUCSORG
 10
0.0
 20
0.0
 30
0.0
  9
$PUCSXDIR
 10
1.0
 20
0.0
 30
0.0
  9
$PUCSYDIR
 10
0.0
 20
1.0
 30
0.0
  9
$PUCSORTHOREF
  2

  9
$PUCSORTHOVIEW
 70
     0
  9
$PUCSORGTOP
 10
0.0
 20
0.0
 30
0.0
  9
$PUCSORGBOTTOM
 10
0.0
 20
0.0
 30
0.0
  9
$PUCSORGLEFT
 10
0.0
 20
0.0
 30
0.0
  9
$PUCSORGRIGHT
 10
0.0
 20
0.0
 30
0.0
  9
$PUCSORGFRONT
 10
0.0
 20
0.0
 30
0.0
  9
$PUCSORGBACK
 10
0.0
 20
0.0
 30
0.0
  9
$USERI1
 70
     0
  9
$USERI2
 70
     0
  9
$USERI3
 70
     0
  9
$USERI4
 70
     0
  9
$USERI5
 70
     0
  9
$USERR1
 40
0.0
  9
$USERR2
 40
0.0
  9
$USERR3
 40
0.0
  9
$USERR4
 40
0.0
  9
$USERR5
 40
0.0
  9
$WORLDVIEW
 70
     1
  9
$SHADEDGE
 70
     3
  9
$SHADEDIF
 70
    70
  9
$TILEMODE
 70
     1
  9
$MAXACTVP
 70
    64
  9
$PINSBASE
 10
0.0
 20
0.0
 30
0.0
  9
$PLIMCHECK
 70
     0
  9
$PEXTMIN
 10
1.000000000000000E+20
 20
1.000000000000000E+20
 30
1.000000000000000E+20
  9
$PEXTMAX
 10
-1.000000000000000E+20
 20
-1.000000000000000E+20
 30
-1.000000000000000E+20
  9
$PLIMMIN
 10
0.0
 20
0.0
  9
$PLIMMAX
 10
12.0
 20
9.0
  9
$UNITMODE
 70
     0
  9
$VISRETAIN
 70
     1
  9
$PLINEGEN
 70
     0
  9
$PSLTSCALE
 70
     1
  9
$TREEDEPTH
 70
  3020
  9
$CMLSTYLE
  2
Standard
  9
$CMLJUST
 70
     0
  9
$CMLSCALE
 40
1.0
  9
$PROXYGRAPHICS
 70
     1
  9
$MEASUREMENT
 70
     1
  9
$CELWEIGHT
370
    -1
  9
$ENDCAPS
280
     0
  9
$JOINSTYLE
280
     0
  9
$LWDISPLAY
290
     0
  9
$INSUNITS
 70
     4
  9
$HYPERLINKBASE
  1

  9
$STYLESHEET
  1

  9
$XEDIT
290
     1
  9
$CEPSNTYPE
380
     0
  9
$PSTYLEMODE
290
     1
  9
$FINGERPRINTGUID
  2
{12F50282-3ED8-11D3-A8B7-0060B0F84BC6}
  9
$VERSIONGUID
  2
{12F50293-3ED8-11D3-A8B7-0060B0F84BC6}
  9
$EXTNAMES
290
     1
  9
$PSVPSCALE
 40
0.0
  9
$OLESTARTUP
290
     0
  9
$SORTENTS
280
   127
  9
$INDEXCTL
280
     0
  9
$HIDETEXT
280
     0
  9
$XCLIPFRAME
280
     2
  9
$HALOGAP
280
     0
  9
$OBSCOLOR
 70
   257
  9
$OBSLTYPE
280
     0
  9
$INTERSECTIONDISPLAY
280
     0
  9
$INTERSECTIONCOLOR
 70
   257
  9
$DIMASSOC
280
     1
  9
$PROJECTNAME
  1

  9
$CAMERADISPLAY
290
     0
  9
$LENSLENGTH
 40
50.0
  9
$CAMERAHEIGHT
 40
0.0
  9
$STEPSPERSEC
 40
2.0
  9
$STEPSIZE
 40
6.0
  9
$3DDWFPREC
 40
2.0
  9
$PSOLWIDTH
 40
0.25
  9
$PSOLHEIGHT
 40
4.0
  9
$LOFTANG1
 40
1.570796326794896
  9
$LOFTANG2
 40
1.570796326794896
  9
$LOFTMAG1
 40
0.0
  9
$LOFTMAG2
 40
0.0
  9
$LOFTPARAM
 70
     7
  9
$LOFTNORMALS
280
     1
  9
$LATITUDE
 40
37.795
  9
$LONGITUDE
 40
-122.394
  9
$NORTHDIRECTION
 40
0.0
  9
$TIMEZONE
 70
 -8000
  9
$LIGHTGLYPHDISPLAY
280
     1
  9
$TILEMODELIGHTSYNCH
280
     1
  9
$CMATERIAL
347
AB
  9
$SOLIDHIST
280
     0
  9
$SHOWHIST
280
     1
  9
$DWFFRAME
280
     2
  9
$DGNFRAME
280
     0
  9
$REALWORLDSCALE
290
     1
  9
$INTERFERECOLOR
 62
     1
  9
$INTERFEREOBJVS
345
CD
  9
$INTERFEREVPVS
346
CA
  9
$CSHADOW
280
     0
  9
$SHADOWPLANELOCATION
 40
0.0
  0
ENDSEC
  0
SECTION
  2
CLASSES
  0
CLASS
  1
ACDBDICTIONARYWDFLT
  2
AcDbDictionaryWithDefault
  3
ObjectDBX Classes
 90
        0
 91
        1
280
     0
281
     0
  0
CLASS
  1
ACDBPLACEHOLDER
  2
AcDbPlaceHolder
  3
ObjectDBX Classes
 90
        0
 91
        2
280
     0
281
     0
  0
CLASS
  1
LAYOUT
  2
AcDbLayout
  3
ObjectDBX Classes
 90
        0
 91
        3
280
     0
281
     0
  0
CLASS
  1
MATERIAL
  2
AcDbMaterial
  3
ObjectDBX Classes
 90
     1153
 91
        3
280
     0
281
     0
  0
CLASS
  1
VISUALSTYLE
  2
AcDbVisualStyle
  3
ObjectDBX Classes
 90
     4095
 91
       24
280
     0
281
     0
  0
CLASS
  1
TABLESTYLE
  2
AcDbTableStyle
  3
ObjectDBX Classes
 90
     4095
 91
        1
280
     0
281
     0
  0
CLASS
  1
SCALE
  2
AcDbScale
  3
ObjectDBX Classes
 90
     1153
 91
       17
280
     0
281
     0
  0
CLASS
  1
MLEADERSTYLE
  2
AcDbMLeaderStyle
  3
ACDB_MLEADERSTYLE_CLASS
 90
     4095
 91
        1
280
     0
281
     0
  0
CLASS
  1
ACDBSECTIONVIEWSTYLE
  2
AcDbSectionViewStyle
  3
ObjectDBX Classes
 90
     1025
 91
        1
280
     0
281
     0
  0
CLASS
  1
ACDBDETAILVIEWSTYLE
  2
AcDbDetailViewStyle
  3
ObjectDBX Classes
 90
     1025
 91
        1
280
     0
281
     0
  0
CLASS
  1
MESH
  2
AcDbSubDMesh
  3
ObjectDBX Classes
 90
        0
 91
        1
280
     0
281
     1
  0
CLASS
  1
DICTIONARYVAR
  2
AcDbDictionaryVar
  3
ObjectDBX Classes
 90
        0
 91
        9
280
     0
281
     0
  0
CLASS
  1
CELLSTYLEMAP
  2
AcDbCellStyleMap
  3
ObjectDBX Classes
 90
     1152
 91
        1
280
     0
281
     0
  0
ENDSEC
  0
SECTION
  2
TABLES
  0
TABLE
  2
VPORT
  5
8
330
0
100
AcDbSymbolTable
 70
     1
  0
VPORT
  5
A8
330
8
100
AcDbSymbolTableRecord
100
AcDbViewportTableRecord
  2
*Active
 70
     0
 10
0.0
 20
0.0
 11
1.0
 21
1.0
 12
0.0001078959394363
 22
-110.6327972412109
 13
0.0
 23
0.0
 14
0.5
 24
0.5
 15
0.5
 25
0.5
 16
-1.0
 26
-1.0
 36
1.0
 17
0.0
 27
0.0
 37
0.0
 40
1536.990585294334
 41
1.426664858030793
 42
50.0
 43
0.0
 44
0.0
 50
0.0
 51
0.0
 71
     0
 72
   100
 73
     1
 74
     3
 75
     0
 76
     0
 77
     0
 78
     0
281
     0
 65
     1
110
0.0
120
0.0
130
0.0
111
1.0
121
0.0
131
0.0
112
0.0
122
1.0
132
0.0
 79
     0
146
0.0
348
C9
 60
     3
 61
     5
292
     1
282
     1
141
0.0
142
0.0
 63
   250
421
  3355443
  0
ENDTAB
  0
TABLE
  2
LTYPE
  5
5
330
0
100
AcDbSymbolTable
 70
     1
  0
LTYPE
  5
14
330
5
100
AcDbSymbolTableRecord
100
AcDbLinetypeTableRecord
  2
ByBlock
 70
     0
  3

 72
    65
 73
     0
 40
0.0
  0
LTYPE
  5
15
330
5
100
AcDbSymbolTableRecord
100
AcDbLinetypeTableRecord
  2
ByLayer
 70
     0
  3

 72
    65
 73
     0
 40
0.0
  0
LTYPE
  5
16
330
5
100
AcDbSymbolTableRecord
100
AcDbLinetypeTableRecord
  2
Continuous
 70
     0
  3
Solid line
 72
    65
 73
     0
 40
0.0
  0
ENDTAB
  0
TABLE
  2
LAYER
  5
2
330
0
100
AcDbSymbolTable
 70
     3
  0
LAYER
  5
10
330
2
100
AcDbSymbolTableRecord
100
AcDbLayerTableRecord
  2
0
 70
     0
 62
     7
  6
Continuous
370
    -3
390
F
347
BB
  0
LAYER
  5
2B
330
2
100
AcDbSymbolTableRecord
100
AcDbLayerTableRecord
  2
ASHADE
 70
     4
 62
     7
  6
Continuous
370
    -3
390
2D
347
BB
  0
LAYER
  5
F8
330
2
100
AcDbSymbolTableRecord
100
AcDbLayerTableRecord
  2
OracDecor_cornice_mouldings
 70
     0
 62
   234
420
 11606872
  6
Continuous
370
    -3
390
F
347
BB
  0
ENDTAB
  0
TABLE
  2
STYLE
  5
3
330
0
100
AcDbSymbolTable
 70
     2
  0
STYLE
  5
11
330
3
100
AcDbSymbolTableRecord
100
AcDbTextStyleTableRecord
  2
Standard
 70
     0
 40
0.0
 41
1.0
 50
0.0
 71
     0
 42
0.2
  3
txt
  4

  0
STYLE
  5
2C
330
3
100
AcDbSymbolTableRecord
100
AcDbTextStyleTableRecord
  2
ASHADE
 70
     0
 40
0.2
 41
1.0
 50
0.0
 71
     0
 42
0.2
  3
simplex
  4

  0
ENDTAB
  0
TABLE
  2
VIEW
  5
6
330
0
100
AcDbSymbolTable
 70
     0
  0
ENDTAB
  0
TABLE
  2
UCS
  5
7
330
0
100
AcDbSymbolTable
 70
     0
  0
ENDTAB
  0
TABLE
  2
APPID
  5
9
330
0
100
AcDbSymbolTable
 70
     6
  0
APPID
  5
12
330
9
100
AcDbSymbolTableRecord
100
AcDbRegAppTableRecord
  2
ACAD
 70
     0
  0
APPID
  5
8F
330
9
100
AcDbSymbolTableRecord
100
AcDbRegAppTableRecord
  2
AVE_RENDER
 70
     0
  0
APPID
  5
90
330
9
100
AcDbSymbolTableRecord
100
AcDbRegAppTableRecord
  2
AVE_ENTITY_MATERIAL
 70
     0
  0
APPID
  5
9C
330
9
100
AcDbSymbolTableRecord
100
AcDbRegAppTableRecord
  2
AVE_FINISH
 70
     0
  0
APPID
  5
9D
330
9
100
AcDbSymbolTableRecord
100
AcDbRegAppTableRecord
  2
AVE_MATERIAL
 70
     0
  0
APPID
  5
9E
330
9
100
AcDbSymbolTableRecord
100
AcDbRegAppTableRecord
  2
AVE_GLOBAL
 70
     0
  0
ENDTAB
  0
TABLE
  2
DIMSTYLE
  5
A
330
0
100
AcDbSymbolTable
 70
     1
100
AcDbDimStyleTable
 71
     0
  0
DIMSTYLE
105
27
330
A
100
AcDbSymbolTableRecord
100
AcDbDimStyleTableRecord
  2
Standard
 70
     0
340
11
  0
ENDTAB
  0
TABLE
  2
BLOCK_RECORD
  5
1
330
0
100
AcDbSymbolTable
 70
     6
  0
BLOCK_RECORD
  5
1F
330
1
100
AcDbSymbolTableRecord
100
AcDbBlockTableRecord
  2
*Model_Space
340
22
 70
     0
280
     1
281
     0
  0
BLOCK_RECORD
  5
1B
330
1
100
AcDbSymbolTableRecord
100
AcDbBlockTableRecord
  2
*Paper_Space
340
1E
 70
     0
280
     1
281
     0
  0
BLOCK_RECORD
  5
23
330
1
100
AcDbSymbolTableRecord
100
AcDbBlockTableRecord
  2
*Paper_Space0
340
26
 70
     0
280
     1
281
     0
  0
BLOCK_RECORD
  5
2E
330
1
100
AcDbSymbolTableRecord
100
AcDbBlockTableRecord
  2
direct
340
0
 70
     0
280
     1
281
     0
  0
BLOCK_RECORD
  5
42
330
1
100
AcDbSymbolTableRecord
100
AcDbBlockTableRecord
  2
overhead
340
0
 70
     0
280
     1
281
     0
  0
BLOCK_RECORD
  5
5F
330
1
100
AcDbSymbolTableRecord
100
AcDbBlockTableRecord
  2
sh_spot
340
0
 70
     0
280
     1
281
     0
  0
BLOCK_RECORD
  5
91
330
1
100
AcDbSymbolTableRecord
100
AcDbBlockTableRecord
  2
AVE_RENDER
340
0
102
{BLKREFS
331
94
331
95
331
96
331
97
331
98
331
99
331
9A
331
9B
102
}
 70
     0
280
     1
281
     0
  0
BLOCK_RECORD
  5
9F
330
1
100
AcDbSymbolTableRecord
100
AcDbBlockTableRecord
  2
AVE_GLOBAL
340
0
102
{BLKREFS
331
A2
102
}
 70
     0
280
     1
281
     0
  0
ENDTAB
  0
ENDSEC
  0
SECTION
  2
BLOCKS
  0
BLOCK
  5
20
330
1F
100
AcDbEntity
  8
0
100
AcDbBlockBegin
  2
*Model_Space
 70
     0
 10
0.0
 20
0.0
 30
0.0
  3
*Model_Space
  1

  0
ENDBLK
  5
21
330
1F
100
AcDbEntity
  8
0
100
AcDbBlockEnd
  0
BLOCK
  5
1C
330
1B
100
AcDbEntity
 67
     1
  8
0
100
AcDbBlockBegin
  2
*Paper_Space
 70
     0
 10
0.0
 20
0.0
 30
0.0
  3
*Paper_Space
  1

  0
ENDBLK
  5
1D
330
1B
100
AcDbEntity
 67
     1
  8
0
100
AcDbBlockEnd
  0
BLOCK
  5
24
330
23
100
AcDbEntity
 67
     1
  8
0
100
AcDbBlockBegin
  2
*Paper_Space0
 70
     0
 10
0.0
 20
0.0
 30
0.0
  3
*Paper_Space0
  1

  0
ENDBLK
  5
25
330
23
100
AcDbEntity
 67
     1
  8
0
100
AcDbBlockEnd
  0
BLOCK
  5
40
330
2E
100
AcDbEntity
  8
0
100
AcDbBlockBegin
  2
direct
 70
     2
 10
0.0
 20
0.0
 30
0.0
  3
direct
  1

  0
ATTDEF
  5
2F
330
2E
100
AcDbEntity
  8
ASHADE
  6
Continuous
 62
     1
100
AcDbText
 10
0.0
 20
-0.1
 30
0.0
 40
0.2
  1

  7
ASHADE
 72
     1
 11
0.0
 21
-0.1
 31
0.0
100
AcDbAttributeDefinition
280
     0
  3
Light Name
  2
SNAME
 70
     0
280
     0
  0
ARC
  5
30
330
2E
100
AcDbEntity
  8
ASHADE
  6
Continuous
 62
     7
100
AcDbCircle
 10
0.0
 20
0.0
 30
0.0
 40
0.3
100
AcDbArc
 50
205.6792886194569
 51
334.3207113805431
  0
ARC
  5
31
330
2E
100
AcDbEntity
  8
ASHADE
  6
Continuous
 62
     7
100
AcDbCircle
 10
0.0
 20
0.0
 30
0.0
 40
0.3
100
AcDbArc
 50
25.67928861945685
 51
154.3207113805431
  0
LINE
  5
32
330
2E
100
AcDbEntity
  8
ASHADE
  6
Continuous
 62
     7
100
AcDbLine
 10
-0.21
 20
0.2142428528562855
 30
0.0
 11
-0.21
 21
0.5
 31
0.0
  0
LINE
  5
33
330
2E
100
AcDbEntity
  8
ASHADE
  6
Continuous
 62
     7
100
AcDbLine
 10
-0.11
 20
0.2791057147390572
 30
0.0
 11
-0.11
 21
0.5
 31
0.0
  0
LINE
  5
34
330
2E
100
AcDbEntity
  8
ASHADE
  6
Continuous
 62
     7
100
AcDbLine
 10
0.21
 20
0.2142428528562855
 30
0.0
 11
0.21
 21
0.5
 31
0.0
  0
ATTDEF
  5
35
330
2E
100
AcDbEntity
  8
ASHADE
  6
Continuous
 62
     7
100
AcDbText
 10
0.0
 20
0.25
 30
0.0
 40
0.01
  1

100
AcDbAttributeDefinition
280
     0
  3
Look-at Y
  2
LAY
 70
     1
280
     0
  0
ATTDEF
  5
36
330
2E
100
AcDbEntity
  8
ASHADE
  6
Continuous
 62
     7
100
AcDbText
 10
0.0
 20
0.22
 30
0.0
 40
0.01
  1
1
100
AcDbAttributeDefinition
280
     0
  3
Light Intensity
  2
INTENSITY
 70
     1
280
     0
  0
ATTDEF
  5
37
330
2E
100
AcDbEntity
  8
ASHADE
  6
Continuous
 62
     7
100
AcDbText
 10
0.0
 20
0.16
 30
0.0
 40
0.01
  1
-1
100
AcDbAttributeDefinition
280
     0
  3
*not used*
  2
BEAMD
 70
     1
280
     0
  0
ATTDEF
  5
38
330
2E
100
AcDbEntity
  8
ASHADE
  6
Continuous
 62
     7
100
AcDbText
 10
0.0
 20
0.175
 30
0.0
 40
0.01
  1
-1
100
AcDbAttributeDefinition
280
     0
  3
*not used*
  2
CONED
 70
     1
280
     0
  0
ATTDEF
  5
39
330
2E
100
AcDbEntity
  8
ASHADE
  6
Continuous
 62
     7
100
AcDbText
 10
0.0
 20
0.19
 30
0.0
 40
0.01
  1
0
100
AcDbAttributeDefinition
280
     0
  3
Depth Map Size
  2
CONEA
 70
     1
280
     0
  0
ATTDEF
  5
3A
330
2E
100
AcDbEntity
  8
ASHADE
  6
Continuous
 62
     7
100
AcDbText
 10
0.0
 20
0.2050000000000001
 30
0.0
 40
0.01
  1
1,1,1
100
AcDbAttributeDefinition
280
     0
  3
Light Color (RGB)
  2
COLOR
 70
     1
280
     0
  0
ATTDEF
  5
3B
330
2E
100
AcDbEntity
  8
ASHADE
  6
Continuous
 62
     7
100
AcDbText
 10
0.0
 20
0.235
 30
0.0
 40
0.01
  1

100
AcDbAttributeDefinition
280
     0
  3
Look-at Z
  2
LAZ
 70
     1
280
     0
  0
LINE
  5
3C
330
2E
100
AcDbEntity
  8
ASHADE
  6
Continuous
 62
     7
100
AcDbLine
 10
0.0
 20
0.3
 30
0.0
 11
0.0
 21
0.5
 31
0.0
  0
LINE
  5
3D
330
2E
100
AcDbEntity
  8
ASHADE
  6
Continuous
 62
     7
100
AcDbLine
 10
0.11
 20
0.2791057147390572
 30
0.0
 11
0.11
 21
0.5
 31
0.0
  0
ATTDEF
  5
3E
330
2E
100
AcDbEntity
  8
ASHADE
  6
Continuous
 62
     7
100
AcDbText
 10
0.0
 20
0.265
 30
0.0
 40
0.01
  1

100
AcDbAttributeDefinition
280
     0
  3
Look-at X
  2
LAX
 70
     1
280
     0
  0
ATTDEF
  5
3F
330
2E
100
AcDbEntity
  8
ASHADE
  6
Continuous
 62
     7
100
AcDbText
 10
0.0
 20
0.28
 30
0.0
 40
0.01
  1

100
AcDbAttributeDefinition
280
     0
  3

  2
GNAME
 70
     1
280
     0
  0
ENDBLK
  5
41
330
2E
100
AcDbEntity
  8
0
100
AcDbBlockEnd
  0
BLOCK
  5
5D
330
42
100
AcDbEntity
  8
0
100
AcDbBlockBegin
  2
overhead
 70
     2
 10
0.0
 20
0.0
 30
0.0
  3
overhead
  1

  0
ATTDEF
  5
43
330
42
100
AcDbEntity
  8
ASHADE
  6
Continuous
 62
     1
100
AcDbText
 10
0.0
 20
-0.1
 30
0.0
 40
0.2
  1

  7
ASHADE
 72
     1
 11
0.0
 21
-0.1
 31
0.0
100
AcDbAttributeDefinition
280
     0
  3
Light Name
  2
SNAME
 70
     0
280
     0
  0
ARC
  5
44
330
42
100
AcDbEntity
  8
ASHADE
  6
Continuous
 62
     7
100
AcDbCircle
 10
0.0
 20
0.0
 30
0.0
 40
0.3
100
AcDbArc
 50
205.6792886194569
 51
334.3207113805431
  0
LINE
  5
45
330
42
100
AcDbEntity
  8
ASHADE
  6
Continuous
 62
     7
100
AcDbLine
 10
-0.2041413561583015
 20
-0.2198324514393848
 30
0.0
 11
-0.2721884748777353
 21
-0.2931099352525131
 31
0.0
  0
LINE
  5
46
330
42
100
AcDbEntity
  8
ASHADE
  6
Continuous
 62
     7
100
AcDbLine
 10
-0.1096591641591904
 20
-0.2792398032442862
 30
0.0
 11
-0.1279356915190555
 21
-0.3257797704516673
 31
0.0
  0
LINE
  5
47
330
42
100
AcDbEntity
  8
ASHADE
  6
Continuous
 62
     7
100
AcDbLine
 10
0.0
 20
-0.2999999999999999
 30
0.0
 11
0.0
 21
-0.4
 31
0.0
  0
LINE
  5
48
330
42
100
AcDbEntity
  8
ASHADE
  6
Continuous
 62
     7
100
AcDbLine
 10
0.1096591641591904
 20
-0.2792398032442862
 30
0.0
 11
0.1279356915190555
 21
-0.3257797704516673
 31
0.0
  0
LINE
  5
49
330
42
100
AcDbEntity
  8
ASHADE
  6
Continuous
 62
     7
100
AcDbLine
 10
0.2041413561583015
 20
-0.2198324514393848
 30
0.0
 11
0.2721884748777353
 21
-0.2931099352525131
 31
0.0
  0
ARC
  5
4A
330
42
100
AcDbEntity
  8
ASHADE
  6
Continuous
 62
     7
100
AcDbCircle
 10
0.0
 20
0.0
 30
0.0
 40
0.3
100
AcDbArc
 50
25.67928861945685
 51
154.3207113805431
  0
LINE
  5
4B
330
42
100
AcDbEntity
  8
ASHADE
  6
Continuous
 62
     7
100
AcDbLine
 10
-0.2703701166919155
 20
0.13
 30
0.0
 11
-0.3154318028072347
 21
0.1516666666666666
 31
0.0
  0
LINE
  5
4C
330
42
100
AcDbEntity
  8
ASHADE
  6
Continuous
 62
     7
100
AcDbLine
 10
-0.2703701166919155
 20
-0.13
 30
0.0
 11
-0.3154318028072347
 21
-0.1516666666666666
 31
0.0
  0
LINE
  5
4D
330
42
100
AcDbEntity
  8
ASHADE
  6
Continuous
 62
     7
100
AcDbLine
 10
-0.2041413561583015
 20
0.2198324514393849
 30
0.0
 11
-0.2721884748777353
 21
0.2931099352525131
 31
0.0
  0
LINE
  5
4E
330
42
100
AcDbEntity
  8
ASHADE
  6
Continuous
 62
     7
100
AcDbLine
 10
-0.1096591641591904
 20
0.2792398032442862
 30
0.0
 11
-0.1279356915190555
 21
0.3257797704516674
 31
0.0
  0
LINE
  5
4F
330
42
100
AcDbEntity
  8
ASHADE
  6
Continuous
 62
     7
100
AcDbLine
 10
0.2703701166919155
 20
-0.13
 30
0.0
 11
0.3154318028072347
 21
-0.1516666666666666
 31
0.0
  0
LINE
  5
50
330
42
100
AcDbEntity
  8
ASHADE
  6
Continuous
 62
     7
100
AcDbLine
 10
0.2703701166919155
 20
0.13
 30
0.0
 11
0.3154318028072347
 21
0.1516666666666666
 31
0.0
  0
LINE
  5
51
330
42
100
AcDbEntity
  8
ASHADE
  6
Continuous
 62
     7
100
AcDbLine
 10
0.0
 20
0.3
 30
0.0
 11
0.0
 21
0.4
 31
0.0
  0
ATTDEF
  5
52
330
42
100
AcDbEntity
  8
ASHADE
  6
Continuous
 62
     7
100
AcDbText
 10
0.0
 20
0.22
 30
0.0
 40
0.01
  1
1
100
AcDbAttributeDefinition
280
     0
  3
Light Intensity
  2
INTENSITY
 70
     1
280
     0
  0
ATTDEF
  5
53
330
42
100
AcDbEntity
  8
ASHADE
  6
Continuous
 62
     7
100
AcDbText
 10
0.0
 20
0.16
 30
0.0
 40
0.01
  1
-1
100
AcDbAttributeDefinition
280
     0
  3
*not used*
  2
BEAMD
 70
     1
280
     0
  0
ATTDEF
  5
54
330
42
100
AcDbEntity
  8
ASHADE
  6
Continuous
 62
     7
100
AcDbText
 10
0.0
 20
0.175
 30
0.0
 40
0.01
  1
-1
100
AcDbAttributeDefinition
280
     0
  3
*not used*
  2
CONED
 70
     1
280
     0
  0
ATTDEF
  5
55
330
42
100
AcDbEntity
  8
ASHADE
  6
Continuous
 62
     7
100
AcDbText
 10
0.0
 20
0.19
 30
0.0
 40
0.01
  1
0
100
AcDbAttributeDefinition
280
     0
  3
Depth Map Size
  2
CONEA
 70
     1
280
     0
  0
ATTDEF
  5
56
330
42
100
AcDbEntity
  8
ASHADE
  6
Continuous
 62
     7
100
AcDbText
 10
0.0
 20
0.2050000000000001
 30
0.0
 40
0.01
  1
1,1,1
100
AcDbAttributeDefinition
280
     0
  3
Light Color (RGB)
  2
COLOR
 70
     1
280
     0
  0
ATTDEF
  5
57
330
42
100
AcDbEntity
  8
ASHADE
  6
Continuous
 62
     7
100
AcDbText
 10
0.0
 20
0.235
 30
0.0
 40
0.01
  1

100
AcDbAttributeDefinition
280
     0
  3
Look-at Z
  2
LAZ
 70
     1
280
     0
  0
ATTDEF
  5
58
330
42
100
AcDbEntity
  8
ASHADE
  6
Continuous
 62
     7
100
AcDbText
 10
0.0
 20
0.25
 30
0.0
 40
0.01
  1

100
AcDbAttributeDefinition
280
     0
  3
Look-at Y
  2
LAY
 70
     1
280
     0
  0
ATTDEF
  5
59
330
42
100
AcDbEntity
  8
ASHADE
  6
Continuous
 62
     7
100
AcDbText
 10
0.0
 20
0.265
 30
0.0
 40
0.01
  1

100
AcDbAttributeDefinition
280
     0
  3
Look-at X
  2
LAX
 70
     1
280
     0
  0
ATTDEF
  5
5A
330
42
100
AcDbEntity
  8
ASHADE
  6
Continuous
 62
     7
100
AcDbText
 10
0.0
 20
0.28
 30
0.0
 40
0.01
  1

100
AcDbAttributeDefinition
280
     0
  3

  2
GNAME
 70
     1
280
     0
  0
LINE
  5
5B
330
42
100
AcDbEntity
  8
ASHADE
  6
Continuous
 62
     7
100
AcDbLine
 10
0.1096591641591904
 20
0.2792398032442862
 30
0.0
 11
0.1279356915190555
 21
0.3257797704516674
 31
0.0
  0
LINE
  5
5C
330
42
100
AcDbEntity
  8
ASHADE
  6
Continuous
 62
     7
100
AcDbLine
 10
0.2041413561583015
 20
0.2198324514393849
 30
0.0
 11
0.2721884748777353
 21
0.2931099352525131
 31
0.0
  0
ENDBLK
  5
5E
330
42
100
AcDbEntity
  8
0
100
AcDbBlockEnd
  0
BLOCK
  5
85
330
5F
100
AcDbEntity
  8
0
100
AcDbBlockBegin
  2
sh_spot
 70
     2
 10
0.0
 20
0.0
 30
0.0
  3
sh_spot
  1

  0
LINE
  5
60
330
5F
100
AcDbEntity
  8
ASHADE
  6
Continuous
 62
     7
100
AcDbLine
 10
0.25
 20
0.26
 30
0.0
 11
-0.25
 21
0.26
 31
0.0
  0
LINE
  5
61
330
5F
100
AcDbEntity
  8
ASHADE
  6
Continuous
 62
     7
100
AcDbLine
 10
-0.25
 20
-0.3399999999999999
 30
0.0
 11
0.25
 21
-0.3399999999999999
 31
0.0
  0
ATTDEF
  5
62
330
5F
100
AcDbEntity
  8
ASHADE
  6
Continuous
 62
     1
100
AcDbText
 10
0.0
 20
-0.1
 30
0.0
 40
0.2
  1

  7
ASHADE
 72
     1
 11
0.0
 21
-0.1
 31
0.0
100
AcDbAttributeDefinition
280
     0
  3
Light Name
  2
SNAME
 70
     0
280
     0
  0
LINE
  5
63
330
5F
100
AcDbEntity
  8
ASHADE
  6
Continuous
 62
     7
100
AcDbLine
 10
-0.25
 20
-0.13
 30
0.0
 11
-0.25
 21
-0.3399999999999999
 31
0.0
  0
LINE
  5
64
330
5F
100
AcDbEntity
  8
ASHADE
  6
Continuous
 62
     7
100
AcDbLine
 10
-0.25
 20
-0.18
 30
0.0
 11
-0.29
 21
-0.18
 31
0.0
  0
LINE
  5
65
330
5F
100
AcDbEntity
  8
ASHADE
  6
Continuous
 62
     7
100
AcDbLine
 10
-0.29
 20
-0.22
 30
0.0
 11
-0.25
 21
-0.22
 31
0.0
  0
LINE
  5
66
330
5F
100
AcDbEntity
  8
ASHADE
  6
Continuous
 62
     7
100
AcDbLine
 10
-0.29
 20
-0.18
 30
0.0
 11
-0.29
 21
-0.22
 31
0.0
  0
LINE
  5
67
330
5F
100
AcDbEntity
  8
ASHADE
  6
Continuous
 62
     7
100
AcDbLine
 10
-0.1045454545454545
 20
0.26
 30
0.0
 11
-0.15
 21
0.46
 31
0.0
  0
LINE
  5
68
330
5F
100
AcDbEntity
  8
ASHADE
  6
Continuous
 62
     7
100
AcDbLine
 10
-0.21
 20
0.26
 30
0.0
 11
-0.301304347826087
 21
0.46
 31
0.0
  0
LINE
  5
69
330
5F
100
AcDbEntity
  8
ASHADE
  6
Continuous
 62
     7
100
AcDbLine
 10
-0.25
 20
0.26
 30
0.0
 11
-0.25
 21
0.13
 31
0.0
  0
LINE
  5
6A
330
5F
100
AcDbEntity
  8
ASHADE
  6
Continuous
 62
     7
100
AcDbLine
 10
-0.25
 20
0.22
 30
0.0
 11
-0.29
 21
0.22
 31
0.0
  0
LINE
  5
6B
330
5F
100
AcDbEntity
  8
ASHADE
  6
Continuous
 62
     7
100
AcDbLine
 10
-0.29
 20
0.1799999999999999
 30
0.0
 11
-0.25
 21
0.1799999999999999
 31
0.0
  0
LINE
  5
6C
330
5F
100
AcDbEntity
  8
ASHADE
  6
Continuous
 62
     7
100
AcDbLine
 10
-0.29
 20
0.22
 30
0.0
 11
-0.29
 21
0.1799999999999999
 31
0.0
  0
ATTDEF
  5
6D
330
5F
100
AcDbEntity
  8
ASHADE
  6
Continuous
 62
     7
100
AcDbText
 10
0.0
 20
-0.24
 30
0.0
 40
0.01
  1
0
100
AcDbAttributeDefinition
280
     0
  3
Depth Map Size
  2
ZSIZE
 70
     1
280
     0
  0
ATTDEF
  5
6E
330
5F
100
AcDbEntity
  8
ASHADE
  6
Continuous
 62
     7
100
AcDbText
 10
0.0
 20
-0.3300000000000001
 30
0.0
 40
0.01
  1
0,0,0
100
AcDbAttributeDefinition
280
     0
  3
Look-from XYZ
  2
LFXYZ
 70
     1
280
     0
  0
ATTDEF
  5
6F
330
5F
100
AcDbEntity
  8
ASHADE
  6
Continuous
 62
     7
100
AcDbText
 10
0.0
 20
-0.315
 30
0.0
 40
0.01
  1
0.0
100
AcDbAttributeDefinition
280
     0
  3
Beam Distribution
  2
BEAMDI
 70
     1
280
     0
  0
ATTDEF
  5
70
330
5F
100
AcDbEntity
  8
ASHADE
  6
Continuous
 62
     7
100
AcDbText
 10
0.0
 20
-0.3
 30
0.0
 40
0.01
  1
0.0
100
AcDbAttributeDefinition
280
     0
  3
Cone Delta
  2
CONEDE
 70
     1
280
     0
  0
ATTDEF
  5
71
330
5F
100
AcDbEntity
  8
ASHADE
  6
Continuous
 62
     7
100
AcDbText
 10
0.0
 20
-0.2850000000000001
 30
0.0
 40
0.01
  1
10.0
100
AcDbAttributeDefinition
280
     0
  3
Cone Angle
  2
CONEAN
 70
     1
280
     0
  0
ATTDEF
  5
72
330
5F
100
AcDbEntity
  8
ASHADE
  6
Continuous
 62
     7
100
AcDbText
 10
0.0
 20
-0.27
 30
0.0
 40
0.01
  1
-1
100
AcDbAttributeDefinition
280
     0
  3
*not used*
  2
BIASMAX
 70
     1
280
     0
  0
ATTDEF
  5
73
330
5F
100
AcDbEntity
  8
ASHADE
  6
Continuous
 62
     7
100
AcDbText
 10
0.0
 20
-0.255
 30
0.0
 40
0.01
  1
-1
100
AcDbAttributeDefinition
280
     0
  3
*not used*
  2
BIASMIN
 70
     1
280
     0
  0
ATTDEF
  5
74
330
5F
100
AcDbEntity
  8
ASHADE
  6
Continuous
 62
     7
100
AcDbText
 10
0.0
 20
-0.225
 30
0.0
 40
0.01
  1
1,1,1
100
AcDbAttributeDefinition
280
     0
  3
Light Color (RGB)
  2
COLOR
 70
     1
280
     0
  0
ATTDEF
  5
75
330
5F
100
AcDbEntity
  8
ASHADE
  6
Continuous
 62
     7
100
AcDbText
 10
0.0
 20
-0.21
 30
0.0
 40
0.01
  1
1
100
AcDbAttributeDefinition
280
     0
  3
Light Intensity
  2
INTENSITY
 70
     1
280
     0
  0
ATTDEF
  5
76
330
5F
100
AcDbEntity
  8
ASHADE
  6
Continuous
 62
     7
100
AcDbText
 10
0.0
 20
-0.15
 30
0.0
 40
0.01
  1

100
AcDbAttributeDefinition
280
     0
  3

  2
GNAME
 70
     1
280
     0
  0
ATTDEF
  5
77
330
5F
100
AcDbEntity
  8
ASHADE
  6
Continuous
 62
     7
100
AcDbText
 10
0.0
 20
-0.195
 30
0.0
 40
0.01
  1

100
AcDbAttributeDefinition
280
     0
  3
Look-at Z
  2
LAZ
 70
     1
280
     0
  0
ATTDEF
  5
78
330
5F
100
AcDbEntity
  8
ASHADE
  6
Continuous
 62
     7
100
AcDbText
 10
0.0
 20
-0.18
 30
0.0
 40
0.01
  1

100
AcDbAttributeDefinition
280
     0
  3
Look-at Y
  2
LAY
 70
     1
280
     0
  0
ATTDEF
  5
79
330
5F
100
AcDbEntity
  8
ASHADE
  6
Continuous
 62
     7
100
AcDbText
 10
0.0
 20
-0.165
 30
0.0
 40
0.01
  1

100
AcDbAttributeDefinition
280
     0
  3
Look-at X
  2
LAX
 70
     1
280
     0
  0
LINE
  5
7A
330
5F
100
AcDbEntity
  8
ASHADE
  6
Continuous
 62
     7
100
AcDbLine
 10
0.25
 20
-0.3399999999999999
 30
0.0
 11
0.25
 21
-0.13
 31
0.0
  0
LINE
  5
7B
330
5F
100
AcDbEntity
  8
ASHADE
  6
Continuous
 62
     7
100
AcDbLine
 10
0.25
 20
-0.18
 30
0.0
 11
0.29
 21
-0.18
 31
0.0
  0
LINE
  5
7C
330
5F
100
AcDbEntity
  8
ASHADE
  6
Continuous
 62
     7
100
AcDbLine
 10
0.29
 20
-0.22
 30
0.0
 11
0.25
 21
-0.22
 31
0.0
  0
LINE
  5
7D
330
5F
100
AcDbEntity
  8
ASHADE
  6
Continuous
 62
     7
100
AcDbLine
 10
0.29
 20
-0.18
 30
0.0
 11
0.29
 21
-0.22
 31
0.0
  0
LINE
  5
7E
330
5F
100
AcDbEntity
  8
ASHADE
  6
Continuous
 62
     7
100
AcDbLine
 10
0.21
 20
0.26
 30
0.0
 11
0.301304347826087
 21
0.46
 31
0.0
  0
LINE
  5
7F
330
5F
100
AcDbEntity
  8
ASHADE
  6
Continuous
 62
     7
100
AcDbLine
 10
0.1045454545454545
 20
0.26
 30
0.0
 11
0.15
 21
0.46
 31
0.0
  0
LINE
  5
80
330
5F
100
AcDbEntity
  8
ASHADE
  6
Continuous
 62
     7
100
AcDbLine
 10
0.0
 20
0.26
 30
0.0
 11
0.0
 21
0.46
 31
0.0
  0
LINE
  5
81
330
5F
100
AcDbEntity
  8
ASHADE
  6
Continuous
 62
     7
100
AcDbLine
 10
0.25
 20
0.13
 30
0.0
 11
0.25
 21
0.26
 31
0.0
  0
LINE
  5
82
330
5F
100
AcDbEntity
  8
ASHADE
  6
Continuous
 62
     7
100
AcDbLine
 10
0.25
 20
0.22
 30
0.0
 11
0.29
 21
0.22
 31
0.0
  0
LINE
  5
83
330
5F
100
AcDbEntity
  8
ASHADE
  6
Continuous
 62
     7
100
AcDbLine
 10
0.29
 20
0.1799999999999999
 30
0.0
 11
0.25
 21
0.1799999999999999
 31
0.0
  0
LINE
  5
84
330
5F
100
AcDbEntity
  8
ASHADE
  6
Continuous
 62
     7
100
AcDbLine
 10
0.29
 20
0.22
 30
0.0
 11
0.29
 21
0.1799999999999999
 31
0.0
  0
ENDBLK
  5
86
330
5F
100
AcDbEntity
  8
0
100
AcDbBlockEnd
  0
BLOCK
  5
92
330
91
100
AcDbEntity
  8
ASHADE
100
AcDbBlockBegin
  2
AVE_RENDER
 70
     0
 10
0.0
 20
0.0
 30
0.0
  3
AVE_RENDER
  1
AVE_RENDER
  0
ENDBLK
  5
93
330
91
100
AcDbEntity
  8
0
100
AcDbBlockEnd
  0
BLOCK
  5
A0
330
9F
100
AcDbEntity
  8
ASHADE
100
AcDbBlockBegin
  2
AVE_GLOBAL
 70
     0
 10
0.0
 20
0.0
 30
0.0
  3
AVE_GLOBAL
  1
AVE_GLOBAL
  0
ENDBLK
  5
A1
330
9F
100
AcDbEntity
  8
0
100
AcDbBlockEnd
  0
ENDSEC
  0
SECTION
  2
ENTITIES
  0
INSERT
  5
94
330
1F
100
AcDbEntity
  8
ASHADE
 62
     1
100
AcDbBlockReference
  2
AVE_RENDER
 10
0.0
 20
0.0
 30
0.0
1001
AVE_RENDER
1002
{
1070
     7
1000
Pref
1070
    30
1070
    20
1070
     1
1070
     0
1000

1070
    10
1070
     1
1070
    10
1040
1.0
1070
     1
1040
0.3
1040
0.7
1040
0.0
1040
10.0
1010
-1.0
1020
-1.0
1030
-1.0
1040
0.3
1070
    49
1070
     0
1070
     0
1010
1.0
1020
1.0
1030
1.0
1040
45.0
1070
     1
1070
     0
1000
WCS
1040
0.0
1070
     0
1040
10.0
1002
}
  0
INSERT
  5
95
330
1F
100
AcDbEntity
  8
ASHADE
 62
     3
100
AcDbBlockReference
  2
AVE_RENDER
 10
0.0
 20
0.0
 30
0.0
1001
AVE_RENDER
1002
{
1070
     0
1000
Full Opt
1070
     0
1070
     1
1070
     1
1070
     1
1070
     0
1070
     0
1070
     0
1070
     1
1070
     1
1040
0.0001
1040
0.0001
1002
}
  0
INSERT
  5
96
330
1F
100
AcDbEntity
  8
ASHADE
 62
     4
100
AcDbBlockReference
  2
AVE_RENDER
 10
0.0
 20
0.0
 30
0.0
1001
AVE_RENDER
1002
{
1070
     0
1000
Quick Opt
1070
     0
1070
     1
1070
     1
1070
     1
1070
     0
1070
     0
1070
     1
1002
}
  0
INSERT
  5
97
330
1F
100
AcDbEntity
  8
ASHADE
 62
     5
100
AcDbBlockReference
  2
AVE_RENDER
 10
0.0
 20
0.0
 30
0.0
1001
AVE_RENDER
1002
{
1070
     1
1000
Scanl Opt
1070
     2
1070
     0
1070
     2
1040
2.0
1040
4.0
1070
     0
1070
     1
1070
     0
1040
0.03
1002
}
  0
INSERT
  5
98
330
1F
100
AcDbEntity
  8
ASHADE
 62
     6
100
AcDbBlockReference
  2
AVE_RENDER
 10
0.0
 20
0.0
 30
0.0
1001
AVE_RENDER
1002
{
1070
     2
1000
Raytr Opt
1070
     2
1070
     0
1070
     2
1040
2.0
1040
4.0
1070
     0
1070
     1
1070
     1
1040
0.03
1070
     3
1040
0.03
1002
}
  0
INSERT
  5
99
330
1F
100
AcDbEntity
  8
ASHADE
 62
     7
100
AcDbBlockReference
  2
AVE_RENDER
 10
0.0
 20
0.0
 30
0.0
1001
AVE_RENDER
1002
{
1070
     0
1000
RFile Opt
1070
     1
1070
   640
1070
   480
1070
 10000
1070
     1
1070
     8
1070
     8
1070
     0
1070
     0
1070
     0
1070
     0
1070
     0
1070
     0
1070
     0
1002
}
  0
INSERT
  5
9A
330
1F
100
AcDbEntity
  8
ASHADE
 62
     8
100
AcDbBlockReference
  2
AVE_RENDER
 10
0.0
 20
0.0
 30
0.0
1001
AVE_RENDER
1002
{
1070
     0
1000
Fog Opt
1070
     0
1070
     0
1040
0.0
1040
1.0
1040
0.0
1040
1.0
1010
0.5
1020
0.5
1030
0.5
1002
}
  0
INSERT
  5
9B
330
1F
100
AcDbEntity
  8
ASHADE
 62
     9
100
AcDbBlockReference
  2
AVE_RENDER
 10
0.0
 20
0.0
 30
0.0
1001
AVE_RENDER
1002
{
1070
     0
1000
BG Opt
1070
     0
1070
     1
1010
0.0
1020
0.0
1030
0.0
1010
1.0
1020
0.0
1030
0.0
1010
0.0
1020
1.0
1030
0.0
1010
0.0
1020
0.0
1030
1.0
1040
0.5
1040
0.33
1040
0.0
1000

1070
     1
1000

1070
     1
1070
     1
1040
1.0
1040
1.0
1040
0.0
1040
0.0
1070
     0
1002
}
  0
INSERT
  5
A2
330
1F
100
AcDbEntity
  8
ASHADE
 62
     1
100
AcDbBlockReference
  2
AVE_GLOBAL
 10
0.0
 20
0.0
 30
0.0
1001
AVE_MATERIAL
1002
{
1000
*GLOBAL*
1000
2
1000
Global finish.
1002
{
1002
}
1002
{
1070
    63
1002
{
1002
{
1010
-1.0
1020
-1.0
1030
-1.0
1002
}
1040
0.1000000014901161
1000

1040
0.0
1002
{
1002
}
1040
0.0
1002
{
1002
}
1040
0.0
1002
}
1002
{
1002
{
1010
-1.0
1020
-1.0
1030
-1.0
1002
}
1040
0.6999999880790711
1000

1040
0.0
1002
{
1002
}
1040
0.0
1002
{
1002
}
1040
0.0
1002
}
1002
{
1002
{
1010
-1.0
1020
-1.0
1030
-1.0
1002
}
1040
0.2000000029802322
1000

1040
0.0
1002
{
1002
}
1040
0.0
1002
{
1002
}
1040
0.0
1002
}
1002
{
1070
     0
1002
{
1070
     1
1002
{
1040
1.0
1040
1.0
1000

1040
0.0
1002
{
1002
}
1040
0.0
1002
{
1002
}
1040
0.0
1002
}
1002
}
1040
1.0
1040
0.0
1040
0.0
1002
}
1002
{
1040
1.0
1040
1.0
1000

1040
0.0
1002
{
1002
}
1040
0.0
1002
{
1002
}
1040
0.0
1002
}
1002
{
1040
0.5
1040
1.0
1000

1040
0.0
1002
{
1002
}
1040
0.0
1002
{
1002
}
1040
0.0
1002
}
1002
{
1070
     0
1040
0.0
1002
{
1002
}
1040
1.0
1002
{
1002
}
1040
0.0
1002
}
1002
{
1040
0.0
1002
{
1002
{
1010
0.0
1020
0.0
1030
0.0
1002
}
1040
1.0
1000

1040
0.0
1002
{
1002
}
1040
0.0
1002
{
1002
}
1040
0.0
1002
}
1002
}
1002
{
1002
{
1070
     1
1002
{
1040
0.0
1040
1.0
1000

1040
0.0
1002
{
1002
}
1040
0.0
1002
{
1002
}
1040
0.0
1002
}
1002
}
1040
0.0
1002
{
1002
}
1010
1.0
1020
0.0
1030
0.0
1010
0.0
1020
1.0
1030
0.0
1010
0.0
1020
0.0
1030
1.0
1070
     0
1002
}
1002
{
1002
{
1040
1.0
1040
1.0
1002
{
1070
     1
1002
{
1040
1.0
1040
1.0
1000

1040
0.0
1002
{
1002
}
1040
0.0
1002
{
1002
}
1040
0.0
1002
}
1002
}
1002
}
1070
     0
1040
0.0
1002
{
1002
}
1002
}
1002
{
1002
}
1002
}
1002
{
1071
        3
1070
     3
1070
     0
1002
{
1070
     2
1070
     0
1070
     0
1040
0.0
1002
}
1070
     0
1070
     2
1002
{
1002
}
1002
}
1002
{
1040
8030.0
1040
190.3000030517578
1040
0.3050000071525574
1040
228.0
1040
545.0
1040
14.0
1040
17.39999961853027
1040
0.4560000002384186
1002
}
1002
}
  0
MESH
  5
F9
330
1F
100
AcDbEntity
  8
OracDecor_cornice_mouldings
 62
   233
420
 14768015
160
             46376
310
28B50000080500000C00000013000000020000003C00000006000000020000000000004000408F400000002009EF6FC0000000000000F03E0000000000408FC00000008008EF6FC000000000000000000C000000130000000A0000003C00000006000000020000000000000000408FC000000080F19F70C000000000000000
310
BF0000000000408FC00000008008EF6FC000000000000000000C00000013000000120000003C00000006000000020000000000000000408FC000000080F19F70C000000000000000BF0000004000408F40000000C0F19F70C000000000000000BF0C000000130000001A0000003C0000000600000002000000000000400040
310
8F400000002009EF6FC0000000000000F03E0000004000408F40000000C0F19F70C000000000000000BF0C00000013000000220000003C00000006000000020000000000000000408FC000000080F19F70C0000000004B5028C00000000000408FC000000080F19F70C000000000000000BF0C000000130000002A0000003C
310
00000006000000020000000000000000408FC000000080F19F70C0000000004B5028C00000004000408F40000000C0F19F70C0000000004A5028C00C00000013000000320000003C00000006000000020000000000004000408F40000000C0F19F70C000000000000000BF0000004000408F40000000C0F19F70C000000000
310
4A5028C00C000000130000003A0000003C00000006000000020000000000000000408FC000000080F19F70C0000000004B5028C00000000000408FC000000040D55E70C000000000D3AF28C00C00000013000000420000003C00000006000000020000000000004000408F4000000080D55E70C000000000D2AF28C0000000
310
0000408FC000000040D55E70C000000000D3AF28C00C000000130000004A0000003C00000006000000020000000000004000408F40000000C0F19F70C0000000004A5028C00000004000408F4000000080D55E70C000000000D2AF28C00C00000013000000520000003C00000006000000020000000000000000408FC00000
310
00C0ED2970C000000000A19329C00000000000408FC000000040D55E70C000000000D3AF28C00C000000130000005A0000003C00000006000000020000000000000000408FC0000000C0ED2970C000000000A19329C00000004000408F4000000000EE2970C000000000A09329C00C00000013000000620000003C00000006
310
000000020000000000004000408F4000000000EE2970C000000000A09329C00000004000408F4000000080D55E70C000000000D2AF28C00C000000130000006A0000003C00000006000000020000000000000000408FC0000000C0ED2970C000000000A19329C00000000000408FC0000000607E0E70C0000000005B672AC0
310
0C00000013000000720000003C00000006000000020000000000000000408FC0000000607E0E70C0000000005B672AC00000004000408F40000000C07E0E70C0000000005A672AC00C000000130000007A0000003C00000006000000020000000000004000408F4000000000EE2970C000000000A09329C00000004000408F
310
40000000C07E0E70C0000000005A672AC00C00000013000000820000003C00000006000000020000000000000000408FC0000000607E0E70C0000000005B672AC00000000000408FC000000040A4EC6FC000000000776B2BC00C000000130000008A0000003C00000006000000020000000000004000408F40000000E0A4EC
310
6FC000000000766B2BC00000000000408FC000000040A4EC6FC000000000776B2BC00C00000013000000920000003C00000006000000020000000000004000408F40000000E0A4EC6FC000000000766B2BC00000004000408F40000000C07E0E70C0000000005A672AC00C000000130000009A0000003C0000000600000002
310
0000000000000000408FC00000008086B56FC0000000007E182DC00000000000408FC000000040A4EC6FC000000000776B2BC00C00000013000000A20000003C00000006000000020000000000000000408FC00000008086B56FC0000000007E182DC00000004000408F400000002087B56FC0000000007D182DC00C000000
310
13000000AA0000003C00000006000000020000000000004000408F400000002087B56FC0000000007D182DC00000004000408F40000000E0A4EC6FC000000000766B2BC00C00000013000000B20000003C00000006000000020000000000000000408FC00000008086B56FC0000000007E182DC00000000000408FC0000000
310
80F08A6FC0000000005CE52EC00C00000013000000BA0000003C00000006000000020000000000000000408FC000000080F08A6FC0000000005CE52EC00000004000408F4000000040F18A6FC0000000005BE52EC00C00000013000000C20000003C00000006000000020000000000004000408F400000002087B56FC00000
310
00007D182DC00000004000408F4000000040F18A6FC0000000005BE52EC00C00000013000000CA0000003C00000006000000020000000000000000408FC000000080F08A6FC0000000005CE52EC00000000000408FC000000080D4626FC000000000AFBD30C00C00000013000000D20000003C000000060000000200000000
310
00004000408F4000000020D5626FC000000080AEBD30C00000000000408FC000000080D4626FC000000000AFBD30C00C00000013000000DA0000003C00000006000000020000000000004000408F4000000020D5626FC000000080AEBD30C00000004000408F4000000040F18A6FC0000000005BE52EC00C00000013000000
310
E20000003C00000006000000020000000000000000408FC000000040993F6FC000000000D2F432C00000000000408FC000000080D4626FC000000000AFBD30C00C00000013000000EA0000003C00000006000000020000000000000000408FC000000040993F6FC000000000D2F432C00000004000408F40000000E0993F6F
310
C000000080D1F432C00C00000013000000F20000003C00000006000000020000000000004000408F4000000020D5626FC000000080AEBD30C00000004000408F40000000E0993F6FC000000080D1F432C00C00000013000000FA0000003C00000006000000020000000000000000408FC000000040993F6FC000000000D2F4
310
32C00000000000408FC0000000803D316FC000000000D4B235C00C00000013000000020100003C00000006000000020000000000004000408F40000000403E316FC000000080D3B235C00000000000408FC0000000803D316FC000000000D4B235C00C000000130000000A0100003C00000006000000020000000000004000
310
408F40000000E0993F6FC000000080D1F432C00000004000408F40000000403E316FC000000080D3B235C00C00000013000000120100003C00000006000000020000000000000000408FC0000000807ABD6EC000000000D4B235C00000000000408FC0000000803D316FC000000000D4B235C00C000000130000001A010000
310
3C00000006000000020000000000000000408FC0000000807ABD6EC000000000D4B235C00000004000408F40000000407BBD6EC000000000D4B235C00C00000013000000220100003C00000006000000020000000000004000408F40000000403E316FC000000080D3B235C00000004000408F40000000407BBD6EC0000000
310
00D4B235C00C000000130000002A0100003C00000006000000020000000000000000408FC0000000807ABD6EC000000000D4B235C00000000000408FC00000008011CC6EC000000080D5C538C00C00000013000000320100003C00000006000000020000000000004000408F400000002012CC6EC000000080D5C538C00000
310
000000408FC00000008011CC6EC000000080D5C538C00C000000130000003A0100003C00000006000000020000000000004000408F40000000407BBD6EC000000000D4B235C00000004000408F400000002012CC6EC000000080D5C538C00C00000013000000420100003C00000006000000020000000000000000408FC000
310
00008011CC6EC000000080D5C538C00000000000408FC0000000C059C16EC000000000A8DC3BC00C000000130000004A0100003C00000006000000020000000000004000408F40000000605AC16EC000000000A8DC3BC00000000000408FC0000000C059C16EC000000000A8DC3BC00C00000013000000520100003C000000
310
06000000020000000000004000408F400000002012CC6EC000000080D5C538C00000004000408F40000000605AC16EC000000000A8DC3BC00C000000130000005A0100003C00000006000000020000000000000000408FC0000000C059C16EC000000000A8DC3BC00000000000408FC000000040FE9D6EC0000000800EC63E
310
C00C00000013000000620100003C00000006000000020000000000004000408F4000000020FF9D6EC0000000800EC63EC00000000000408FC000000040FE9D6EC0000000800EC63EC00C000000130000006A0100003C00000006000000020000000000004000408F4000000020FF9D6EC0000000800EC63EC0000000400040
310
8F40000000605AC16EC000000000A8DC3BC00C00000013000000720100003C00000006000000020000000000000000408FC000000040FE9D6EC0000000800EC63EC00000000000408FC0000000C032646EC000000000D0A940C00C000000130000007A0100003C00000006000000020000000000004000408F40000000A033
310
646EC000000000D0A940C00000000000408FC0000000C032646EC000000000D0A940C00C00000013000000820100003C00000006000000020000000000004000408F40000000A033646EC000000000D0A940C00000004000408F4000000020FF9D6EC0000000800EC63EC00C000000130000008A0100003C00000006000000
310
020000000000000000408FC0000000C032646EC000000000D0A940C00000000000408FC00000004090176EC00000008055AE41C00C00000013000000920100003C00000006000000020000000000004000408F400000002091176EC00000008055AE41C00000000000408FC00000004090176EC00000008055AE41C00C0000
310
00130000009A0100003C00000006000000020000000000004000408F400000002091176EC00000008055AE41C00000004000408F40000000A033646EC000000000D0A940C00C00000013000000A20100003C00000006000000020000000000000000408FC000000040DCBC6DC0000000005F6042C00000000000408FC00000
310
004090176EC00000008055AE41C00C00000013000000AA0100003C00000006000000020000000000004000408F4000000020DDBC6DC0000000005F6042C00000000000408FC000000040DCBC6DC0000000005F6042C00C00000013000000B20100003C00000006000000020000000000004000408F4000000020DDBC6DC000
310
0000005F6042C00000004000408F400000002091176EC00000008055AE41C00C00000013000000BA0100003C00000006000000020000000000000000408FC000000080BC596DC000000000D7B442C00000000000408FC000000040DCBC6DC0000000005F6042C00C00000013000000C20100003C0000000600000002000000
310
0000004000408F4000000060BD596DC000000000D7B442C00000000000408FC000000080BC596DC000000000D7B442C00C00000013000000CA0100003C00000006000000020000000000004000408F4000000060BD596DC000000000D7B442C00000004000408F4000000020DDBC6DC0000000005F6042C00C000000130000
310
00D20100003C00000006000000020000000000000000408FC000000080BC596DC000000000D7B442C00000000000408FC000000040CEF96CC000000000DAAE42C00C00000013000000DA0100003C00000006000000020000000000004000408F4000000020CFF96CC000000000DAAE42C00000000000408FC000000040CEF9
310
6CC000000000DAAE42C00C00000013000000E20100003C00000006000000020000000000004000408F4000000020CFF96CC000000000DAAE42C00000004000408F4000000060BD596DC000000000D7B442C00C00000013000000EA0100003C00000006000000020000000000000000408FC0000000804D9C6CC000000080B0
310
5A42C00000000000408FC000000040CEF96CC000000000DAAE42C00C00000013000000F20100003C00000006000000020000000000004000408F40000000604E9C6CC000000080B05A42C00000000000408FC0000000804D9C6CC000000080B05A42C00C00000013000000FA0100003C000000060000000200000000000040
310
00408F40000000604E9C6CC000000080B05A42C00000004000408F4000000020CFF96CC000000000DAAE42C00C00000013000000020200003C00000006000000020000000000000000408FC0000000804D9C6CC000000080B05A42C00000000000408FC00000000052456CC0000000000DBC41C00C000000130000000A0200
310
003C00000006000000020000000000004000408F40000000E052456CC0000000000DBC41C00000000000408FC00000000052456CC0000000000DBC41C00C00000013000000120200003C00000006000000020000000000004000408F40000000E052456CC0000000000DBC41C00000004000408F40000000604E9C6CC00000
310
0080B05A42C00C000000130000001A0200003C00000006000000020000000000000000408FC0000000C0AAF86BC000000000DFD940C00000000000408FC00000000052456CC0000000000DBC41C00C00000013000000220200003C00000006000000020000000000004000408F40000000A0ABF86BC000000000DFD940C000
310
00000000408FC0000000C0AAF86BC000000000DFD940C00C000000130000002A0200003C00000006000000020000000000004000408F40000000A0ABF86BC000000000DFD940C00000004000408F40000000E052456CC0000000000DBC41C00C00000013000000320200003C00000006000000020000000000000000408FC0
310
000000C0AAF86BC000000000DFD940C00000000000408FC000000080C3C96AC000000000CF0E39C00C000000130000003A0200003C00000006000000020000000000008000408F4000000060C4C96AC000000000CF0E39C00000000000408FC000000080C3C96AC000000000CF0E39C00C00000013000000420200003C0000
310
0006000000020000000000008000408F4000000060C4C96AC000000000CF0E39C00000004000408F40000000A0ABF86BC000000000DFD940C00C000000130000004A0200003C00000006000000020000000000000000408FC000000040E8B56AC00000000037AB38C00000000000408FC000000080C3C96AC000000000CF0E
310
39C00C00000013000000520200003C00000006000000020000000000000000408FC000000040E8B56AC00000000037AB38C00000008000408F4000000020E9B56AC00000000037AB38C00C000000130000005A0200003C00000006000000020000000000008000408F4000000060C4C96AC000000000CF0E39C00000008000
310
408F4000000020E9B56AC00000000037AB38C00C00000013000000620200003C00000006000000020000000000000000408FC000000040E8B56AC00000000037AB38C00000000000408FC000000000D79E6AC000000000348538C00C000000130000006A0200003C00000006000000020000000000008000408F40000000E0
310
D79E6AC000000000348538C00000000000408FC000000000D79E6AC000000000348538C00C00000013000000720200003C00000006000000020000000000008000408F40000000E0D79E6AC000000000348538C00000008000408F4000000020E9B56AC00000000037AB38C00C000000130000007A0200003C000000060000
310
00020000000000000000408FC0000000C08C876AC000000000B2A138C00000000000408FC000000000D79E6AC000000000348538C00C00000013000000820200003C00000006000000020000000000008000408F40000000A08D876AC000000000B2A138C00000000000408FC0000000C08C876AC000000000B2A138C00C00
310
0000130000008A0200003C00000006000000020000000000008000408F40000000A08D876AC000000000B2A138C00000008000408F40000000E0D79E6AC000000000348538C00C00000013000000920200003C00000006000000020000000000000000408FC0000000C08C876AC000000000B2A138C00000000000408FC000
310
0000807F5A68C00000000037E93FC00C000000130000009A0200003C00000006000000020000000000000000408FC0000000807F5A68C00000000037E93FC00000008000408F4000000060805A68C00000008036E93FC00C00000013000000A20200003C00000006000000020000000000008000408F40000000A08D876AC0
310
00000000B2A138C00000008000408F4000000060805A68C00000008036E93FC00C00000013000000AA0200003C00000006000000020000000000008000408F40000000209A0567C0000000C0EF9C42C00000000000408FC000000060990567C000000000F09C42C00C00000013000000B20200003C00000006000000020000
310
000000000000408FC000000060990567C000000000F09C42C00000000000408FC000000000BCA265C000000000ADDB45C00C00000013000000BA0200003C00000006000000020000000000008000408F40000000E0BCA265C0000000C0ACDB45C00000000000408FC000000000BCA265C000000000ADDB45C00C0000001300
310
0000C20200003C00000006000000020000000000008000408F40000000209A0567C0000000C0EF9C42C00000008000408F40000000E0BCA265C0000000C0ACDB45C00C00000013000000CA0200003C00000006000000020000000000008000408F4000000060926764C0000000C0C03349C00000000000408FC00000008091
310
6764C000000000C13349C00C00000013000000D20200003C00000006000000020000000000000000408FC0000000603A2563C000000000D7234DC00000000000408FC000000080916764C000000000C13349C00C00000013000000DA0200003C00000006000000020000000000000000408FC0000000603A2563C000000000
310
D7234DC00000008000408F40000000203B2563C000000000D7234DC00C00000013000000E20200003C00000006000000020000000000008000408F4000000060926764C0000000C0C03349C00000008000408F40000000203B2563C000000000D7234DC00C00000013000000EA0200003C0000000600000002000000000000
310
8000408F4000000020990962C000000000908E50C00000000000408FC000000040980962C000000000908E50C00C00000013000000F20200003C00000006000000020000000000000000408FC0000000C0D2D160C000000000790E53C00000000000408FC000000040980962C000000000908E50C00C00000013000000FA02
310
00003C00000006000000020000000000000000408FC0000000C0D2D160C000000000790E53C00000008000408F40000000A0D3D160C000000000790E53C00C00000013000000020300003C00000006000000020000000000008000408F4000000020990962C000000000908E50C00000008000408F40000000A0D3D160C000
310
000000790E53C00C000000130000000A0300003C00000006000000020000000000006000408F4000000000A70D60C0000000A009D954C00000000000408FC000000020A60D60C0000000C009D954C00C00000013000000120300003C00000006000000020000000000000000408FC0000000C0DAAD5EC000000020C7C056C0
310
0000000000408FC000000020A60D60C0000000C009D954C00C000000130000001A0300003C00000006000000020000000000000000408FC0000000C0DAAD5EC000000020C7C056C00000006000408F4000000040DCAD5EC000000000C7C056C00C00000013000000220300003C00000006000000020000000000006000408F
310
4000000000A70D60C0000000A009D954C00000006000408F4000000040DCAD5EC000000000C7C056C00C000000130000002A0300003C00000006000000020000000000006000408F400000004089625DC0000000C053B958C00000000000408FC0000000C087625DC0000000E053B958C00C00000013000000320300003C00
310
000006000000020000000000000000408FC00000008091355CC0000000C017C85AC00000000000408FC0000000C087625DC0000000E053B958C00C000000130000003A0300003C00000006000000020000000000000000408FC00000008091355CC0000000C017C85AC00000006000408F400000000093355CC0000000A017
310
C85AC00C00000013000000420300003C00000006000000020000000000006000408F400000004089625DC0000000C053B958C00000006000408F400000000093355CC0000000A017C85AC00C000000130000004A0300003C00000006000000020000000000006000408F4000000000512B5BC000000060CBE55CC000000000
310
00408FC0000000604F2B5BC000000080CBE55CC00C00000013000000520300003C00000006000000020000000000000000408FC0000000C0FD425AC0000000A0A6135FC00000000000408FC0000000604F2B5BC000000080CBE55CC00C000000130000005A0300003C00000006000000020000000000006000408F40000000
310
40FF425AC000000080A6135FC00000000000408FC0000000C0FD425AC0000000A0A6135FC00C00000013000000620300003C00000006000000020000000000006000408F4000000000512B5BC000000060CBE55CC00000006000408F4000000040FF425AC000000080A6135FC00C000000130000006A0300003C0000000600
310
0000020000000000006000408F40000000A02D7E59C00000008020A760C00000000000408FC0000000402C7E59C00000008020A760C00C00000013000000720300003C00000006000000020000000000000000408FC0000000E0A7DD58C0000000A077C961C00000000000408FC0000000402C7E59C00000008020A760C00C
310
000000130000007A0300003C00000006000000020000000000006000408F4000000060A9DD58C0000000A077C961C00000000000408FC0000000E0A7DD58C0000000A077C961C00C00000013000000820300003C00000006000000020000000000006000408F40000000A02D7E59C00000008020A760C00000006000408F40
310
00000060A9DD58C0000000A077C961C00C000000130000008A0300003C00000006000000020000000000006000408F40000000A08F6158C000000020D0F062C00000000000408FC0000000408E6158C000000020D0F062C00C00000013000000920300003C00000006000000020000000000000000408FC00000004076DF57
310
C0000000A0EFAF64C00000000000408FC0000000408E6158C000000020D0F062C00C000000130000009A0300003C00000006000000020000000000006000408F40000000A077DF57C0000000A0EFAF64C00000000000408FC00000004076DF57C0000000A0EFAF64C00C00000013000000A20300003C000000060000000200
310
00000000006000408F40000000A077DF57C0000000A0EFAF64C00000006000408F40000000A08F6158C000000020D0F062C00C00000013000000AA0300003C00000006000000020000000000000000408FC00000004076DF57C0000000A0EFAF64C00000000000408FC0000000401BFD54C000000060EFAF64C00C00000013
310
000000B20300003C00000006000000020000000000006000408F40000000C01CFD54C000000040EFAF64C00000000000408FC0000000401BFD54C000000060EFAF64C00C00000013000000BA0300003C00000006000000020000000000006000408F40000000C01CFD54C000000040EFAF64C00000006000408F40000000A0
310
77DF57C0000000A0EFAF64C00C00000013000000C20300003C00000006000000020000000000000000408FC0000000401BFD54C000000020736765C00000000000408FC0000000401BFD54C000000060EFAF64C00C00000013000000CA0300003C00000006000000020000000000006000408F40000000C01CFD54C0000000
310
00736765C00000000000408FC0000000401BFD54C000000020736765C00C00000013000000D20300003C00000006000000020000000000006000408F40000000C01CFD54C000000000736765C00000006000408F40000000C01CFD54C000000040EFAF64C00C00000013000000DA0300003C00000006000000020000000000
310
000000408FC000000000B5E553C000000020736765C00000000000408FC0000000401BFD54C000000020736765C00C00000013000000E20300003C00000006000000020000000000006000408F4000000080B6E553C000000000736765C00000000000408FC000000000B5E553C000000020736765C00C00000013000000EA
310
0300003C00000006000000020000000000006000408F4000000080B6E553C000000000736765C00000006000408F40000000C01CFD54C000000000736765C00C00000013000000F20300003C00000006000000020000000000000000408FC000000000B5E553C000000020736765C00000000000408FC000000000D78952C0
310
000000202A7B65C00C00000013000000FA0300003C00000006000000020000000000006000408F4000000080D88952C0000000002A7B65C00000000000408FC000000000D78952C0000000202A7B65C00C00000013000000020400003C00000006000000020000000000006000408F4000000080B6E553C000000000736765
310
C00000006000408F4000000080D88952C0000000002A7B65C00C000000130000000A0400003C00000006000000020000000000000000408FC000000000D78952C0000000202A7B65C00000000000408FC000000000534051C00000006045B565C00C00000013000000120400003C0000000600000002000000000000600040
310
8F4000000080544051C00000004045B565C00000000000408FC000000000534051C00000006045B565C00C000000130000001A0400003C00000006000000020000000000006000408F4000000080544051C00000004045B565C00000006000408F4000000080D88952C0000000002A7B65C00C00000013000000220400003C
310
00000006000000020000000000000000408FC000000000534051C00000006045B565C00000000000408FC000000060951A50C0000000E0B21266C00C000000130000002A0400003C00000006000000020000000000006000408F40000000E0961A50C0000000C0B21266C00000000000408FC000000060951A50C0000000E0
310
B21266C00C00000013000000320400003C00000006000000020000000000006000408F40000000E0961A50C0000000C0B21266C00000006000408F4000000080544051C00000004045B565C00C000000130000003A0400003C00000006000000020000000000000000408FC00000002045504EC000000000828E66C0000000
310
0000408FC000000060951A50C0000000E0B21266C00C00000013000000420400003C00000006000000020000000000000000408FC00000002045504EC000000000828E66C00000006000408F400000006048504EC0000000E0818E66C00C000000130000004A0400003C00000006000000020000000000006000408F400000
310
006048504EC0000000E0818E66C00000006000408F40000000E0961A50C0000000C0B21266C00C00000013000000520400003C00000006000000020000000000000000408FC00000002045504EC000000000828E66C00000000000408FC00000008082EB4CC0000000802C2267C00C000000130000005A0400003C00000006
310
000000020000000000006000408F40000000A085EB4CC0000000602C2267C00000000000408FC00000008082EB4CC0000000802C2267C00C00000013000000620400003C00000006000000020000000000006000408F40000000A085EB4CC0000000602C2267C00000006000408F400000006048504EC0000000E0818E66C0
310
0C000000130000006A0400003C00000006000000020000000000000000408FC00000008082EB4CC0000000802C2267C00000000000408FC000000020C0194CC000000080E5C567C00C00000013000000720400003C00000006000000020000000000006000408F4000000060C3194CC000000060E5C567C00000000000408F
310
C000000020C0194CC000000080E5C567C00C000000130000007A0400003C00000006000000020000000000006000408F4000000060C3194CC000000060E5C567C00000006000408F40000000A085EB4CC0000000602C2267C00C00000013000000820400003C00000006000000020000000000000000408FC00000002013E6
310
4BC0000000C0047168C00000000000408FC000000020C0194CC000000080E5C567C00C000000130000008A0400003C00000006000000020000000000006000408F400000006016E64BC0000000A0047168C00000000000408FC00000002013E64BC0000000C0047168C00C00000013000000920400003C0000000600000002
310
0000000000006000408F400000006016E64BC0000000A0047168C00000006000408F4000000060C3194CC000000060E5C567C00C000000130000009A0400003C00000006000000020000000000000000408FC0000000808DA447C0000000C0047168C00000000000408FC00000002013E64BC0000000C0047168C00C000000
310
13000000A20400003C00000006000000020000000000006000408F400000000091A447C0000000C0047168C00000000000408FC0000000808DA447C0000000C0047168C00C00000013000000AA0400003C00000006000000020000000000006000408F400000000091A447C0000000C0047168C00000006000408F40000000
310
6016E64BC0000000A0047168C00C00000013000000B20400003C00000006000000020000000000000000408FC0000000808DA447C0000000C0047168C00000000000408FC0000000408DA447C000000080A9AA69C00C00000013000000BA0400003C00000006000000020000000000006000408F400000008090A447C00000
310
0080A9AA69C00000000000408FC0000000408DA447C000000080A9AA69C00C00000013000000C20400003C00000006000000020000000000006000408F400000008090A447C000000080A9AA69C00000006000408F400000000091A447C0000000C0047168C00C00000013000000CA0400003C000000060000000200000000
310
00000000408FC0000000408DA447C000000080A9AA69C00000000000408FC000000040306848C0000000C0D2E969C00C00000013000000D20400003C00000006000000020000000000006000408F4000000080336848C0000000C0D2E969C00000000000408FC000000040306848C0000000C0D2E969C00C00000013000000
310
DA0400003C00000006000000020000000000006000408F4000000080336848C0000000C0D2E969C00000006000408F400000008090A447C000000080A9AA69C00C00000013000000E20400003C00000006000000020000000000000000408FC000000000593F49C0000000E05D456AC00000000000408FC000000040306848
310
C0000000C0D2E969C00C00000013000000EA0400003C00000006000000020000000000006000408F40000000405C3F49C0000000C05D456AC00000000000408FC000000000593F49C0000000E05D456AC00C00000013000000F20400003C00000006000000020000000000006000408F40000000405C3F49C0000000C05D45
310
6AC00000006000408F4000000080336848C0000000C0D2E969C00C00000013000000FA0400003C00000006000000020000000000000000408FC000000000593F49C0000000E05D456AC00000000000408FC0000000C071DB49C0000000C0D6A76AC00C00000013000000020500003C00000006000000020000000000006000
310
408F400000004075DB49C0000000C0D6A76AC00000000000408FC0000000C071DB49C0000000C0D6A76AC00C000000130000000A0500003C00000006000000020000000000006000408F400000004075DB49C0000000C0D6A76AC00000006000408F40000000405C3F49C0000000C05D456AC00C0000001300000012050000
310
3C00000006000000020000000000000000408FC0000000C071DB49C0000000C0D6A76AC00000000000408FC000000040E0384AC0000000C0F70E6BC00C000000130000001A0500003C00000006000000020000000000006000408F4000000040E3384AC0000000C0F70E6BC00000000000408FC000000040E0384AC0000000
310
C0F70E6BC00C00000013000000220500003C00000006000000020000000000006000408F4000000040E3384AC0000000C0F70E6BC00000006000408F400000004075DB49C0000000C0D6A76AC00C000000130000002A0500003C00000006000000020000000000000000408FC000000040E0384AC0000000C0F70E6BC00000
310
000000408FC0000000407B554AC0000000E05F786BC00C00000013000000320500003C00000006000000020000000000006000408F40000000807E554AC0000000C05F786BC00000000000408FC0000000407B554AC0000000E05F786BC00C000000130000003A0500003C00000006000000020000000000006000408F4000
310
0000807E554AC0000000C05F786BC00000006000408F4000000040E3384AC0000000C0F70E6BC00C00000013000000420500003C00000006000000020000000000000000408FC0000000407B554AC0000000E05F786BC00000000000408FC0000000C09A304AC000000020A0E16BC00C000000130000004A0500003C000000
310
06000000020000000000006000408F40000000009E304AC000000000A0E16BC00000000000408FC0000000C09A304AC000000020A0E16BC00C00000013000000520500003C00000006000000020000000000006000408F40000000009E304AC000000000A0E16BC00000006000408F40000000807E554AC0000000C05F786B
310
C00C000000130000005A0500003C00000006000000020000000000000000408FC0000000C09A304AC000000020A0E16BC00000000000408FC0000000C018CB49C0000000404B486CC00C00000013000000620500003C00000006000000020000000000006000408F40000000C01BCB49C0000000404B486CC0000000000040
310
8FC0000000C018CB49C0000000404B486CC00C000000130000006A0500003C00000006000000020000000000006000408F40000000C01BCB49C0000000404B486CC00000006000408F40000000009E304AC000000000A0E16BC00C00000013000000720500003C00000006000000020000000000000000408FC0000000404D
310
2749C0000000A002AA6CC00000000000408FC0000000C018CB49C0000000404B486CC00C000000130000007A0500003C00000006000000020000000000006000408F4000000080502749C00000008002AA6CC00000000000408FC0000000404D2749C0000000A002AA6CC00C00000013000000820500003C00000006000000
310
020000000000006000408F4000000080502749C00000008002AA6CC00000006000408F40000000C01BCB49C0000000404B486CC00C000000130000008A0500003C00000006000000020000000000000000408FC0000000404D2749C0000000A002AA6CC00000000000408FC0000000C0004948C00000000085046DC00C0000
310
0013000000920500003C00000006000000020000000000006000408F4000000040044948C00000000085046DC00000000000408FC0000000C0004948C00000000085046DC00C000000130000009A0500003C00000006000000020000000000006000408F4000000040044948C00000000085046DC00000006000408F400000
310
0080502749C00000008002AA6CC00C00000013000000A20500003C00000006000000020000000000000000408FC000000040513547C000000080BD556DC00000000000408FC0000000C0004948C00000000085046DC00C00000013000000AA0500003C00000006000000020000000000006000408F40000000C0543547C000
310
000080BD556DC00000000000408FC000000040513547C000000080BD556DC00C00000013000000B20500003C00000006000000020000000000006000408F40000000C0543547C000000080BD556DC00000006000408F4000000040044948C00000000085046DC00C00000013000000BA0500003C0000000600000002000000
310
0000000000408FC000000040513547C000000080BD556DC00000000000408FC0000000009AF245C000000020CC9B6DC00C00000013000000C20500003C00000006000000020000000000006000408F40000000409DF245C000000000CC9B6DC00000000000408FC0000000009AF245C000000020CC9B6DC00C000000130000
310
00CA0500003C00000006000000020000000000006000408F40000000409DF245C000000000CC9B6DC00000006000408F40000000C0543547C000000080BD556DC00C00000013000000D20500003C00000006000000020000000000000000408FC0000000009AF245C000000020CC9B6DC00000000000408FC0000000C04C88
310
44C0000000E012D56DC00C00000013000000DA0500003C00000006000000020000000000006000408F4000000000508844C0000000C012D56DC00000000000408FC0000000C04C8844C0000000E012D56DC00C00000013000000E20500003C00000006000000020000000000006000408F4000000000508844C0000000C012
310
D56DC00000006000408F40000000409DF245C000000000CC9B6DC00C00000013000000EA0500003C00000006000000020000000000000000408FC0000000C0C4FE42C0000000603F006EC00000000000408FC0000000C04C8844C0000000E012D56DC00C00000013000000F20500003C000000060000000200000000000060
310
00408F4000000000C8FE42C0000000403F006EC00000000000408FC0000000C0C4FE42C0000000603F006EC00C00000013000000FA0500003C00000006000000020000000000006000408F4000000000C8FE42C0000000403F006EC00000006000408F4000000000508844C0000000C012D56DC00C00000013000000020600
310
003C00000006000000020000000000000000408FC0000000C0C4FE42C0000000603F006EC00000000000408FC000000040175F41C0000000C0521C6EC00C000000130000000A0600003C00000006000000020000000000006000408F40000000801A5F41C0000000C0521C6EC00000000000408FC000000040175F41C00000
310
00C0521C6EC00C00000013000000120600003C00000006000000020000000000006000408F40000000801A5F41C0000000C0521C6EC00000006000408F4000000000C8FE42C0000000403F006EC00C000000130000001A0600003C00000006000000020000000000000000408FC000000040175F41C0000000C0521C6EC000
310
00000000408FC000000000B9653FC0000000E0A6286EC00C00000013000000220600003C00000006000000020000000000006000408F4000000000BF653FC0000000C0A6286EC00000000000408FC000000000B9653FC0000000E0A6286EC00C000000130000002A0600003C00000006000000020000000000006000408F40
310
00000000BF653FC0000000C0A6286EC00000006000408F40000000801A5F41C0000000C0521C6EC00C00000013000000320600003C00000006000000020000000000000000408FC000000000B9653FC0000000E0A6286EC00000000000408FC000000080E9073CC000000060F3246EC00C000000130000003A0600003C0000
310
0006000000020000000000006000408F4000000000F0073CC000000040F3246EC00000000000408FC000000080E9073CC000000060F3246EC00C00000013000000420600003C00000006000000020000000000006000408F4000000000F0073CC000000040F3246EC00000006000408F4000000000BF653FC0000000C0A628
310
6EC00C000000130000004A0600003C00000006000000020000000000000000408FC0000000801A8939C0000000C02E186EC00000000000408FC000000080E9073CC000000060F3246EC00C00000013000000520600003C00000006000000020000000000006000408F4000000080208939C0000000C02E186EC00000000000
310
408FC0000000801A8939C0000000C02E186EC00C000000130000005A0600003C00000006000000020000000000006000408F4000000080208939C0000000C02E186EC00000006000408F4000000000F0073CC000000040F3246EC00C00000013000000620600003C00000006000000020000000000000000408FC000000080
310
1A8939C0000000C07A446FC00000000000408FC0000000801A8939C0000000C02E186EC00C000000130000006A0600003C00000006000000020000000000006000408F4000000080208939C0000000C07A446FC00000000000408FC0000000801A8939C0000000C07A446FC00C00000013000000720600003C000000060000
310
00020000000000006000408F4000000080208939C0000000C07A446FC00000006000408F4000000080208939C0000000C02E186EC00C000000130000007A0600003C00000006000000020000000000000000408FC0000000801A8939C0000000C07A446FC00000000000408FC000000080DF6E36C000000040F44D6FC00C00
310
000013000000820600003C00000006000000020000000000006000408F4000000000E66E36C000000040F44D6FC00000000000408FC000000080DF6E36C000000040F44D6FC00C000000130000008A0600003C00000006000000020000000000006000408F4000000080208939C0000000C07A446FC00000006000408F4000
310
000000E66E36C000000040F44D6FC00C00000013000000920600003C00000006000000020000000000000000408FC000000080DF6E36C000000040F44D6FC00000000000408FC00000008076D533C000000040CF686FC00C000000130000009A0600003C00000006000000020000000000006000408F40000000807CD533C0
310
00000040CF686FC00000000000408FC00000008076D533C000000040CF686FC00C00000013000000A20600003C00000006000000020000000000006000408F40000000807CD533C000000040CF686FC00000006000408F4000000000E66E36C000000040F44D6FC00C00000013000000AA0600003C00000006000000020000
310
000000000000408FC000000080A2BA31C0000000409D916FC00000000000408FC00000008076D533C000000040CF686FC00C00000013000000B20600003C00000006000000020000000000000000408FC000000080A2BA31C0000000409D916FC00000006000408F4000000080A8BA31C0000000409D916FC00C0000001300
310
0000BA0600003C00000006000000020000000000006000408F4000000080A8BA31C0000000409D916FC00000006000408F40000000807CD533C000000040CF686FC00C00000013000000C20600003C00000006000000020000000000000000408FC000000080A2BA31C0000000409D916FC00000000000408FC00000000083
310
182FC0000000409ADA6FC00C00000013000000CA0600003C00000006000000020000000000006000408F40000000008F182FC0000000409ADA6FC00000000000408FC00000000083182FC0000000409ADA6FC00C00000013000000D20600003C00000006000000020000000000006000408F40000000008F182FC000000040
310
9ADA6FC00000006000408F4000000080A8BA31C0000000409D916FC00C00000013000000DA0600003C00000006000000020000000000000000408FC00000000083182FC0000000409ADA6FC00000000000408FC000000000F3172CC0000000C08A1670C00C00000013000000E20600003C0000000600000002000000000000
310
6000408F4000000000FF172CC0000000C08A1670C00000000000408FC000000000F3172CC0000000C08A1670C00C00000013000000EA0600003C00000006000000020000000000006000408F4000000000FF172CC0000000C08A1670C00000006000408F40000000008F182FC0000000409ADA6FC00C00000013000000F206
310
00003C00000006000000020000000000000000408FC000000000F3172CC0000000C08A1670C00000000000408FC000000000252B2AC0000000E0553E70C00C00000013000000FA0600003C00000006000000020000000000006000408F4000000000312B2AC0000000E0553E70C00000000000408FC000000000252B2AC000
310
0000E0553E70C00C00000013000000020700003C00000006000000020000000000006000408F4000000000312B2AC0000000E0553E70C00000006000408F4000000000FF172CC0000000C08A1670C00C000000130000000A0700003C00000006000000020000000000000000408FC0000000008E1829C0000000206D5F70C0
310
0000000000408FC000000000252B2AC0000000E0553E70C00C00000013000000120700003C00000006000000020000000000000000408FC0000000008E1829C0000000206D5F70C00000006000408F40000000009A1829C0000000206D5F70C00C000000130000001A0700003C00000006000000020000000000006000408F
310
40000000009A1829C0000000206D5F70C00000006000408F4000000000312B2AC0000000E0553E70C00C00000013000000220700003C00000006000000020000000000000000408FC0000000008E1829C0000000206D5F70C00000000000408FC000000000E73428C0000000C0158870C00C000000130000002A0700003C00
310
000006000000020000000000006000408F4000000000F43428C0000000C0158870C00000000000408FC000000000E73428C0000000C0158870C00C00000013000000320700003C00000006000000020000000000006000408F4000000000F43428C0000000C0158870C00000006000408F40000000009A1829C0000000206D
310
5F70C00C000000130000003A0700003C00000006000000020000000000000000408FC000000000E73428C0000000C0158870C00000000000408FC0000000000CA127C000000060A0B670C00C00000013000000420700003C00000006000000020000000000006000408F400000000019A127C000000060A0B670C000000000
310
00408FC0000000000CA127C000000060A0B670C00C000000130000004A0700003C00000006000000020000000000006000408F400000000019A127C000000060A0B670C00000006000408F4000000000F43428C0000000C0158870C00C00000013000000520700003C00000006000000020000000000000000408FC0000000
310
004F6827C000000040E7EF70C00000000000408FC0000000000CA127C000000060A0B670C00C000000130000005A0700003C00000006000000020000000000000000408FC0000000004F6827C000000040E7EF70C00000006000408F40000000005C6827C000000040E7EF70C00C00000013000000620700003C0000000600
310
0000020000000000006000408F40000000005C6827C000000040E7EF70C00000006000408F400000000019A127C000000060A0B670C00C000000130000006A0700003C00000006000000020000000000000000408FC0000000004F6827C000000040E7EF70C00000000000408FC0000000000000203F00000040E7EF70C00C
310
00000013000000720700003C00000006000000020000000000006000408F40000000000000F83E00000040E7EF70C00000000000408FC0000000000000203F00000040E7EF70C00C000000130000007A0700003C00000006000000020000000000006000408F40000000005C6827C000000040E7EF70C00000006000408F40
310
000000000000F83E00000040E7EF70C00C00000013000000820700003C00000006000000020000000000000000408FC00000000000001E3F000000C0CB4A70C00000000000408FC0000000000000203F00000040E7EF70C00C000000130000008A0700003C00000006000000020000000000006000408F40000000000000F8
310
3E000000C0CB4A70C00000000000408FC00000000000001E3F000000C0CB4A70C00C00000013000000920700003C00000006000000020000000000006000408F40000000000000F83E000000C0CB4A70C00000006000408F40000000000000F83E00000040E7EF70C00C000000130000009A0700003C000000060000000200
310
00000000000000408FC00000000000001E3F000000C0CB4A70C00000000000408FC00000000080D0EABF000000C0A04670C00C00000013000000A20700003C00000006000000020000000000006000408F400000000040D1EABF000000C0A04670C00000000000408FC00000000080D0EABF000000C0A04670C00C00000013
310
000000AA0700003C00000006000000020000000000006000408F400000000040D1EABF000000C0A04670C00000006000408F40000000000000F83E000000C0CB4A70C00C00000013000000B20700003C00000006000000020000000000000000408FC00000000080D0EABF000000C0A04670C00000000000408FC000000000
310
704BFDBF000000A0763F70C00C00000013000000BA0700003C00000006000000020000000000006000408F4000000000D04BFDBF000000A0763F70C00000000000408FC000000000704BFDBF000000A0763F70C00C00000013000000C20700003C00000006000000020000000000006000408F400000000040D1EABF000000
310
C0A04670C00000006000408F4000000000D04BFDBF000000A0763F70C00C00000013000000CA0700003C00000006000000020000000000000000408FC000000000ACA502C0000000A0963570C00000000000408FC000000000704BFDBF000000A0763F70C00C00000013000000D20700003C00000006000000020000000000
310
000000408FC000000000ACA502C0000000A0963570C00000006000408F4000000000DCA502C0000000A0963570C00C00000013000000DA0700003C00000006000000020000000000006000408F4000000000DCA502C0000000A0963570C00000006000408F4000000000D04BFDBF000000A0763F70C00C00000013000000E2
310
0700003C00000006000000020000000000000000408FC000000000ACA502C0000000A0963570C00000000000408FC000000000044404C000000080622970C00C00000013000000EA0700003C00000006000000020000000000006000408F4000000000344404C000000080622970C00000000000408FC000000000044404C0
310
00000080622970C00C00000013000000F20700003C00000006000000020000000000006000408F4000000000344404C000000080622970C00000006000408F4000000000DCA502C0000000A0963570C00C00000013000000FA0700003C00000006000000020000000000000000408FC000000000044404C000000080622970
310
C00000000000408FC000000000CC3903C000000040F11C70C00C00000013000000020800003C00000006000000020000000000006000408F4000000000FC3903C000000040F11C70C00000000000408FC000000000CC3903C000000040F11C70C00C000000130000000A0800003C0000000600000002000000000000600040
310
8F4000000000FC3903C000000040F11C70C00000006000408F4000000000344404C000000080622970C00C00000013000000120800003C00000006000000020000000000000000408FC0000000008069FFBF00000000641270C00000000000408FC000000000CC3903C000000040F11C70C00C000000130000001A0800003C
310
00000006000000020000000000006000408F4000000000E069FFBF00000000641270C00000000000408FC0000000008069FFBF00000000641270C00C00000013000000220800003C00000006000000020000000000006000408F4000000000E069FFBF00000000641270C00000006000408F4000000000FC3903C000000040
310
F11C70C00C000000130000002A0800003C00000006000000020000000000000000408FC0000000008069FFBF00000000641270C00000000000408FC00000000000001E3F0000004073E76FC00C00000013000000320800003C00000006000000020000000000006000408F40000000000000F83E0000004073E76FC0000000
310
0000408FC00000000000001E3F0000004073E76FC00C000000130000003A0800003C00000006000000020000000000006000408F40000000000000F83E0000004073E76FC00000006000408F4000000000E069FFBF00000000641270C00C00000013000000420800003C00000006000000020000000000000000408FC00000
310
000000001E3F000000C0CBBA6EC00000000000408FC00000000000001E3F0000004073E76FC00C000000130000004A0800003C00000006000000020000000000006000408F40000000000000F83E000000C0CBBA6EC00000000000408FC00000000000001E3F000000C0CBBA6EC00C00000013000000520800003C00000006
310
000000020000000000006000408F40000000000000F83E0000004073E76FC00000006000408F40000000000000F83E000000C0CBBA6EC00C000000130000005A0800003C00000006000000020000000000000000408FC00000000000001E3F000000C0CBBA6EC00000000000408FC000000000006EDEBF0000000068AE6EC0
310
0C00000013000000620800003C00000006000000020000000000006000408F4000000000806FDEBF0000000068AE6EC00000000000408FC000000000006EDEBF0000000068AE6EC00C000000130000006A0800003C00000006000000020000000000006000408F40000000000000F83E000000C0CBBA6EC00000006000408F
310
4000000000806FDEBF0000000068AE6EC00C00000013000000720800003C00000006000000020000000000000000408FC000000000006EDEBF0000000068AE6EC00000000000408FC000000000A0C2F0BF000000000DA76EC00C000000130000007A0800003C00000006000000020000000000006000408F400000000000C3
310
F0BF000000000DA76EC00000000000408FC000000000A0C2F0BF000000000DA76EC00C00000013000000820800003C00000006000000020000000000006000408F400000000000C3F0BF000000000DA76EC00000006000408F4000000000806FDEBF0000000068AE6EC00C000000130000008A0800003C0000000600000002
310
0000000000000000408FC000000000C41611C0000000C08F866EC00000000000408FC000000000A0C2F0BF000000000DA76EC00C00000013000000920800003C00000006000000020000000000000000408FC000000000C41611C0000000C08F866EC00000006000408F4000000000DC1611C0000000C08F866EC00C000000
310
130000009A0800003C00000006000000020000000000006000408F400000000000C3F0BF000000000DA76EC00000006000408F4000000000DC1611C0000000C08F866EC00C00000013000000A20800003C00000006000000020000000000000000408FC000000000E27620C0000000A0083D6EC00000000000408FC0000000
310
00C41611C0000000C08F866EC00C00000013000000AA0800003C00000006000000020000000000000000408FC000000000E27620C0000000A0083D6EC00000006000408F4000000000EF7620C000000080083D6EC00C00000013000000B20800003C00000006000000020000000000006000408F4000000000EF7620C00000
310
0080083D6EC00000006000408F4000000000DC1611C0000000C08F866EC00C00000013000000BA0800003C00000006000000020000000000000000408FC000000000E27620C0000000A0083D6EC00000000000408FC000000000B81526C00000002028D76DC00C00000013000000C20800003C000000060000000200000000
310
00006000408F4000000000C51526C00000000028D76DC00000000000408FC000000000B81526C00000002028D76DC00C00000013000000CA0800003C00000006000000020000000000006000408F4000000000C51526C00000000028D76DC00000006000408F4000000000EF7620C000000080083D6EC00C00000013000000
310
D20800003C00000006000000020000000000000000408FC000000000B81526C00000002028D76DC00000000000408FC000000000F2422BC000000060CB636DC00C00000013000000DA0800003C00000006000000020000000000006000408F4000000000FF422BC000000040CB636DC00000000000408FC000000000F2422B
310
C000000060CB636DC00C00000013000000E20800003C00000006000000020000000000006000408F4000000000FF422BC000000040CB636DC00000006000408F4000000000C51526C00000000028D76DC00C00000013000000EA0800003C00000006000000020000000000000000408FC000000000F2422BC000000060CB63
310
6DC00000000000408FC0000000007FEC2FC0000000E0AB0C6DC00C00000013000000F20800003C00000006000000020000000000006000408F40000000008CEC2FC0000000C0AB0C6DC00000000000408FC0000000007FEC2FC0000000E0AB0C6DC00C00000013000000FA0800003C00000006000000020000000000006000
310
408F40000000008CEC2FC0000000C0AB0C6DC00000006000408F4000000000FF422BC000000040CB636DC00C00000013000000020900003C00000006000000020000000000000000408FC0000000007FEC2FC0000000E0AB0C6DC00000000000408FC0000000801F2034C00000004056BC6CC00C000000130000000A090000
310
3C00000006000000020000000000006000408F4000000000262034C00000004056BC6CC00000000000408FC0000000801F2034C00000004056BC6CC00C00000013000000120900003C00000006000000020000000000006000408F4000000000262034C00000004056BC6CC00000006000408F40000000008CEC2FC0000000
310
C0AB0C6DC00C000000130000001A0900003C00000006000000020000000000000000408FC000000080C06238C0000000006CA26CC00000000000408FC0000000801F2034C00000004056BC6CC00C00000013000000220900003C00000006000000020000000000000000408FC000000080C06238C0000000006CA26CC00000
310
006000408F4000000000C76238C0000000006CA26CC00C000000130000002A0900003C00000006000000020000000000006000408F4000000000C76238C0000000006CA26CC00000006000408F4000000000262034C00000004056BC6CC00C00000013000000320900003C00000006000000020000000000000000408FC000
310
000080C06238C0000000006CA26CC00000000000408FC000000000347D3EC0000000006CA26CC00C000000130000003A0900003C00000006000000020000000000006000408F40000000803A7D3EC0000000006CA26CC00000000000408FC000000000347D3EC0000000006CA26CC00C00000013000000420900003C000000
310
06000000020000000000006000408F4000000000C76238C0000000006CA26CC00000006000408F40000000803A7D3EC0000000006CA26CC00C000000130000004A0900003C00000006000000020000000000000000408FC000000000347D3EC0000000006CA26CC00000000000408FC0000000C0BB3D41C0000000E019846C
310
C00C00000013000000520900003C00000006000000020000000000000000408FC0000000C0BB3D41C0000000E019846CC00000006000408F4000000040BF3D41C0000000C019846CC00C000000130000005A0900003C00000006000000020000000000006000408F40000000803A7D3EC0000000006CA26CC0000000600040
310
8F4000000040BF3D41C0000000C019846CC00C00000013000000620900003C00000006000000020000000000000000408FC0000000C0BB3D41C0000000E019846CC00000000000408FC000000040E94943C000000000EE146CC00C000000130000006A0900003C00000006000000020000000000000000408FC000000040E9
310
4943C000000000EE146CC00000006000408F4000000000ED4943C000000000EE146CC00C00000013000000720900003C00000006000000020000000000006000408F4000000000ED4943C000000000EE146CC00000006000408F4000000040BF3D41C0000000C019846CC00C000000130000007A0900003C00000006000000
310
020000000000000000408FC000000040E94943C000000000EE146CC00000000000408FC000000080CB0D44C0000000C0FF716BC00C00000013000000820900003C00000006000000020000000000006000408F40000000C0CE0D44C0000000C0FF716BC00000000000408FC000000080CB0D44C0000000C0FF716BC00C0000
310
00130000008A0900003C00000006000000020000000000006000408F40000000C0CE0D44C0000000C0FF716BC00000006000408F4000000000ED4943C000000000EE146CC00C00000013000000920900003C00000006000000020000000000000000408FC0000000C04A4B43C0000000A0F6CE6AC00000000000408FC00000
310
0080CB0D44C0000000C0FF716BC00C000000130000009A0900003C00000006000000020000000000000000408FC0000000C04A4B43C0000000A0F6CE6AC00000006000408F40000000004E4B43C000000080F6CE6AC00C00000013000000A20900003C00000006000000020000000000006000408F40000000004E4B43C000
310
000080F6CE6AC00000006000408F40000000C0CE0D44C0000000C0FF716BC00C00000013000000AA0900003C00000006000000020000000000000000408FC0000000C04A4B43C0000000A0F6CE6AC00000000000408FC00000004027D641C0000000A02C326AC00C00000013000000B20900003C0000000600000002000000
310
0000006000408F40000000402AD641C0000000802C326AC00000000000408FC00000004027D641C0000000A02C326AC00C00000013000000BA0900003C00000006000000020000000000006000408F40000000402AD641C0000000802C326AC00000006000408F40000000004E4B43C000000080F6CE6AC00C000000130000
310
00C20900003C00000006000000020000000000000000408FC0000000C0A06641C000000040288469C00000000000408FC00000004027D641C0000000A02C326AC00C00000013000000CA0900003C00000006000000020000000000006000408F40000000C0A36641C000000040288469C00000000000408FC0000000C0A066
310
41C000000040288469C00C00000013000000D20900003C00000006000000020000000000006000408F40000000C0A36641C000000040288469C00000006000408F40000000402AD641C0000000802C326AC00C00000013000000DA0900003C00000006000000020000000000000000408FC0000000C07D6C41C000000020DB
310
F768C00000000000408FC0000000C0A06641C000000040288469C00C00000013000000E20900003C00000006000000020000000000000000408FC0000000C07D6C41C000000020DBF768C00000006000408F4000000000816C41C000000000DBF768C00C00000013000000EA0900003C000000060000000200000000000060
310
00408F40000000C0A36641C000000040288469C00000006000408F4000000000816C41C000000000DBF768C00C00000013000000F20900003C00000006000000020000000000000000408FC0000000C07D6C41C000000020DBF768C00000000000408FC00000008049B041C000000080B96468C00C00000013000000FA0900
310
003C00000006000000020000000000000000408FC00000008049B041C000000080B96468C00000006000408F40000000C04CB041C000000080B96468C00C00000013000000020A00003C00000006000000020000000000006000408F40000000C04CB041C000000080B96468C00000006000408F4000000000816C41C00000
310
0000DBF768C00C000000130000000A0A00003C00000006000000020000000000000000408FC00000008049B041C000000080B96468C00000000000408FC0000000C04B4642C000000020C7F067C00C00000013000000120A00003C00000006000000020000000000006000408F40000000004F4642C000000000C7F067C000
310
00000000408FC0000000C04B4642C000000020C7F067C00C000000130000001A0A00003C00000006000000020000000000006000408F40000000004F4642C000000000C7F067C00000006000408F40000000C04CB041C000000080B96468C00C00000013000000220A00003C00000006000000020000000000000000408FC0
310
00000080912443C000000000B89667C00000000000408FC0000000C04B4642C000000020C7F067C00C000000130000002A0A00003C00000006000000020000000000006000408F4000000000952443C000000000B89667C00000000000408FC000000080912443C000000000B89667C00C00000013000000320A00003C0000
310
0006000000020000000000006000408F4000000000952443C000000000B89667C00000006000408F40000000004F4642C000000000C7F067C00C000000130000003A0A00003C00000006000000020000000000000000408FC000000080912443C000000000B89667C00000000000408FC000000000449A4AC000000000DC7D
310
65C00C00000013000000420A00003C00000006000000020000000000006000408F4000000000479A4AC0000000E0DB7D65C00000000000408FC000000000449A4AC000000000DC7D65C00C000000130000004A0A00003C00000006000000020000000000006000408F4000000000479A4AC0000000E0DB7D65C00000006000
310
408F4000000000952443C000000000B89667C00C00000013000000520A00003C00000006000000020000000000000000408FC000000000E59C4CC000000040320365C00000000000408FC000000000449A4AC000000000DC7D65C00C000000130000005A0A00003C00000006000000020000000000006000408F4000000020
310
E89C4CC000000020320365C00000000000408FC000000000E59C4CC000000040320365C00C00000013000000620A00003C00000006000000020000000000006000408F4000000000479A4AC0000000E0DB7D65C00000006000408F4000000020E89C4CC000000020320365C00C000000130000006A0A00003C000000060000
310
00020000000000000000408FC000000000E59C4CC000000040320365C00000000000408FC0000000A0BDE84EC000000020369E64C00C00000013000000720A00003C00000006000000020000000000006000408F40000000E0C0E84EC000000000369E64C00000000000408FC0000000A0BDE84EC000000020369E64C00C00
310
0000130000007A0A00003C00000006000000020000000000006000408F40000000E0C0E84EC000000000369E64C00000006000408F4000000020E89C4CC000000020320365C00C00000013000000820A00003C00000006000000020000000000000000408FC0000000A0BDE84EC000000020369E64C00000000000408FC000
310
000080AE8A51C0000000C0231F64C00C000000130000008A0A00003C00000006000000020000000000006000408F4000000000B08A51C0000000A0231F64C00000000000408FC000000080AE8A51C0000000C0231F64C00C00000013000000920A00003C00000006000000020000000000006000408F4000000000B08A51C0
310
000000A0231F64C00000006000408F40000000E0C0E84EC000000000369E64C00C000000130000009A0A00003C00000006000000020000000000000000408FC000000080AE8A51C0000000C0231F64C00000000000408FC000000000A8DD53C000000020F46763C00C00000013000000A20A00003C00000006000000020000
310
000000006000408F4000000080A9DD53C000000000F46763C00000000000408FC000000000A8DD53C000000020F46763C00C00000013000000AA0A00003C00000006000000020000000000006000408F4000000000B08A51C0000000A0231F64C00000006000408F4000000080A9DD53C000000000F46763C00C0000001300
310
0000B20A00003C00000006000000020000000000000000408FC0000000E0712C55C0000000406CC662C00000000000408FC000000000A8DD53C000000020F46763C00C00000013000000BA0A00003C00000006000000020000000000000000408FC0000000E0712C55C0000000406CC662C00000006000408F400000004073
310
2C55C0000000206CC662C00C00000013000000C20A00003C00000006000000020000000000006000408F4000000040732C55C0000000206CC662C00000006000408F4000000080A9DD53C000000000F46763C00C00000013000000CA0A00003C00000006000000020000000000000000408FC0000000E0712C55C000000040
310
6CC662C00000000000408FC000000020C98855C0000000C0D38162C00C00000013000000D20A00003C00000006000000020000000000006000408F4000000080CA8855C0000000A0D38162C00000000000408FC000000020C98855C0000000C0D38162C00C00000013000000DA0A00003C0000000600000002000000000000
310
6000408F4000000040732C55C0000000206CC662C00000006000408F4000000080CA8855C0000000A0D38162C00C00000013000000E20A00003C00000006000000020000000000000000408FC0000000E06EBE55C000000080F83362C00000000000408FC000000020C98855C0000000C0D38162C00C00000013000000EA0A
310
00003C00000006000000020000000000006000408F400000006070BE55C000000060F83362C00000000000408FC0000000E06EBE55C000000080F83362C00C00000013000000F20A00003C00000006000000020000000000006000408F400000006070BE55C000000060F83362C00000006000408F4000000080CA8855C000
310
0000A0D38162C00C00000013000000FA0A00003C00000006000000020000000000000000408FC0000000E06EBE55C000000080F83362C00000000000408FC000000080911457C0000000201B775FC00C00000013000000020B00003C00000006000000020000000000006000408F4000000000931457C0000000001B775FC0
310
0000000000408FC000000080911457C0000000201B775FC00C000000130000000A0B00003C00000006000000020000000000006000408F4000000000931457C0000000001B775FC00000006000408F400000006070BE55C000000060F83362C00C00000013000000120B00003C00000006000000020000000000000000408F
310
C000000080911457C0000000201B775FC00000000000408FC0000000004F0859C000000000B0B95AC00C000000130000001A0B00003C00000006000000020000000000006000408F4000000080500859C0000000E0AFB95AC00000000000408FC0000000004F0859C000000000B0B95AC00C00000013000000220B00003C00
310
000006000000020000000000006000408F4000000080500859C0000000E0AFB95AC00000006000408F4000000000931457C0000000001B775FC00C000000130000002A0B00003C00000006000000020000000000000000408FC0000000004F0859C000000000B0B95AC00000000000408FC0000000C0EB915BC0000000A077
310
4256C00C00000013000000320B00003C00000006000000020000000000006000408F4000000040ED915BC000000080774256C00000000000408FC0000000C0EB915BC0000000A0774256C00C000000130000003A0B00003C00000006000000020000000000006000408F4000000040ED915BC000000080774256C000000060
310
00408F4000000080500859C0000000E0AFB95AC00C00000013000000420B00003C00000006000000020000000000000000408FC0000000C0EB915BC0000000A0774256C00000000000408FC0000000E059A75EC000000040232352C00C000000130000004A0B00003C00000006000000020000000000006000408F40000000
310
405BA75EC000000020232352C00000000000408FC0000000E059A75EC000000040232352C00C00000013000000520B00003C00000006000000020000000000006000408F40000000405BA75EC000000020232352C00000006000408F4000000040ED915BC000000080774256C00C000000130000005A0B00003C0000000600
310
0000020000000000000000408FC0000000E059A75EC000000040232352C00000000000408FC0000000C0C09E61C000000080E3DD4AC00C00000013000000620B00003C00000006000000020000000000008000408F40000000A0C19E61C000000080E3DD4AC00000000000408FC0000000C0C09E61C000000080E3DD4AC00C
310
000000130000006A0B00003C00000006000000020000000000006000408F40000000405BA75EC000000020232352C00000008000408F40000000A0C19E61C000000080E3DD4AC00C00000013000000720B00003C00000006000000020000000000000000408FC0000000C0C09E61C000000080E3DD4AC00000000000408FC0
310
000000C08E3764C0000000C0EBC242C00C000000130000007A0B00003C00000006000000020000000000008000408F40000000A08F3764C000000080EBC242C00000000000408FC0000000C08E3764C0000000C0EBC242C00C00000013000000820B00003C00000006000000020000000000008000408F40000000A08F3764
310
C000000080EBC242C00000008000408F40000000A0C19E61C000000080E3DD4AC00C000000130000008A0B00003C00000006000000020000000000000000408FC0000000C0DB1167C000000080203738C00000000000408FC0000000C08E3764C0000000C0EBC242C00C00000013000000920B00003C000000060000000200
310
00000000008000408F40000000A0DC1167C000000000203738C00000000000408FC0000000C0DB1167C000000080203738C00C000000130000009A0B00003C00000006000000020000000000008000408F40000000A0DC1167C000000000203738C00000008000408F40000000A08F3764C000000080EBC242C00C00000013
310
000000A20B00003C00000006000000020000000000000000408FC0000000C0DB1167C000000080203738C00000000000408FC00000008051346AC000000000869B2BC00C00000013000000AA0B00003C00000006000000020000000000008000408F400000006052346AC000000000859B2BC00000000000408FC000000080
310
51346AC000000000869B2BC00C00000013000000B20B00003C00000006000000020000000000008000408F400000006052346AC000000000859B2BC00000008000408F40000000A0DC1167C000000000203738C00C00000013000000BA0B00003C00000006000000020000000000000000408FC00000008051346AC0000000
310
00869B2BC00000000000408FC0000000A0E9926AC000000000729929C00C00000013000000C20B00003C00000006000000020000000000000000408FC0000000A0E9926AC000000000729929C00000008000408F4000000060EA926AC000000000719929C00C00000013000000CA0B00003C00000006000000020000000000
310
008000408F400000006052346AC000000000859B2BC00000008000408F4000000060EA926AC000000000719929C00C00000013000000D20B00003C00000006000000020000000000000000408FC0000000A0E9926AC000000000729929C00000000000408FC0000000004AE96AC000000000483029C00C00000013000000DA
310
0B00003C00000006000000020000000000000000408FC0000000004AE96AC000000000483029C00000008000408F40000000E04AE96AC000000000483029C00C00000013000000E20B00003C00000006000000020000000000008000408F40000000E04AE96AC000000000483029C00000008000408F4000000060EA926AC0
310
00000000719929C00C00000013000000EA0B00003C00000006000000020000000000000000408FC0000000004AE96AC000000000483029C00000000000408FC0000000C03F486BC00000000094572AC00C00000013000000F20B00003C00000006000000020000000000004000408F40000000A040486BC00000000094572A
310
C00000000000408FC0000000C03F486BC00000000094572AC00C00000013000000FA0B00003C00000006000000020000000000004000408F40000000A040486BC00000000094572AC00000008000408F40000000E04AE96AC000000000483029C00C00000013000000020C00003C0000000600000002000000000000000040
310
8FC0000000C03F486BC00000000094572AC00000000000408FC00000008086A36BC0000000004AD82CC00C000000130000000A0C00003C00000006000000020000000000004000408F400000006087A36BC0000000004AD82CC00000000000408FC00000008086A36BC0000000004AD82CC00C00000013000000120C00003C
310
00000006000000020000000000004000408F400000006087A36BC0000000004AD82CC00000004000408F40000000A040486BC00000000094572AC00C000000130000001A0C00003C00000006000000020000000000000000408FC00000008086A36BC0000000004AD82CC00000000000408FC000000060CFE56BC000000000
310
C6E82FC00C00000013000000220C00003C00000006000000020000000000004000408F4000000040D0E56BC000000000C6E82FC00000000000408FC000000060CFE56BC000000000C6E82FC00C000000130000002A0C00003C00000006000000020000000000004000408F4000000040D0E56BC000000000C6E82FC0000000
310
4000408F400000006087A36BC0000000004AD82CC00C00000013000000320C00003C00000006000000020000000000000000408FC000000020253A6CC000000000D46A31C00000000000408FC000000060CFE56BC000000000C6E82FC00C000000130000003A0C00003C00000006000000020000000000000000408FC00000
310
0020253A6CC000000000D46A31C00000004000408F40000000E0253A6CC000000000D46A31C00C00000013000000420C00003C00000006000000020000000000004000408F40000000E0253A6CC000000000D46A31C00000004000408F4000000040D0E56BC000000000C6E82FC00C000000130000004A0C00003C00000006
310
000000020000000000000000408FC000000020253A6CC000000000D46A31C00000000000408FC000000060C09A6CC000000000D9E431C00C00000013000000520C00003C00000006000000020000000000000000408FC000000060C09A6CC000000000D9E431C00000004000408F4000000020C19A6CC000000000D9E431C0
310
0C000000130000005A0C00003C00000006000000020000000000004000408F4000000020C19A6CC000000000D9E431C00000004000408F40000000E0253A6CC000000000D46A31C00C00000013000000620C00003C00000006000000020000000000000000408FC000000060C09A6CC000000000D9E431C00000000000408F
310
C0000000A052F56CC000000000565531C00C000000130000006A0C00003C00000006000000020000000000004000408F400000006053F56CC000000000565531C00000000000408FC0000000A052F56CC000000000565531C00C00000013000000720C00003C00000006000000020000000000004000408F400000006053F5
310
6CC000000000565531C00000004000408F4000000020C19A6CC000000000D9E431C00C000000130000007A0C00003C00000006000000020000000000000000408FC0000000A052F56CC000000000565531C00000000000408FC000000060A63D6DC000000000C1C92FC00C00000013000000820C00003C0000000600000002
310
0000000000004000408F4000000020A73D6DC000000000C1C92FC00000000000408FC000000060A63D6DC000000000C1C92FC00C000000130000008A0C00003C00000006000000020000000000004000408F4000000020A73D6DC000000000C1C92FC00000004000408F400000006053F56CC000000000565531C00C000000
310
13000000920C00003C00000006000000020000000000000000408FC000000060A63D6DC000000000C1C92FC00000000000408FC00000008032676DC000000000E7A72CC00C000000130000009A0C00003C00000006000000020000000000004000408F400000006033676DC000000000E7A72CC00000000000408FC0000000
310
8032676DC000000000E7A72CC00C00000013000000A20C00003C00000006000000020000000000004000408F400000006033676DC000000000E7A72CC00000004000408F4000000020A73D6DC000000000C1C92FC00C00000013000000AA0C00003C00000006000000020000000000000000408FC0000000C0B77C6DC00000
310
000081E629C00000000000408FC00000008032676DC000000000E7A72CC00C00000013000000B20C00003C00000006000000020000000000004000408F40000000A0B87C6DC00000000081E629C00000000000408FC0000000C0B77C6DC00000000081E629C00C00000013000000BA0C00003C000000060000000200000000
310
00004000408F40000000A0B87C6DC00000000081E629C00000004000408F400000006033676DC000000000E7A72CC00C00000013000000C20C00003C00000006000000020000000000000000408FC000000080E6F46DC000000000C02BEDBF0000000000408FC0000000C0B77C6DC00000000081E629C00C00000013000000
310
CA0C00003C00000006000000020000000000000000408FC000000080E6F46DC000000000C02BEDBF0000004000408F4000000040E7F46DC000000000A02BEDBF0C00000013000000D20C00003C00000006000000020000000000004000408F40000000A0B87C6DC00000000081E629C00000004000408F4000000040E7F46D
310
C000000000A02BEDBF0C00000013000000DA0C00003C00000006000000020000000000000000408FC000000080E6F46DC000000000C02BEDBF0000000000408FC00000000068FC6DC0000000000096DABF0C00000013000000E20C00003C00000006000000020000000000000000408FC00000000068FC6DC0000000000096
310
DABF0000004000408F40000000E068FC6DC000000000C095DABF0C00000013000000EA0C00003C00000006000000020000000000004000408F4000000040E7F46DC000000000A02BEDBF0000004000408F40000000E068FC6DC000000000C095DABF0C00000013000000F20C00003C00000006000000020000000000000000
310
408FC00000000068FC6DC0000000000096DABF0000000000408FC00000004005086EC000000000000000000C00000013000000FA0C00003C00000006000000020000000000004000408F400000000006086EC0000000000000F03E0000000000408FC00000004005086EC000000000000000000C00000013000000020D0000
310
3C00000006000000020000000000004000408F400000000006086EC0000000000000F03E0000004000408F40000000E068FC6DC000000000C095DABF0C000000130000000A0D00003C00000006000000020000000000000000408FC0000000C03A3A6FC000000000000000000000000000408FC00000004005086EC0000000
310
00000000000C00000013000000120D00003C00000006000000020000000000004000408F40000000603B3A6FC0000000000000F03E0000000000408FC0000000C03A3A6FC000000000000000000C000000130000001A0D00003C00000006000000020000000000004000408F40000000603B3A6FC0000000000000F03E0000
310
004000408F400000000006086EC0000000000000F03E0C00000013000000220D00003C00000006000000020000000000000000408FC0000000003C7E6FC000000000C0F3FEBF0000000000408FC0000000C03A3A6FC000000000000000000C000000130000002A0D00003C00000006000000020000000000004000408F4000
310
0000C03C7E6FC000000000B0F3FEBF0000000000408FC0000000003C7E6FC000000000C0F3FEBF0C00000013000000320D00003C00000006000000020000000000004000408F40000000C03C7E6FC000000000B0F3FEBF0000004000408F40000000603B3A6FC0000000000000F03E0C000000130000003A0D00003C000000
310
06000000020000000000000000408FC0000000003C7E6FC000000000C0F3FEBF0000000000408FC000000000D8936FC000000000D8AD02C00C00000013000000420D00003C00000006000000020000000000000000408FC000000000D8936FC000000000D8AD02C00000004000408F40000000A0D8936FC000000000D0AD02
310
C00C000000130000004A0D00003C00000006000000020000000000004000408F40000000C03C7E6FC000000000B0F3FEBF0000004000408F40000000A0D8936FC000000000D0AD02C00C00000013000000520D00003C00000006000000020000000000000000408FC000000000D8936FC000000000D8AD02C0000000000040
310
8FC000000040DFAC6FC000000000608303C00C000000130000005A0D00003C00000006000000020000000000000000408FC000000040DFAC6FC000000000608303C00000004000408F4000000000E0AC6FC000000000588303C00C00000013000000620D00003C00000006000000020000000000004000408F40000000A0D8
310
936FC000000000D0AD02C00000004000408F4000000000E0AC6FC000000000588303C00C000000130000006A0D00003C00000006000000020000000000000000408FC000000040DFAC6FC000000000608303C00000000000408FC00000000031C56FC00000000020D701C00C00000013000000720D00003C00000006000000
310
020000000000000000408FC00000000031C56FC00000000020D701C00000004000408F40000000C031C56FC00000000018D701C00C000000130000007A0D00003C00000006000000020000000000004000408F40000000C031C56FC00000000018D701C00000004000408F4000000000E0AC6FC000000000588303C00C0000
310
0013000000820D00003C00000006000000020000000000000000408FC00000000031C56FC00000000020D701C00000000000408FC000000040CAD86FC00000000060DFFBBF0C000000130000008A0D00003C00000006000000020000000000004000408F4000000000CBD86FC00000000050DFFBBF0000000000408FC00000
310
0040CAD86FC00000000060DFFBBF0C00000013000000920D00003C00000006000000020000000000004000408F40000000C031C56FC00000000018D701C00000004000408F4000000000CBD86FC00000000050DFFBBF0C000000130000009A0D00003C00000006000000020000000000000000408FC000000000FCE66FC000
310
000000A04EE9BF0000000000408FC000000040CAD86FC00000000060DFFBBF0C00000013000000A20D00003C00000006000000020000000000004000408F40000000A0FCE66FC000000000804EE9BF0000000000408FC000000000FCE66FC000000000A04EE9BF0C00000013000000AA0D00003C0000000600000002000000
310
0000004000408F40000000A0FCE66FC000000000804EE9BF0000004000408F4000000000CBD86FC00000000050DFFBBF0C00000013000000B20D00003C00000006000000020000000000000000408FC000000000FCE66FC000000000A04EE9BF0000000000408FC00000008008EF6FC000000000000000000C000000130000
310
00BA0D00003C00000006000000020000000000004000408F400000002009EF6FC0000000000000F03E0000004000408F40000000A0FCE66FC000000000804EE9BF0C00000013000000C20D00003C00000006000000020000000000000000408FC0000000807F5A68C00000000037E93FC00000000000408FC0000000609905
310
67C000000000F09C42C00C00000013000000CA0D00003C00000006000000020000000000008000408F40000000209A0567C0000000C0EF9C42C00000008000408F4000000060805A68C00000008036E93FC00C00000013000000D20D00003C00000006000000020000000000000000408FC000000000BCA265C000000000AD
310
DB45C00000000000408FC000000080916764C000000000C13349C00C00000013000000DA0D00003C00000006000000020000000000008000408F4000000060926764C0000000C0C03349C00000008000408F40000000E0BCA265C0000000C0ACDB45C00C00000013000000E20D00003C000000060000000200000000000000
310
00408FC0000000603A2563C000000000D7234DC00000000000408FC000000040980962C000000000908E50C00C00000013000000EA0D00003C00000006000000020000000000008000408F4000000020990962C000000000908E50C00000008000408F40000000203B2563C000000000D7234DC00C00000013000000F20D00
310
003C00000006000000020000000000000000408FC0000000C0D2D160C000000000790E53C00000000000408FC000000020A60D60C0000000C009D954C00C00000013000000FA0D00003C00000006000000020000000000006000408F4000000000A70D60C0000000A009D954C00000008000408F40000000A0D3D160C00000
310
0000790E53C00C00000013000000020E00003C00000006000000020000000000000000408FC0000000C0DAAD5EC000000020C7C056C00000000000408FC0000000C087625DC0000000E053B958C00C000000130000000A0E00003C00000006000000020000000000006000408F400000004089625DC0000000C053B958C000
310
00006000408F4000000040DCAD5EC000000000C7C056C00C00000013000000120E00003C00000006000000020000000000000000408FC00000008091355CC0000000C017C85AC00000000000408FC0000000604F2B5BC000000080CBE55CC00C000000130000001A0E00003C00000006000000020000000000006000408F40
310
00000000512B5BC000000060CBE55CC00000006000408F400000000093355CC0000000A017C85AC00C00000013000000220E00003C00000006000000020000000000000000408FC0000000C0FD425AC0000000A0A6135FC00000000000408FC0000000402C7E59C00000008020A760C00C000000130000002A0E00003C0000
310
0006000000020000000000006000408F40000000A02D7E59C00000008020A760C00000006000408F4000000040FF425AC000000080A6135FC00C00000013000000320E00003C00000006000000020000000000000000408FC0000000E0A7DD58C0000000A077C961C00000000000408FC0000000408E6158C000000020D0F0
310
62C00C000000130000003A0E00003C00000006000000020000000000006000408F40000000A08F6158C000000020D0F062C00000006000408F4000000060A9DD58C0000000A077C961C00C00000013000000420E00003C00000006000000020000000000006000408F4000000000E66E36C000000040F44D6FC00000006000
310
408F4000000000FF422BC000000040CB636DC00C000000130000004A0E00003C00000006000000020000000000006000408F4000000080208939C0000000C07A446FC00000006000408F40000000008CEC2FC0000000C0AB0C6DC00C00000013000000520E00003C00000006000000020000000000004000408F4000000020
310
09EF6FC0000000000000F03E0000004000408F4000000080D55E70C000000000D2AF28C00C000000130000005A0E00003C00000006000000020000000000004000408F40000000A0FCE66FC000000000804EE9BF0000004000408F4000000080D55E70C000000000D2AF28C00C00000013000000620E00003C000000060000
310
00020000000000004000408F4000000000EE2970C000000000A09329C00000004000408F4000000000CBD86FC00000000050DFFBBF0C000000130000006A0E00003C00000006000000020000000000004000408F40000000C031C56FC00000000018D701C00000004000408F40000000C07E0E70C0000000005A672AC00C00
310
000013000000720E00003C00000006000000020000000000004000408F40000000E0A4EC6FC000000000766B2BC00000004000408F4000000000E0AC6FC000000000588303C00C000000130000007A0E00003C00000006000000020000000000004000408F400000002087B56FC0000000007D182DC00000004000408F4000
310
0000A0D8936FC000000000D0AD02C00C00000013000000820E00003C00000006000000020000000000004000408F40000000C03C7E6FC000000000B0F3FEBF0000004000408F40000000E068FC6DC000000000C095DABF0C000000130000008A0E00003C00000006000000020000000000004000408F4000000040E7F46DC0
310
00000000A02BEDBF0000004000408F40000000A0D8936FC000000000D0AD02C00C00000013000000920E00003C00000006000000020000000000004000408F4000000040E7F46DC000000000A02BEDBF0000004000408F4000000040F18A6FC0000000005BE52EC00C000000130000009A0E00003C00000006000000020000
310
000000004000408F4000000020D5626FC000000080AEBD30C00000004000408F40000000A0B87C6DC00000000081E629C00C00000013000000A20E00003C00000006000000020000000000004000408F400000006033676DC000000000E7A72CC00000004000408F40000000E0993F6FC000000080D1F432C00C0000001300
310
0000AA0E00003C00000006000000020000000000004000408F4000000020A73D6DC000000000C1C92FC00000004000408F40000000403E316FC000000080D3B235C00C00000013000000B20E00003C00000006000000020000000000004000408F400000006053F56CC000000000565531C00000004000408F40000000407B
310
BD6EC000000000D4B235C00C00000013000000BA0E00003C00000006000000020000000000004000408F400000006053F56CC000000000565531C00000004000408F400000002012CC6EC000000080D5C538C00C00000013000000C20E00003C00000006000000020000000000004000408F400000006053F56CC000000000
310
565531C00000004000408F40000000605AC16EC000000000A8DC3BC00C00000013000000CA0E00003C00000006000000020000000000004000408F4000000020FF9D6EC0000000800EC63EC00000004000408F400000006053F56CC000000000565531C00C00000013000000D20E00003C0000000600000002000000000000
310
4000408F40000000A033646EC000000000D0A940C00000004000408F4000000020C19A6CC000000000D9E431C00C00000013000000DA0E00003C00000006000000020000000000004000408F400000002091176EC00000008055AE41C00000004000408F4000000020C19A6CC000000000D9E431C00C00000013000000E20E
310
00003C00000006000000020000000000004000408F4000000020DDBC6DC0000000005F6042C00000004000408F4000000020C19A6CC000000000D9E431C00C00000013000000EA0E00003C00000006000000020000000000004000408F4000000060BD596DC000000000D7B442C00000004000408F4000000020C19A6CC000
310
000000D9E431C00C00000013000000F20E00003C00000006000000020000000000004000408F4000000020CFF96CC000000000DAAE42C00000004000408F40000000E0253A6CC000000000D46A31C00C00000013000000FA0E00003C00000006000000020000000000004000408F40000000604E9C6CC000000080B05A42C0
310
0000004000408F40000000E0253A6CC000000000D46A31C00C00000013000000020F00003C00000006000000020000000000004000408F40000000E052456CC0000000000DBC41C00000004000408F40000000E0253A6CC000000000D46A31C00C000000130000000A0F00003C00000006000000020000000000004000408F
310
40000000A0ABF86BC000000000DFD940C00000004000408F40000000E0253A6CC000000000D46A31C00C00000013000000120F00003C00000006000000020000000000008000408F4000000060C4C96AC000000000CF0E39C00000004000408F4000000040D0E56BC000000000C6E82FC00C000000130000001A0F00003C00
310
000006000000020000000000008000408F40000000E0D79E6AC000000000348538C00000008000408F4000000060EA926AC000000000719929C00C00000013000000220F00003C00000006000000020000000000008000408F40000000A08D876AC000000000B2A138C00000008000408F400000006052346AC00000000085
310
9B2BC00C000000130000002A0F00003C00000006000000020000000000008000408F40000000E0D79E6AC000000000348538C00000008000408F40000000E04AE96AC000000000483029C00C00000013000000320F00003C00000006000000020000000000008000408F4000000020E9B56AC00000000037AB38C000000040
310
00408F400000006087A36BC0000000004AD82CC00C000000130000003A0F00003C00000006000000020000000000008000408F4000000020E9B56AC00000000037AB38C00000004000408F40000000A040486BC00000000094572AC00C00000013000000420F00003C00000006000000020000000000008000408F40000000
310
A0DC1167C000000000203738C00000008000408F4000000060805A68C00000008036E93FC00C000000130000004A0F00003C00000006000000020000000000008000408F40000000209A0567C0000000C0EF9C42C00000008000408F40000000A0DC1167C000000000203738C00C00000013000000520F00003C0000000600
310
0000020000000000008000408F40000000A08F3764C000000080EBC242C00000008000408F40000000E0BCA265C0000000C0ACDB45C00C000000130000005A0F00003C00000006000000020000000000008000408F4000000060926764C0000000C0C03349C00000008000408F40000000A08F3764C000000080EBC242C00C
310
00000013000000620F00003C00000006000000020000000000008000408F40000000A0C19E61C000000080E3DD4AC00000008000408F40000000203B2563C000000000D7234DC00C000000130000006A0F00003C00000006000000020000000000008000408F4000000020990962C000000000908E50C00000008000408F40
310
000000A0C19E61C000000080E3DD4AC00C00000013000000720F00003C00000006000000020000000000006000408F40000000405BA75EC000000020232352C00000008000408F40000000A0D3D160C000000000790E53C00C000000130000007A0F00003C00000006000000020000000000006000408F4000000000A70D60
310
C0000000A009D954C00000006000408F40000000405BA75EC000000020232352C00C00000013000000820F00003C00000006000000020000000000006000408F4000000040ED915BC000000080774256C00000006000408F4000000040DCAD5EC000000000C7C056C00C000000130000008A0F00003C000000060000000200
310
00000000006000408F400000004089625DC0000000C053B958C00000006000408F4000000040ED915BC000000080774256C00C00000013000000920F00003C00000006000000020000000000006000408F4000000080500859C0000000E0AFB95AC00000006000408F400000000093355CC0000000A017C85AC00C00000013
310
0000009A0F00003C00000006000000020000000000006000408F4000000000512B5BC000000060CBE55CC00000006000408F4000000080500859C0000000E0AFB95AC00C00000013000000A20F00003C00000006000000020000000000006000408F4000000000931457C0000000001B775FC00000006000408F4000000040
310
FF425AC000000080A6135FC00C00000013000000AA0F00003C00000006000000020000000000006000408F40000000A02D7E59C00000008020A760C00000006000408F4000000000931457C0000000001B775FC00C00000013000000B20F00003C00000006000000020000000000006000408F400000006070BE55C0000000
310
60F83362C00000006000408F4000000060A9DD58C0000000A077C961C00C00000013000000BA0F00003C00000006000000020000000000006000408F40000000A08F6158C000000020D0F062C00000006000408F400000006070BE55C000000060F83362C00C00000013000000C20F00003C00000006000000020000000000
310
006000408F40000000A077DF57C0000000A0EFAF64C00000006000408F4000000080CA8855C0000000A0D38162C00C00000013000000CA0F00003C00000006000000020000000000006000408F40000000C01CFD54C000000040EFAF64C00000006000408F4000000040732C55C0000000206CC662C00C00000013000000D2
310
0F00003C00000006000000020000000000006000408F40000000C01CFD54C000000040EFAF64C00000006000408F4000000080A9DD53C000000000F46763C00C00000013000000DA0F00003C00000006000000020000000000006000408F40000000C01CFD54C000000000736765C00000006000408F4000000080A9DD53C0
310
00000000F46763C00C00000013000000E20F00003C00000006000000020000000000006000408F4000000080B6E553C000000000736765C00000006000408F4000000000B08A51C0000000A0231F64C00C00000013000000EA0F00003C00000006000000020000000000006000408F4000000080D88952C0000000002A7B65
310
C00000006000408F4000000000B08A51C0000000A0231F64C00C00000013000000F20F00003C00000006000000020000000000006000408F4000000080544051C00000004045B565C00000006000408F40000000E0C0E84EC000000000369E64C00C00000013000000FA0F00003C0000000600000002000000000000600040
310
8F40000000E0961A50C0000000C0B21266C00000006000408F4000000020E89C4CC000000020320365C00C00000013000000021000003C00000006000000020000000000006000408F400000006048504EC0000000E0818E66C00000006000408F4000000000479A4AC0000000E0DB7D65C00C000000130000000A1000003C
310
00000006000000020000000000006000408F40000000A085EB4CC0000000602C2267C00000006000408F4000000000479A4AC0000000E0DB7D65C00C00000013000000121000003C00000006000000020000000000006000408F4000000060C3194CC000000060E5C567C00000006000408F4000000000952443C000000000
310
B89667C00C000000130000001A1000003C00000006000000020000000000006000408F400000000091A447C0000000C0047168C00000006000408F4000000000952443C000000000B89667C00C00000013000000221000003C00000006000000020000000000006000408F400000000091A447C0000000C0047168C0000000
310
6000408F40000000004F4642C000000000C7F067C00C000000130000002A1000003C00000006000000020000000000006000408F400000000091A447C0000000C0047168C00000006000408F40000000C04CB041C000000080B96468C00C00000013000000321000003C00000006000000020000000000006000408F400000
310
008090A447C000000080A9AA69C00000006000408F4000000000816C41C000000000DBF768C00C000000130000003A1000003C00000006000000020000000000006000408F400000008090A447C000000080A9AA69C00000006000408F40000000C0A36641C000000040288469C00C00000013000000421000003C00000006
310
000000020000000000006000408F400000008090A447C000000080A9AA69C00000006000408F40000000402AD641C0000000802C326AC00C000000130000004A1000003C00000006000000020000000000006000408F4000000080336848C0000000C0D2E969C00000006000408F40000000004E4B43C000000080F6CE6AC0
310
0C00000013000000521000003C00000006000000020000000000006000408F40000000405C3F49C0000000C05D456AC00000006000408F40000000004E4B43C000000080F6CE6AC00C000000130000005A1000003C00000006000000020000000000006000408F400000004075DB49C0000000C0D6A76AC00000006000408F
310
40000000C0CE0D44C0000000C0FF716BC00C00000013000000621000003C00000006000000020000000000006000408F4000000040E3384AC0000000C0F70E6BC00000006000408F40000000C0CE0D44C0000000C0FF716BC00C000000130000006A1000003C00000006000000020000000000006000408F40000000807E55
310
4AC0000000C05F786BC00000006000408F40000000C0CE0D44C0000000C0FF716BC00C00000013000000721000003C00000006000000020000000000006000408F40000000009E304AC000000000A0E16BC00000006000408F40000000C0CE0D44C0000000C0FF716BC00C000000130000007A1000003C0000000600000002
310
0000000000006000408F40000000C01BCB49C0000000404B486CC00000006000408F4000000000ED4943C000000000EE146CC00C00000013000000821000003C00000006000000020000000000006000408F4000000080502749C00000008002AA6CC00000006000408F4000000000ED4943C000000000EE146CC00C000000
310
130000008A1000003C00000006000000020000000000006000408F4000000040044948C00000000085046DC00000006000408F4000000000ED4943C000000000EE146CC00C00000013000000921000003C00000006000000020000000000006000408F40000000C0543547C000000080BD556DC00000006000408F40000000
310
00ED4943C000000000EE146CC00C000000130000009A1000003C00000006000000020000000000006000408F40000000409DF245C000000000CC9B6DC00000006000408F4000000040BF3D41C0000000C019846CC00C00000013000000A21000003C00000006000000020000000000006000408F4000000000508844C00000
310
00C012D56DC00000006000408F4000000040BF3D41C0000000C019846CC00C00000013000000AA1000003C00000006000000020000000000006000408F4000000000C8FE42C0000000403F006EC00000006000408F4000000040BF3D41C0000000C019846CC00C00000013000000B21000003C000000060000000200000000
310
00006000408F40000000801A5F41C0000000C0521C6EC00000006000408F40000000803A7D3EC0000000006CA26CC00C00000013000000BA1000003C00000006000000020000000000006000408F4000000000BF653FC0000000C0A6286EC00000006000408F40000000803A7D3EC0000000006CA26CC00C00000013000000
310
C21000003C00000006000000020000000000006000408F4000000000F0073CC000000040F3246EC00000006000408F40000000803A7D3EC0000000006CA26CC00C00000013000000CA1000003C00000006000000020000000000006000408F4000000080208939C0000000C02E186EC00000006000408F4000000000C76238
310
C0000000006CA26CC00C00000013000000D21000003C00000006000000020000000000006000408F4000000080208939C0000000C02E186EC00000006000408F4000000000262034C00000004056BC6CC00C00000013000000DA1000003C00000006000000020000000000006000408F40000000807CD533C000000040CF68
310
6FC00000006000408F4000000000C51526C00000000028D76DC00C00000013000000E21000003C00000006000000020000000000006000408F4000000000FF172CC0000000C08A1670C00000006000408F400000000000C3F0BF000000000DA76EC00C00000013000000EA1000003C00000006000000020000000000006000
310
408F40000000008F182FC0000000409ADA6FC00000006000408F4000000000DC1611C0000000C08F866EC00C00000013000000F21000003C00000006000000020000000000006000408F4000000080A8BA31C0000000409D916FC00000006000408F4000000000EF7620C000000080083D6EC00C00000013000000FA100000
310
3C00000006000000020000000000006000408F4000000000E069FFBF00000000641270C00000006000408F4000000000806FDEBF0000000068AE6EC00C00000013000000021100003C00000006000000020000000000006000408F4000000000FF172CC0000000C08A1670C00000006000408F4000000000E069FFBF000000
310
00641270C00C000000130000000A1100003C00000006000000020000000000006000408F4000000000312B2AC0000000E0553E70C00000006000408F4000000000FC3903C000000040F11C70C00C00000013000000121100003C00000006000000020000000000006000408F40000000005C6827C000000040E7EF70C00000
310
006000408F400000000040D1EABF000000C0A04670C00C000000130000001A1100003C00000006000000020000000000006000408F400000000019A127C000000060A0B670C00000006000408F4000000000D04BFDBF000000A0763F70C00C00000013000000221100003C00000006000000020000000000006000408F4000
310
000000F43428C0000000C0158870C00000006000408F4000000000DCA502C0000000A0963570C00C000000130000002A1100003C00000006000000020000000000006000408F40000000009A1829C0000000206D5F70C00000006000408F4000000000344404C000000080622970C00C00000013000000321100003C000000
310
06000000020000000000000000408FC0000000801A8939C0000000C07A446FC00000000000408FC0000000007FEC2FC0000000E0AB0C6DC00C000000130000003A1100003C00000006000000020000000000000000408FC000000080DF6E36C000000040F44D6FC00000000000408FC000000000F2422BC000000060CB636D
310
C00C00000013000000421100003C00000006000000020000000000000000408FC000000040D55E70C000000000D3AF28C00000000000408FC00000008008EF6FC000000000000000000C000000130000004A1100003C00000006000000020000000000000000408FC000000000FCE66FC000000000A04EE9BF000000000040
310
8FC000000040D55E70C000000000D3AF28C00C00000013000000521100003C00000006000000020000000000000000408FC0000000C0ED2970C000000000A19329C00000000000408FC000000040CAD86FC00000000060DFFBBF0C000000130000005A1100003C00000006000000020000000000000000408FC0000000607E
310
0E70C0000000005B672AC00000000000408FC00000000031C56FC00000000020D701C00C00000013000000621100003C00000006000000020000000000000000408FC000000040DFAC6FC000000000608303C00000000000408FC000000040A4EC6FC000000000776B2BC00C000000130000006A1100003C00000006000000
310
020000000000000000408FC00000008086B56FC0000000007E182DC00000000000408FC000000000D8936FC000000000D8AD02C00C00000013000000721100003C00000006000000020000000000000000408FC0000000003C7E6FC000000000C0F3FEBF0000000000408FC00000000068FC6DC0000000000096DABF0C0000
310
00130000007A1100003C00000006000000020000000000000000408FC000000080E6F46DC000000000C02BEDBF0000000000408FC000000000D8936FC000000000D8AD02C00C00000013000000821100003C00000006000000020000000000000000408FC000000080F08A6FC0000000005CE52EC00000000000408FC00000
310
0080E6F46DC000000000C02BEDBF0C000000130000008A1100003C00000006000000020000000000000000408FC000000080D4626FC000000000AFBD30C00000000000408FC0000000C0B77C6DC00000000081E629C00C00000013000000921100003C00000006000000020000000000000000408FC000000040993F6FC000
310
000000D2F432C00000000000408FC00000008032676DC000000000E7A72CC00C000000130000009A1100003C00000006000000020000000000000000408FC0000000803D316FC000000000D4B235C00000000000408FC000000060A63D6DC000000000C1C92FC00C00000013000000A21100003C0000000600000002000000
310
0000000000408FC0000000807ABD6EC000000000D4B235C00000000000408FC0000000A052F56CC000000000565531C00C00000013000000AA1100003C00000006000000020000000000000000408FC00000008011CC6EC000000080D5C538C00000000000408FC0000000A052F56CC000000000565531C00C000000130000
310
00B21100003C00000006000000020000000000000000408FC0000000C059C16EC000000000A8DC3BC00000000000408FC0000000A052F56CC000000000565531C00C00000013000000BA1100003C00000006000000020000000000000000408FC000000040FE9D6EC0000000800EC63EC00000000000408FC0000000A052F5
310
6CC000000000565531C00C00000013000000C21100003C00000006000000020000000000000000408FC000000060C09A6CC000000000D9E431C00000000000408FC0000000C032646EC000000000D0A940C00C00000013000000CA1100003C00000006000000020000000000000000408FC000000060C09A6CC000000000D9
310
E431C00000000000408FC00000004090176EC00000008055AE41C00C00000013000000D21100003C00000006000000020000000000000000408FC000000040DCBC6DC0000000005F6042C00000000000408FC000000060C09A6CC000000000D9E431C00C00000013000000DA1100003C000000060000000200000000000000
310
00408FC000000080BC596DC000000000D7B442C00000000000408FC000000060C09A6CC000000000D9E431C00C00000013000000E21100003C00000006000000020000000000000000408FC000000020253A6CC000000000D46A31C00000000000408FC000000040CEF96CC000000000DAAE42C00C00000013000000EA1100
310
003C00000006000000020000000000000000408FC0000000804D9C6CC000000080B05A42C00000000000408FC000000020253A6CC000000000D46A31C00C00000013000000F21100003C00000006000000020000000000000000408FC000000020253A6CC000000000D46A31C00000000000408FC00000000052456CC00000
310
00000DBC41C00C00000013000000FA1100003C00000006000000020000000000000000408FC0000000C0AAF86BC000000000DFD940C00000000000408FC000000020253A6CC000000000D46A31C00C00000013000000021200003C00000006000000020000000000000000408FC000000080C3C96AC000000000CF0E39C000
310
00000000408FC000000060CFE56BC000000000C6E82FC00C000000130000000A1200003C00000006000000020000000000000000408FC0000000C08C876AC000000000B2A138C00000000000408FC00000008051346AC000000000869B2BC00C00000013000000121200003C00000006000000020000000000000000408FC0
310
000000A0E9926AC000000000729929C00000000000408FC000000000D79E6AC000000000348538C00C000000130000001A1200003C00000006000000020000000000000000408FC0000000004AE96AC000000000483029C00000000000408FC000000000D79E6AC000000000348538C00C00000013000000221200003C0000
310
0006000000020000000000000000408FC000000040E8B56AC00000000037AB38C00000000000408FC00000008086A36BC0000000004AD82CC00C000000130000002A1200003C00000006000000020000000000000000408FC000000040E8B56AC00000000037AB38C00000000000408FC0000000C03F486BC0000000009457
310
2AC00C00000013000000321200003C00000006000000020000000000000000408FC0000000807F5A68C00000000037E93FC00000000000408FC0000000C0DB1167C000000080203738C00C000000130000003A1200003C00000006000000020000000000000000408FC0000000C0DB1167C000000080203738C00000000000
310
408FC000000060990567C000000000F09C42C00C00000013000000421200003C00000006000000020000000000000000408FC000000000BCA265C000000000ADDB45C00000000000408FC0000000C08E3764C0000000C0EBC242C00C000000130000004A1200003C00000006000000020000000000000000408FC0000000C0
310
8E3764C0000000C0EBC242C00000000000408FC000000080916764C000000000C13349C00C00000013000000521200003C00000006000000020000000000000000408FC0000000603A2563C000000000D7234DC00000000000408FC0000000C0C09E61C000000080E3DD4AC00C000000130000005A1200003C000000060000
310
00020000000000000000408FC0000000C0C09E61C000000080E3DD4AC00000000000408FC000000040980962C000000000908E50C00C00000013000000621200003C00000006000000020000000000000000408FC0000000C0D2D160C000000000790E53C00000000000408FC0000000E059A75EC000000040232352C00C00
310
0000130000006A1200003C00000006000000020000000000000000408FC0000000E059A75EC000000040232352C00000000000408FC000000020A60D60C0000000C009D954C00C00000013000000721200003C00000006000000020000000000000000408FC0000000C0DAAD5EC000000020C7C056C00000000000408FC000
310
0000C0EB915BC0000000A0774256C00C000000130000007A1200003C00000006000000020000000000000000408FC0000000C0EB915BC0000000A0774256C00000000000408FC0000000C087625DC0000000E053B958C00C00000013000000821200003C00000006000000020000000000000000408FC00000008091355CC0
310
000000C017C85AC00000000000408FC0000000004F0859C000000000B0B95AC00C000000130000008A1200003C00000006000000020000000000000000408FC0000000004F0859C000000000B0B95AC00000000000408FC0000000604F2B5BC000000080CBE55CC00C00000013000000921200003C00000006000000020000
310
000000000000408FC000000080911457C0000000201B775FC00000000000408FC0000000C0FD425AC0000000A0A6135FC00C000000130000009A1200003C00000006000000020000000000000000408FC000000080911457C0000000201B775FC00000000000408FC0000000402C7E59C00000008020A760C00C0000001300
310
0000A21200003C00000006000000020000000000000000408FC0000000E06EBE55C000000080F83362C00000000000408FC0000000E0A7DD58C0000000A077C961C00C00000013000000AA1200003C00000006000000020000000000000000408FC0000000E06EBE55C000000080F83362C00000000000408FC0000000408E
310
6158C000000020D0F062C00C00000013000000B21200003C00000006000000020000000000000000408FC00000004076DF57C0000000A0EFAF64C00000000000408FC000000020C98855C0000000C0D38162C00C00000013000000BA1200003C00000006000000020000000000000000408FC0000000E0712C55C000000040
310
6CC662C00000000000408FC0000000401BFD54C000000060EFAF64C00C00000013000000C21200003C00000006000000020000000000000000408FC0000000401BFD54C000000020736765C00000000000408FC000000000A8DD53C000000020F46763C00C00000013000000CA1200003C0000000600000002000000000000
310
0000408FC0000000401BFD54C000000060EFAF64C00000000000408FC000000000A8DD53C000000020F46763C00C00000013000000D21200003C00000006000000020000000000000000408FC000000000B5E553C000000020736765C00000000000408FC000000080AE8A51C0000000C0231F64C00C00000013000000DA12
310
00003C00000006000000020000000000000000408FC000000000D78952C0000000202A7B65C00000000000408FC000000080AE8A51C0000000C0231F64C00C00000013000000E21200003C00000006000000020000000000000000408FC000000000534051C00000006045B565C00000000000408FC0000000A0BDE84EC000
310
000020369E64C00C00000013000000EA1200003C00000006000000020000000000000000408FC000000000E59C4CC000000040320365C00000000000408FC000000060951A50C0000000E0B21266C00C00000013000000F21200003C00000006000000020000000000000000408FC00000002045504EC000000000828E66C0
310
0000000000408FC000000000449A4AC000000000DC7D65C00C00000013000000FA1200003C00000006000000020000000000000000408FC00000008082EB4CC0000000802C2267C00000000000408FC000000000449A4AC000000000DC7D65C00C00000013000000021300003C00000006000000020000000000000000408F
310
C0000000808DA447C0000000C0047168C00000000000408FC000000080912443C000000000B89667C00C000000130000000A1300003C00000006000000020000000000000000408FC000000020C0194CC000000080E5C567C00000000000408FC000000080912443C000000000B89667C00C00000013000000121300003C00
310
000006000000020000000000000000408FC0000000808DA447C0000000C0047168C00000000000408FC00000008049B041C000000080B96468C00C000000130000001A1300003C00000006000000020000000000000000408FC0000000808DA447C0000000C0047168C00000000000408FC0000000C04B4642C000000020C7
310
F067C00C00000013000000221300003C00000006000000020000000000000000408FC0000000408DA447C000000080A9AA69C00000000000408FC0000000C0A06641C000000040288469C00C000000130000002A1300003C00000006000000020000000000000000408FC0000000C07D6C41C000000020DBF768C000000000
310
00408FC0000000408DA447C000000080A9AA69C00C00000013000000321300003C00000006000000020000000000000000408FC0000000408DA447C000000080A9AA69C00000000000408FC00000004027D641C0000000A02C326AC00C000000130000003A1300003C00000006000000020000000000000000408FC0000000
310
C04A4B43C0000000A0F6CE6AC00000000000408FC000000040306848C0000000C0D2E969C00C00000013000000421300003C00000006000000020000000000000000408FC000000000593F49C0000000E05D456AC00000000000408FC0000000C04A4B43C0000000A0F6CE6AC00C000000130000004A1300003C0000000600
310
0000020000000000000000408FC0000000C071DB49C0000000C0D6A76AC00000000000408FC000000080CB0D44C0000000C0FF716BC00C00000013000000521300003C00000006000000020000000000000000408FC000000040E0384AC0000000C0F70E6BC00000000000408FC000000080CB0D44C0000000C0FF716BC00C
310
000000130000005A1300003C00000006000000020000000000000000408FC0000000407B554AC0000000E05F786BC00000000000408FC000000080CB0D44C0000000C0FF716BC00C00000013000000621300003C00000006000000020000000000000000408FC0000000C09A304AC000000020A0E16BC00000000000408FC0
310
00000080CB0D44C0000000C0FF716BC00C000000130000006A1300003C00000006000000020000000000000000408FC000000040E94943C000000000EE146CC00000000000408FC0000000C018CB49C0000000404B486CC00C00000013000000721300003C00000006000000020000000000000000408FC0000000404D2749
310
C0000000A002AA6CC00000000000408FC000000040E94943C000000000EE146CC00C000000130000007A1300003C00000006000000020000000000000000408FC000000040E94943C000000000EE146CC00000000000408FC0000000C0004948C00000000085046DC00C00000013000000821300003C000000060000000200
310
00000000000000408FC000000040513547C000000080BD556DC00000000000408FC000000040E94943C000000000EE146CC00C000000130000008A1300003C00000006000000020000000000000000408FC0000000009AF245C000000020CC9B6DC00000000000408FC0000000C0BB3D41C0000000E019846CC00C00000013
310
000000921300003C00000006000000020000000000000000408FC0000000C0BB3D41C0000000E019846CC00000000000408FC0000000C04C8844C0000000E012D56DC00C000000130000009A1300003C00000006000000020000000000000000408FC0000000C0C4FE42C0000000603F006EC00000000000408FC0000000C0
310
BB3D41C0000000E019846CC00C00000013000000A21300003C00000006000000020000000000000000408FC000000040175F41C0000000C0521C6EC00000000000408FC000000000347D3EC0000000006CA26CC00C00000013000000AA1300003C00000006000000020000000000000000408FC000000000B9653FC0000000
310
E0A6286EC00000000000408FC000000000347D3EC0000000006CA26CC00C00000013000000B21300003C00000006000000020000000000000000408FC000000000347D3EC0000000006CA26CC00000000000408FC000000080E9073CC000000060F3246EC00C00000013000000BA1300003C00000006000000020000000000
310
000000408FC000000080C06238C0000000006CA26CC00000000000408FC0000000801A8939C0000000C02E186EC00C00000013000000C21300003C00000006000000020000000000000000408FC0000000801A8939C0000000C02E186EC00000000000408FC0000000801F2034C00000004056BC6CC00C00000013000000CA
310
1300003C00000006000000020000000000000000408FC00000008076D533C000000040CF686FC00000000000408FC000000000B81526C00000002028D76DC00C00000013000000D21300003C00000006000000020000000000000000408FC000000000C41611C0000000C08F866EC00000000000408FC00000000083182FC0
310
000000409ADA6FC00C00000013000000DA1300003C00000006000000020000000000000000408FC000000000F3172CC0000000C08A1670C00000000000408FC000000000A0C2F0BF000000000DA76EC00C00000013000000E21300003C00000006000000020000000000000000408FC000000080A2BA31C0000000409D916F
310
C00000000000408FC000000000E27620C0000000A0083D6EC00C00000013000000EA1300003C00000006000000020000000000000000408FC0000000008069FFBF00000000641270C00000000000408FC000000000006EDEBF0000000068AE6EC00C00000013000000F21300003C0000000600000002000000000000000040
310
8FC000000000F3172CC0000000C08A1670C00000000000408FC0000000008069FFBF00000000641270C00C00000013000000FA1300003C00000006000000020000000000000000408FC000000000252B2AC0000000E0553E70C00000000000408FC000000000CC3903C000000040F11C70C00C00000013000000021400003C
310
00000006000000020000000000000000408FC0000000004F6827C000000040E7EF70C00000000000408FC00000000080D0EABF000000C0A04670C00C000000130000000A1400003C00000006000000020000000000000000408FC0000000000CA127C000000060A0B670C00000000000408FC000000000704BFDBF000000A0
310
763F70C00C00000013000000121400003C00000006000000020000000000000000408FC000000000ACA502C0000000A0963570C00000000000408FC000000000E73428C0000000C0158870C00C000000130000001A1400003C00000006000000020000000000000000408FC0000000008E1829C0000000206D5F70C0000000
310
0000408FC000000000044404C000000080622970C0
100
AcDbSubDMesh
 71
     2
 72
     0
 91
        0
 92
      304
 10
1000.000183105469
 20
-25.53565216064453
 30
-250.1399841308594
 10
-1000.0
 20
-25.53556060791016
 30
-250.1399841308594
 10
-1000.0
 20
-17.72904205322265
 30
-252.5504455566406
 10
-1000.0
 20
-12.54795837402344
 30
-261.9641418457031
 10
-1000.0
 20
-11.70372772216797
 30
-270.9939575195313
 10
1000.000183105469
 20
-11.70382690429687
 30
-270.9939575195313
 10
1000.000183105469
 20
-11.81464385986328
 30
-267.4141540527344
 10
1000.000183105469
 20
-12.10342407226562
 30
-264.5053100585938
 10
1000.000183105469
 20
-12.54804992675781
 30
-261.9641418457031
 10
1000.000183105469
 20
-13.08435821533203
 30
-259.8959655761719
 10
1000.000183105469
 20
-14.04686737060547
 30
-257.4088745117188
 10
1000.000183105469
 20
-15.54796600341797
 30
-254.8313293457031
 10
1000.000183105469
 20
-17.72913360595703
 30
-252.5504455566406
 10
1000.000183105469
 20
-19.83393096923828
 30
-251.2752990722656
 10
1000.000183105469
 20
-22.43319702148438
 30
-250.4360656738281
 10
1000.000183105469
 20
-25.53565216064453
 30
-240.7557067871094
 10
1000.000183105469
 20
-28.031005859375
 30
-241.1546936035156
 10
1000.000183105469
 20
-31.39744567871094
 30
-241.2703552246094
 10
1000.000183105469
 20
-34.74299621582031
 30
-240.8851013183594
 10
1000.000183105469
 20
-37.990478515625
 30
-240.0077209472656
 10
1000.000183105469
 20
-41.06494140625
 30
-238.6585388183594
 10
1000.000183105469
 20
-43.89542388916015
 30
-236.86865234375
 10
1000.000183105469
 20
-46.41664886474609
 30
-234.6793823242188
 10
1000.000183105469
 20
-48.57044219970703
 30
-232.1412353515625
 10
1000.000183105469
 20
-50.30714416503906
 30
-229.3128051757812
 10
1000.000183105469
 20
-51.58678436279297
 30
-226.2591857910156
 10
1000.000183105469
 20
-52.37982177734375
 30
-223.05078125
 10
1000.000183105469
 20
-52.66792297363281
 30
-219.7616882324219
 10
1000.000183105469
 20
-52.44443511962891
 30
-216.4677429199219
 10
1000.000183105469
 20
-51.71451568603515
 30
-213.2449645996094
 10
1000.000183105469
 20
-50.49500274658203
 30
-210.1676940917969
 10
1000.000183105469
 20
-48.81407165527344
 30
-207.3069763183594
 10
1000.000183105469
 20
-47.28565979003906
 30
-205.3331909179687
 10
-1000.0
 20
-50.49490356445312
 30
-210.1677093505859
 10
-1000.0
 20
-51.71440887451172
 30
-213.2449645996094
 10
-1000.0
 20
-52.44434356689453
 30
-216.4677429199219
 10
-1000.0
 20
-52.66782379150391
 30
-219.7617034912109
 10
-1000.0
 20
-52.37972259521484
 30
-223.0507965087891
 10
-1000.0
 20
-50.30704498291015
 30
-229.3128204345703
 10
-1000.0
 20
-46.41654205322265
 30
-234.6793823242188
 10
-1000.0
 20
-43.89532470703125
 30
-236.8686676025391
 10
-1000.0
 20
-37.99037933349609
 30
-240.0077362060547
 10
-1000.0
 20
-34.74289703369141
 30
-240.8851013183594
 10
-1000.0
 20
-31.39735412597656
 30
-241.2703704833984
 10
1000.000183105469
 20
-47.28567504882812
 30
-195.5318298339843
 10
-1000.0
 20
-47.28556823730468
 30
-195.5318298339843
 10
1000.000183105469
 20
-55.79755783081054
 30
-195.5318145751953
 10
1000.000183105469
 20
-79.58926391601562
 30
-171.2327880859375
 10
-1000.0
 20
-79.58917236328125
 30
-171.2328033447265
 10
-1000.0
 20
-60.62710952758789
 30
-180.453369140625
 10
1000.000183105469
 20
-56.20127487182617
 30
-190.1842498779297
 10
1000.000183105469
 20
-57.84001541137695
 30
-185.0679168701172
 10
1000.000183105469
 20
-60.6272087097168
 30
-180.4533538818359
 10
1000.000183105469
 20
-64.41545867919922
 30
-176.5843200683594
 10
1000.000183105469
 20
-69.00515747070312
 30
-173.6647033691406
 10
1000.000183105469
 20
-74.15383911132813
 30
-171.848876953125
 10
1000.000183105469
 20
-83.95487976074219
 30
-171.2327880859375
 10
1000.000183105469
 20
-83.95487976074219
 30
-165.4979553222656
 10
1000.000183105469
 20
-95.4916763305664
 30
-165.4980010986328
 10
-1000.0
 20
-95.49159240722657
 30
-165.4980010986328
 10
1000.000183105469
 20
-128.4266357421875
 30
-83.3912124633789
 10
-1000.0
 20
-134.5569763183593
 30
-76.22613525390625
 10
-1000.0
 20
-122.7164764404297
 30
-91.01215362548828
 10
-1000.0
 20
-112.8370056152343
 30
-107.1264495849609
 10
1000.000183105469
 20
-97.52439117431642
 30
-151.525405883789
 10
1000.000183105469
 20
-101.9715347290039
 30
-133.2227172851562
 10
1000.000183105469
 20
-108.6768188476562
 30
-115.5905380249023
 10
1000.000183105469
 20
-117.5396270751953
 30
-98.89573669433595
 10
1000.000244140625
 20
-212.2360382080078
 30
-24.63162231445313
 10
-1000.0
 20
-212.2359313964844
 30
-24.63162231445313
 10
-1000.0
 20
-194.8280639648437
 30
-31.91099548339844
 10
-1000.0
 20
-153.1633758544922
 30
-58.27999877929688
 10
1000.000244140625
 20
-144.2999420166015
 30
-66.2275390625
 10
1000.000244140625
 20
-163.2366180419922
 30
-50.40431976318359
 10
1000.000244140625
 20
-184.175064086914
 30
-37.22606658935547
 10
1000.000244140625
 20
-214.3052215576172
 30
-25.05784606933594
 10
1000.000122070312
 20
-223.7709503173828
 30
-33.70211791992188
 10
-1000.0
 20
-223.7708435058594
 30
-33.70211791992188
 10
1000.000122070312
 20
-226.1663665771485
 30
-35.46914672851563
 10
1000.000122070312
 20
-228.8845672607422
 30
-36.70851135253907
 10
1000.000122070312
 20
-231.8065338134766
 30
-37.36602783203125
 10
1000.000122070312
 20
-234.8043670654297
 30
-37.41281127929688
 10
-1000.0
 20
-234.8042602539063
 30
-37.41281127929688
 10
-1000.0
 20
-228.8844604492187
 30
-36.70851135253907
 10
1000.000122070312
 20
-237.9019927978516
 30
-36.75289916992188
 10
1000.000122070312
 20
-240.7364654541016
 30
-35.36198425292969
 10
1000.000122070312
 20
-243.1313018798828
 30
-33.32666015625
 10
1000.000122070312
 20
-244.9373931884766
 30
-30.77365875244141
 10
-1000.0
 20
-245.9212036132813
 30
-21.69854736328125
 10
-1000.0
 20
-237.9018859863281
 30
-36.75289916992188
 10
-1000.0
 20
-265.9964599609375
 30
-12.15682220458984
 10
-1000.0
 20
-258.6205444335937
 30
-12.78833770751953
 10
-1000.0
 20
-256.9058532714844
 30
-13.20186614990234
 10
-1000.0
 20
-253.6726684570313
 30
-14.54783630371094
 10
-1000.0
 20
-252.3418579101563
 30
-15.44796752929687
 10
-1000.0
 20
-249.9874572753906
 30
-18.95632934570312
 10
1000.000122070312
 20
-251.0885162353515
 30
-16.7409439086914
 10
1000.000122070312
 20
-253.6727447509766
 30
-14.5478286743164
 10
1000.000122070312
 20
-255.3951263427734
 30
-13.70988464355469
 10
1000.000122070312
 20
-258.62060546875
 30
-12.788330078125
 10
-1000.0
 20
-213.6846008300781
 30
-24.66880798339844
 10
1000.000244140625
 20
-212.9638519287109
 30
-24.52032470703125
 10
1000.000244140625
 20
-213.6847076416016
 30
-24.66880798339844
 10
1000.000183105469
 20
-53.20529174804687
 30
-171.9330902099609
 10
1000.000183105469
 20
-70.1669921875
 30
-160.9730987548828
 10
1000.000183105469
 20
-61.81838607788086
 30
-164.944091796875
 10
1000.000183105469
 20
-57.22583389282227
 30
-168.099868774414
 10
-1000.0
 20
-57.22573852539063
 30
-168.0998840332031
 10
1000.000183105469
 20
-122.6149444580078
 30
-72.54901885986328
 10
1000.000183105469
 20
-110.2801055908203
 30
-89.03854370117187
 10
1000.000183105469
 20
-100.1299133300781
 30
-106.9013595581054
 10
1000.000183105469
 20
-92.32147216796875
 30
-125.8610229492187
 10
1000.000183105469
 20
-86.97560882568359
 30
-145.6240692138672
 10
-1000.0
 20
-86.97551727294921
 30
-145.6240844726562
 10
-1000.0
 20
-92.32138061523437
 30
-125.8610305786133
 10
-1000.0
 20
-100.1298217773437
 30
-106.9013671875
 10
-1000.0
 20
-110.2800140380859
 30
-89.03855133056641
 10
1000.000244140625
 20
-209.6350555419922
 30
-13.80374908447265
 10
1000.000244140625
 20
-184.5581817626953
 30
-24.21533203125
 10
1000.000244140625
 20
-161.7362823486328
 30
-37.52281188964844
 10
1000.000244140625
 20
-140.9611358642578
 30
-53.73350524902344
 10
-1000.0
 20
-184.5580749511718
 30
-24.21533966064453
 10
1000.000122070312
 20
-235.8975372314453
 30
-12.95020294189453
 10
-1000.0
 20
-239.6531372070313
 30
-0.911590576171875
 10
1000.000122070312
 20
-239.6532287597656
 30
-0.9115753173828125
 10
1000.000183105469
 20
-0.838043212890625
 30
-260.4142456054688
 10
1000.000183105469
 20
0.0000228881835938
 30
-260.6747436523438
 10
-1000.0
 20
0.0001144409179688
 30
-260.6747436523438
 10
-1000.0
 20
-0.83795166015625
 30
-260.4142456054688
 10
1000.000183105469
 20
0.0000228881835938
 30
-255.2328186035156
 10
1000.000183105469
 20
-1.963348388671875
 30
-257.1494140625
 10
1000.000122070312
 20
-255.4698638916016
 30
0.0000152587890625
 10
1000.000122070312
 20
-255.2183380126953
 30
-0.79083251953125
 10
-1000.0
 20
-255.21826171875
 30
-0.7908477783203125
 10
1000.000122070312
 20
-251.9449157714844
 30
-1.934494018554687
 10
-1000.0
 20
-251.94482421875
 30
-1.93450927734375
 10
-1000.0
 20
-252.6201171875
 30
-2.334884643554687
 10
-1000.0
 20
-253.4022521972656
 30
-2.43914794921875
 10
-1000.0
 20
-254.1622314453125
 30
-2.23004150390625
 10
1000.000122070312
 20
-254.1623229980469
 30
-2.230026245117187
 10
1000.000122070312
 20
-252.6201934814453
 30
-2.334869384765625
 10
1000.000122070312
 20
-249.8197479248047
 30
0.0000152587890625
 10
-1000.0
 20
-8.232192993164062
 30
-241.9073028564453
 10
-1000.0
 20
-24.38574981689453
 30
-229.07568359375
 10
1000.000183105469
 20
-24.38584899902344
 30
-229.07568359375
 10
1000.000183105469
 20
-20.12557983398437
 30
-229.8855285644531
 10
1000.000183105469
 20
-15.96200561523437
 30
-232.3959655761719
 10
1000.000183105469
 20
-13.63085174560547
 30
-235.1185607910156
 10
1000.000183105469
 20
-11.04251861572265
 30
-238.7236328125
 10
1000.000183105469
 20
-34.80187225341797
 30
-204.1299133300781
 10
-1000.0
 20
-34.84758758544922
 30
-199.7454986572265
 10
-1000.0
 20
-35.37724304199219
 30
-195.1476440429687
 10
1000.000183105469
 20
-38.28579711914063
 30
-188.7099609375
 10
1000.000183105469
 20
-36.54928588867188
 30
-191.5242919921875
 10
1000.000183105469
 20
-35.37734222412109
 30
-195.1476440429687
 10
1000.000183105469
 20
-34.84768676757813
 30
-199.7454833984375
 10
1000.000183105469
 20
-35.67316436767578
 30
-209.5679321289062
 10
-1000.0
 20
-38.58821868896484
 30
-214.4676055908203
 10
1000.000183105469
 20
-30.48917388916016
 30
-229.07568359375
 10
-1000.0
 20
-30.48907470703125
 30
-229.07568359375
 10
-1000.0
 20
-34.48229217529297
 30
-228.1281585693359
 10
-1000.0
 20
-38.57743072509766
 30
-224.654052734375
 10
1000.000183105469
 20
-38.58831787109375
 30
-214.4675903320313
 10
1000.000183105469
 20
-40.10787200927734
 30
-219.5624694824219
 10
1000.000183105469
 20
-38.57754516601563
 30
-224.654052734375
 10
1000.000183105469
 20
-34.48239898681641
 30
-228.1281433105469
 10
-1000.0
 20
-209.6349487304688
 30
-13.80375671386719
 10
-1000.0
 20
-212.5910186767578
 30
-12.79969787597656
 10
-1000.0
 20
-215.290283203125
 30
-12.59429931640625
 10
-1000.0
 20
-225.8170318603516
 30
-17.41729736328125
 10
-1000.0
 20
-228.8359832763672
 30
-17.89393615722656
 10
1000.000122070312
 20
-235.2250213623047
 30
-14.32793426513672
 10
1000.000122070312
 20
-233.9266510009766
 30
-15.89405059814453
 10
1000.000122070312
 20
-231.6664276123047
 30
-17.33334350585937
 10
1000.000122070312
 20
-228.8360748291016
 30
-17.89393615722656
 10
1000.000122070312
 20
-225.8171234130859
 30
-17.41729736328125
 10
1000.000122070312
 20
-223.1816711425781
 30
-15.95463562011719
 10
1000.000122070312
 20
-221.1102752685547
 30
-14.42243957519531
 10
1000.000122070312
 20
-218.2578887939453
 30
-13.17105102539062
 10
1000.000244140625
 20
-215.2903900146484
 30
-12.59429931640625
 10
1000.000244140625
 20
-212.5911102294922
 30
-12.79969024658203
 10
-1000.0
 20
-84.69445037841797
 30
-150.2007141113281
 10
1000.000183105469
 20
-84.6945343017578
 30
-150.200698852539
 10
1000.000183105469
 20
-79.46347045898438
 30
-155.24853515625
 10
1000.000183105469
 20
-86.13735961914063
 30
-148.0570831298828
 10
-1000.0
 20
-86.13727569580078
 30
-148.0570983886718
 10
1000.000183105469
 20
0.0000228881835938
 30
-245.8373718261719
 10
-1000.0
 20
0.0001144409179688
 30
-245.8373718261719
 10
1000.000183105469
 20
-1.047607421875
 30
-245.2203369140625
 10
1000.000183105469
 20
-0.475555419921875
 30
-245.4501953125
 10
-1000.0
 20
-239.8876953125
 30
-0.4154052734375
 10
1000.000122070312
 20
-240.250732421875
 30
0.0000152587890625
 10
1000.000122070312
 20
-239.8878021240234
 30
-0.4153900146484375
 10
-1000.0
 20
-2.330894470214843
 30
-259.3492736816406
 10
1000.000183105469
 20
-2.403312683105468
 30
-257.8088989257813
 10
1000.000183105469
 20
-2.533302307128906
 30
-258.5865478515625
 10
1000.000183105469
 20
-2.330986022949218
 30
-259.3492736816406
 10
1000.000183105469
 20
-1.831008911132812
 30
-259.9664611816406
 10
-1000.0
 20
-4.272232055664062
 30
-244.2050476074219
 10
1000.000183105469
 20
-8.232292175292968
 30
-241.9072875976563
 10
1000.000183105469
 20
-4.272323608398437
 30
-244.2050476074219
 10
1000.000183105469
 20
0.0000228881835938
 30
-270.9939575195313
 10
-1000.0
 20
0.0001220703125
 30
-270.9939575195313
 10
-1000.0
 20
-265.9964599609375
 30
-0.000030517578125
 10
-1000.0
 20
-184.1749725341797
 30
-37.22607421875
 10
1000.000244140625
 20
-153.1634674072265
 30
-58.27999877929688
 10
1000.000244140625
 20
-173.0855560302734
 30
-43.71620941162109
 10
1000.000244140625
 20
-194.8281707763672
 30
-31.91098785400391
 10
1000.000244140625
 20
-134.5570831298828
 30
-76.22613525390625
 10
-1000.0
 20
-117.5395355224609
 30
-98.89574432373047
 10
1000.000183105469
 20
-99.46346282958984
 30
-142.2958526611328
 10
1000.000183105469
 20
-105.0468292236328
 30
-124.3070373535156
 10
1000.000183105469
 20
-112.8370971679687
 30
-107.1264419555664
 10
1000.000183105469
 20
-122.716567993164
 30
-91.01214599609376
 10
1000.000122070312
 20
-265.9965209960938
 30
-0.000030517578125
 10
1000.000122070312
 20
-265.9965209960938
 30
-12.15681457519531
 10
1000.000122070312
 20
-261.9271240234375
 30
-12.34339904785156
 10
1000.000122070312
 20
-254.7747802734375
 30
-1.742019653320312
 10
1000.000122070312
 20
-256.9059448242188
 30
-13.20185852050781
 10
1000.000122070312
 20
-253.40234375
 30
-2.439132690429687
 10
1000.000122070312
 20
-252.3419494628906
 30
-15.44795989990234
 10
1000.000122070312
 20
-249.987533569336
 30
-18.95632171630859
 10
1000.000122070312
 20
-249.5388488769531
 30
-21.69853973388672
 10
1000.000122070312
 20
-245.9212951660156
 30
-21.69854736328125
 10
1000.000122070312
 20
-246.377212524414
 30
-24.77278900146484
 10
1000.000122070312
 20
-246.0422821044922
 30
-27.8619384765625
 10
-1000.0
 20
-22.43309783935547
 30
-250.4360656738281
 10
-1000.0
 20
-19.8338394165039
 30
-251.2752990722656
 10
-1000.0
 20
-15.54787445068359
 30
-254.8313293457031
 10
-1000.0
 20
-14.04677581787109
 30
-257.4088745117188
 10
-1000.0
 20
-13.08426666259765
 30
-259.8959655761719
 10
-1000.0
 20
-12.10332489013672
 30
-264.5053100585938
 10
-1000.0
 20
-11.81454467773437
 30
-267.4141540527344
 10
-1000.0
 20
-25.53556060791016
 30
-240.7557067871094
 10
-1000.0
 20
-47.28556060791015
 30
-205.3331909179687
 10
-1000.0
 20
-48.81397247314453
 30
-207.3069763183594
 10
-1000.0
 20
-51.5866928100586
 30
-226.2591857910156
 10
-1000.0
 20
-48.5703353881836
 30
-232.1412353515625
 10
-1000.0
 20
-41.06484222412109
 30
-238.6585540771484
 10
-1000.0
 20
-28.03090667724609
 30
-241.1547088623047
 10
-1000.0
 20
-55.79745864868164
 30
-195.5318298339843
 10
-1000.0
 20
-74.15374755859375
 30
-171.848892211914
 10
-1000.0
 20
-69.00506591796875
 30
-173.6647186279297
 10
-1000.0
 20
-64.41536712646485
 30
-176.5843353271484
 10
-1000.0
 20
-57.83992004394531
 30
-185.0679321289062
 10
-1000.0
 20
-56.20117568969726
 30
-190.1842651367187
 10
-1000.0
 20
-83.9547882080078
 30
-171.2328033447265
 10
-1000.0
 20
-83.9547882080078
 30
-165.4979705810547
 10
-1000.0
 20
-105.0467376708984
 30
-124.3070449829101
 10
-1000.0
 20
-99.46337127685547
 30
-142.2958526611328
 10
-1000.0
 20
-173.08544921875
 30
-43.71621704101563
 10
-1000.0
 20
-214.3051147460937
 30
-25.05784606933594
 10
-1000.0
 20
-231.8064270019531
 30
-37.36602783203125
 10
-1000.0
 20
-226.166259765625
 30
-35.46914672851563
 10
-1000.0
 20
-246.3771362304687
 30
-24.77278900146484
 10
-1000.0
 20
-246.0422058105469
 30
-27.8619384765625
 10
-1000.0
 20
-244.9372863769531
 30
-30.77365875244141
 10
-1000.0
 20
-243.1311950683594
 30
-33.32666015625
 10
-1000.0
 20
-240.7363586425781
 30
-35.36198425292969
 10
-1000.0
 20
-249.5387573242187
 30
-21.69854736328125
 10
-1000.0
 20
-261.9270629882812
 30
-12.34340667724609
 10
-1000.0
 20
-255.3950500488281
 30
-13.70989227294922
 10
-1000.0
 20
-251.0884399414063
 30
-16.74095153808593
 10
-1000.0
 20
-212.9637451171875
 30
-24.52032470703125
 10
-1000.0
 20
-38.28569030761719
 30
-188.7099609375
 10
-1000.0
 20
-53.2052001953125
 30
-171.93310546875
 10
-1000.0
 20
-61.81828689575195
 30
-164.944107055664
 10
-1000.0
 20
-122.6148605346679
 30
-72.54902648925781
 10
-1000.0
 20
-140.9610290527344
 30
-53.73350524902344
 10
-1000.0
 20
-161.7361755371093
 30
-37.52281951904297
 10
-1000.0
 20
-235.8974304199219
 30
-12.95020294189453
 10
-1000.0
 20
-1.9632568359375
 30
-257.1494140625
 10
-1000.0
 20
0.0001144409179688
 30
-255.2328186035156
 10
-1000.0
 20
-255.4697875976562
 30
0.0
 10
-1000.0
 20
-254.7746887207031
 30
-1.742034912109375
 10
-1000.0
 20
-249.8196716308594
 30
0.0
 10
-1000.0
 20
-11.04241943359375
 30
-238.723648071289
 10
-1000.0
 20
-13.63075256347656
 30
-235.1185760498047
 10
-1000.0
 20
-15.96190643310547
 30
-232.3959808349609
 10
-1000.0
 20
-20.12548065185547
 30
-229.8855285644531
 10
-1000.0
 20
-34.80178070068359
 30
-204.1299133300781
 10
-1000.0
 20
-36.54918670654297
 30
-191.5243072509765
 10
-1000.0
 20
-35.67307281494141
 30
-209.5679473876953
 10
-1000.0
 20
-40.10777282714843
 30
-219.5624694824219
 10
-1000.0
 20
-218.2577819824219
 30
-13.17105102539062
 10
-1000.0
 20
-221.1101684570313
 30
-14.42243957519531
 10
-1000.0
 20
-223.1815643310547
 30
-15.95463562011719
 10
-1000.0
 20
-231.6663360595703
 30
-17.33334350585937
 10
-1000.0
 20
-233.9265594482422
 30
-15.89405059814453
 10
-1000.0
 20
-235.2249145507812
 30
-14.32793426513672
 10
-1000.0
 20
-70.16690063476563
 30
-160.9731140136718
 10
-1000.0
 20
-79.46337890625
 30
-155.248550415039
 10
-1000.0
 20
-0.4754638671875
 30
-245.4501953125
 10
-1000.0
 20
-1.047515869140625
 30
-245.2203369140625
 10
-1000.0
 20
-240.2506408691406
 30
0.0
 10
-1000.0
 20
-1.830917358398437
 30
-259.9664611816406
 10
-1000.0
 20
-2.533210754394531
 30
-258.5865478515625
 10
-1000.0
 20
-2.403221130371093
 30
-257.8088989257813
 10
-1000.0
 20
-163.2365112304687
 30
-50.40432739257813
 10
-1000.0
 20
-144.2998352050781
 30
-66.2275390625
 10
-1000.0
 20
-128.426528930664
 30
-83.39122009277344
 10
-1000.0
 20
-108.6767196655273
 30
-115.5905456542968
 10
-1000.0
 20
-101.971450805664
 30
-133.2227172851562
 10
-1000.0
 20
-97.52430725097656
 30
-151.525405883789
 93
     1630
 90
        4
 90
      131
 90
      273
 90
      203
 90
      214
 90
        4
 90
      214
 90
      203
 90
       90
 90
      215
 90
        4
 90
      215
 90
       90
 90
      260
 90
      216
 90
        4
 90
      216
 90
      260
 90
       91
 90
       99
 90
        4
 90
       99
 90
       91
 90
       92
 90
      218
 90
        4
 90
      218
 90
       92
 90
      261
 90
       98
 90
        4
 90
       98
 90
      261
 90
       93
 90
       97
 90
        4
 90
       97
 90
       93
 90
       94
 90
      220
 90
        4
 90
      220
 90
       94
 90
      262
 90
       96
 90
        4
 90
       96
 90
      262
 90
       95
 90
      221
 90
        4
 90
      221
 90
       95
 90
      259
 90
      222
 90
        4
 90
      222
 90
      259
 90
       88
 90
      223
 90
        4
 90
      223
 90
       88
 90
      254
 90
      224
 90
        4
 90
      224
 90
      254
 90
      255
 90
      225
 90
        4
 90
      225
 90
      255
 90
      256
 90
       87
 90
        4
 90
       87
 90
      256
 90
      257
 90
       86
 90
        4
 90
       86
 90
      257
 90
      258
 90
       85
 90
        4
 90
       85
 90
      258
 90
       89
 90
       84
 90
        4
 90
       84
 90
       89
 90
       82
 90
       81
 90
        4
 90
       81
 90
       82
 90
      252
 90
       80
 90
        4
 90
       80
 90
      252
 90
       83
 90
       79
 90
        4
 90
       79
 90
       83
 90
      253
 90
       78
 90
        4
 90
       78
 90
      253
 90
       77
 90
       76
 90
        4
 90
       76
 90
       77
 90
      251
 90
       75
 90
        4
 90
       75
 90
      251
 90
      100
 90
      102
 90
        4
 90
      102
 90
      100
 90
      263
 90
      101
 90
        4
 90
      101
 90
      263
 90
       69
 90
       68
 90
        4
 90
       68
 90
       69
 90
       70
 90
      207
 90
        4
 90
       74
 90
      204
 90
      250
 90
      206
 90
        4
 90
       73
 90
      298
 90
       71
 90
      205
 90
        4
 90
       72
 90
      299
 90
       61
 90
      208
 90
        4
 90
       60
 90
      300
 90
       62
 90
      213
 90
        4
 90
       67
 90
      209
 90
       63
 90
      212
 90
        4
 90
       66
 90
      301
 90
      248
 90
      211
 90
        4
 90
       65
 90
      302
 90
      249
 90
      210
 90
        4
 90
       64
 90
      303
 90
       59
 90
       58
 90
        4
 90
       58
 90
       59
 90
      247
 90
       57
 90
        4
 90
       57
 90
      247
 90
      246
 90
       56
 90
        4
 90
       56
 90
      246
 90
       48
 90
       47
 90
        4
 90
       47
 90
       48
 90
      241
 90
       55
 90
        4
 90
       55
 90
      241
 90
      242
 90
       54
 90
        4
 90
       54
 90
      242
 90
      243
 90
       53
 90
        4
 90
       53
 90
      243
 90
       49
 90
       52
 90
        4
 90
       52
 90
       49
 90
      244
 90
       51
 90
        4
 90
       51
 90
      244
 90
      245
 90
       50
 90
        4
 90
       50
 90
      245
 90
      240
 90
       46
 90
        4
 90
       46
 90
      240
 90
       45
 90
       44
 90
        4
 90
       44
 90
       45
 90
      234
 90
       32
 90
        4
 90
       32
 90
      234
 90
      235
 90
       31
 90
        4
 90
       31
 90
      235
 90
       33
 90
       30
 90
        4
 90
       30
 90
       33
 90
       34
 90
       29
 90
        4
 90
       29
 90
       34
 90
       35
 90
       28
 90
        4
 90
       28
 90
       35
 90
       36
 90
       27
 90
        4
 90
       27
 90
       36
 90
       37
 90
       26
 90
        4
 90
       26
 90
       37
 90
      236
 90
       25
 90
        4
 90
       25
 90
      236
 90
       38
 90
       24
 90
        4
 90
       24
 90
       38
 90
      237
 90
       23
 90
        4
 90
       23
 90
      237
 90
       39
 90
       22
 90
        4
 90
       22
 90
       39
 90
       40
 90
       21
 90
        4
 90
       21
 90
       40
 90
      238
 90
       20
 90
        4
 90
       20
 90
      238
 90
       41
 90
       19
 90
        4
 90
       19
 90
       41
 90
       42
 90
       18
 90
        4
 90
       18
 90
       42
 90
       43
 90
       17
 90
        4
 90
       17
 90
       43
 90
      239
 90
       16
 90
        4
 90
       16
 90
      239
 90
      233
 90
       15
 90
        4
 90
       15
 90
      233
 90
        1
 90
        0
 90
        4
 90
        0
 90
        1
 90
      226
 90
       14
 90
        4
 90
       14
 90
      226
 90
      227
 90
       13
 90
        4
 90
       13
 90
      227
 90
        2
 90
       12
 90
        4
 90
       12
 90
        2
 90
      228
 90
       11
 90
        4
 90
       11
 90
      228
 90
      229
 90
       10
 90
        4
 90
       10
 90
      229
 90
      230
 90
        9
 90
        4
 90
        9
 90
      230
 90
        3
 90
        8
 90
        4
 90
        8
 90
        3
 90
      231
 90
        7
 90
        4
 90
        7
 90
      231
 90
      232
 90
        6
 90
        4
 90
        6
 90
      232
 90
        4
 90
        5
 90
        4
 90
        5
 90
        4
 90
      202
 90
      201
 90
        4
 90
      201
 90
      202
 90
      127
 90
      126
 90
        4
 90
      126
 90
      127
 90
      128
 90
      125
 90
        4
 90
      125
 90
      128
 90
      295
 90
      197
 90
        4
 90
      197
 90
      295
 90
      193
 90
      196
 90
        4
 90
      196
 90
      193
 90
      296
 90
      195
 90
        4
 90
      195
 90
      296
 90
      297
 90
      194
 90
        4
 90
      194
 90
      297
 90
      271
 90
      130
 90
        4
 90
      130
 90
      271
 90
      272
 90
      129
 90
        4
 90
      129
 90
      272
 90
      187
 90
      186
 90
        4
 90
      186
 90
      187
 90
      292
 90
      189
 90
        4
 90
      189
 90
      292
 90
      293
 90
      188
 90
        4
 90
      188
 90
      293
 90
      198
 90
      200
 90
        4
 90
      200
 90
      198
 90
      142
 90
      199
 90
        4
 90
      199
 90
      142
 90
      276
 90
      148
 90
        4
 90
      148
 90
      276
 90
      277
 90
      147
 90
        4
 90
      147
 90
      277
 90
      278
 90
      146
 90
        4
 90
      146
 90
      278
 90
      279
 90
      145
 90
        4
 90
      145
 90
      279
 90
      143
 90
      144
 90
        4
 90
      144
 90
      143
 90
      159
 90
      158
 90
        4
 90
      158
 90
      159
 90
      160
 90
      165
 90
        4
 90
      165
 90
      160
 90
      161
 90
      164
 90
        4
 90
      164
 90
      161
 90
      283
 90
      163
 90
        4
 90
      163
 90
      283
 90
      157
 90
      162
 90
        4
 90
      162
 90
      157
 90
      282
 90
      156
 90
        4
 90
      156
 90
      282
 90
      280
 90
      149
 90
        4
 90
      149
 90
      280
 90
      150
 90
      155
 90
        4
 90
      155
 90
      150
 90
      151
 90
      154
 90
        4
 90
      154
 90
      151
 90
      281
 90
      153
 90
        4
 90
      153
 90
      281
 90
      264
 90
      152
 90
        4
 90
      152
 90
      264
 90
      265
 90
      103
 90
        4
 90
      103
 90
      265
 90
      107
 90
      106
 90
        4
 90
      106
 90
      107
 90
      266
 90
      105
 90
        4
 90
      105
 90
      266
 90
      290
 90
      104
 90
        4
 90
      104
 90
      290
 90
      291
 90
      183
 90
        4
 90
      183
 90
      291
 90
      181
 90
      182
 90
        4
 90
      182
 90
      181
 90
      185
 90
      184
 90
        4
 90
      184
 90
      185
 90
      113
 90
      112
 90
        4
 90
      112
 90
      113
 90
      114
 90
      111
 90
        4
 90
      111
 90
      114
 90
      115
 90
      110
 90
        4
 90
      110
 90
      115
 90
      116
 90
      109
 90
        4
 90
      109
 90
      116
 90
      267
 90
      108
 90
        4
 90
      108
 90
      267
 90
      268
 90
      120
 90
        4
 90
      120
 90
      268
 90
      269
 90
      119
 90
        4
 90
      119
 90
      269
 90
      121
 90
      118
 90
        4
 90
      118
 90
      121
 90
      166
 90
      117
 90
        4
 90
      117
 90
      166
 90
      167
 90
      180
 90
        4
 90
      180
 90
      167
 90
      168
 90
      179
 90
        4
 90
      179
 90
      168
 90
      284
 90
      178
 90
        4
 90
      178
 90
      284
 90
      285
 90
      177
 90
        4
 90
      177
 90
      285
 90
      286
 90
      176
 90
        4
 90
      176
 90
      286
 90
      169
 90
      175
 90
        4
 90
      175
 90
      169
 90
      170
 90
      174
 90
        4
 90
      174
 90
      170
 90
      287
 90
      173
 90
        4
 90
      173
 90
      287
 90
      288
 90
      172
 90
        4
 90
      172
 90
      288
 90
      289
 90
      171
 90
        4
 90
      171
 90
      289
 90
      270
 90
      122
 90
        4
 90
      122
 90
      270
 90
      123
 90
      124
 90
        4
 90
      124
 90
      123
 90
      190
 90
      192
 90
        4
 90
      192
 90
      190
 90
      294
 90
      191
 90
        4
 90
      191
 90
      294
 90
      275
 90
      141
 90
        4
 90
      141
 90
      275
 90
      135
 90
      134
 90
        4
 90
      134
 90
      135
 90
      136
 90
      140
 90
        4
 90
      140
 90
      136
 90
      137
 90
      219
 90
        4
 90
      219
 90
      137
 90
      138
 90
      139
 90
        4
 90
      139
 90
      138
 90
      274
 90
      217
 90
        4
 90
      217
 90
      274
 90
      133
 90
      132
 90
        4
 90
      132
 90
      133
 90
      273
 90
      131
 90
        4
 90
      207
 90
       70
 90
      204
 90
       74
 90
        4
 90
      206
 90
      250
 90
      298
 90
       73
 90
        4
 90
      205
 90
       71
 90
      299
 90
       72
 90
        4
 90
      208
 90
       61
 90
      300
 90
       60
 90
        4
 90
      213
 90
       62
 90
      209
 90
       67
 90
        4
 90
      212
 90
       63
 90
      301
 90
       66
 90
        4
 90
      211
 90
      248
 90
      302
 90
       65
 90
        4
 90
      210
 90
      249
 90
      303
 90
       64
 90
        4
 90
       14
 90
      147
 90
      146
 90
        0
 90
        4
 90
      131
 90
      214
 90
      215
 90
      216
 90
        3
 90
      132
 90
      131
 90
      216
 90
        4
 90
      217
 90
      132
 90
      216
 90
       99
 90
        4
 90
      139
 90
      217
 90
       99
 90
      218
 90
        4
 90
      219
 90
      139
 90
      218
 90
       98
 90
        4
 90
      140
 90
      219
 90
       98
 90
       97
 90
        4
 90
      192
 90
      191
 90
      141
 90
      134
 90
        4
 90
      124
 90
      192
 90
      134
 90
      140
 90
        4
 90
      124
 90
      140
 90
       97
 90
      220
 90
        4
 90
      122
 90
      124
 90
      220
 90
       96
 90
        4
 90
      171
 90
      122
 90
       96
 90
      221
 90
        4
 90
      172
 90
      171
 90
      221
 90
      222
 90
        4
 90
      173
 90
      172
 90
      222
 90
      223
 90
        3
 90
      173
 90
      223
 90
      224
 90
        3
 90
      173
 90
      224
 90
      225
 90
        3
 90
      173
 90
      225
 90
       87
 90
        4
 90
      174
 90
      173
 90
       87
 90
       86
 90
        3
 90
      174
 90
       86
 90
       85
 90
        3
 90
      174
 90
       85
 90
       84
 90
        3
 90
      174
 90
       84
 90
       81
 90
        4
 90
      175
 90
      174
 90
       81
 90
       80
 90
        3
 90
      175
 90
       80
 90
       79
 90
        3
 90
      175
 90
       79
 90
       78
 90
        3
 90
      175
 90
       78
 90
       76
 90
        4
 90
      176
 90
      175
 90
       76
 90
       75
 90
        4
 90
      117
 90
      180
 90
      101
 90
       68
 90
        3
 90
      180
 90
      179
 90
      101
 90
        4
 90
      177
 90
      176
 90
       75
 90
      102
 90
        4
 90
      179
 90
      178
 90
      102
 90
      101
 90
        3
 90
      178
 90
      177
 90
      102
 90
        4
 90
      118
 90
      117
 90
       68
 90
      207
 90
        3
 90
      118
 90
      207
 90
       74
 90
        4
 90
      119
 90
      118
 90
       74
 90
      206
 90
        3
 90
      119
 90
      206
 90
       73
 90
        4
 90
      120
 90
      119
 90
       73
 90
      205
 90
        3
 90
      120
 90
      205
 90
       72
 90
        4
 90
      108
 90
      120
 90
       72
 90
      208
 90
        3
 90
      108
 90
      208
 90
       60
 90
        4
 90
      109
 90
      108
 90
       60
 90
      213
 90
        3
 90
      109
 90
      213
 90
       67
 90
        4
 90
      110
 90
      109
 90
       67
 90
      212
 90
        3
 90
      110
 90
      212
 90
       66
 90
        4
 90
      111
 90
      110
 90
       66
 90
      211
 90
        3
 90
      111
 90
      211
 90
       65
 90
        4
 90
      112
 90
      111
 90
       65
 90
      210
 90
        3
 90
      112
 90
      210
 90
       64
 90
        4
 90
      184
 90
      112
 90
       64
 90
       58
 90
        4
 90
      182
 90
      184
 90
       58
 90
       57
 90
        3
 90
      183
 90
       57
 90
       56
 90
        3
 90
      183
 90
      182
 90
       57
 90
        4
 90
      104
 90
      183
 90
       56
 90
       47
 90
        3
 90
      104
 90
       47
 90
       55
 90
        4
 90
      105
 90
      104
 90
       55
 90
       54
 90
        4
 90
      106
 90
      105
 90
       54
 90
       53
 90
        4
 90
      103
 90
      106
 90
       53
 90
       52
 90
        3
 90
      103
 90
       52
 90
       51
 90
        4
 90
      152
 90
       50
 90
       46
 90
       44
 90
        4
 90
      152
 90
      103
 90
       51
 90
       50
 90
        3
 90
      154
 90
      153
 90
       44
 90
        3
 90
      153
 90
      152
 90
       44
 90
        3
 90
      149
 90
      155
 90
       32
 90
        4
 90
      155
 90
      154
 90
       44
 90
       32
 90
        3
 90
      156
 90
      149
 90
       32
 90
        4
 90
      162
 90
      156
 90
       32
 90
       31
 90
        3
 90
      162
 90
       31
 90
       30
 90
        4
 90
      163
 90
      162
 90
       30
 90
       29
 90
        3
 90
      163
 90
       29
 90
       28
 90
        3
 90
      163
 90
       28
 90
       27
 90
        3
 90
      163
 90
       27
 90
       26
 90
        4
 90
      164
 90
      163
 90
       26
 90
       25
 90
        3
 90
      164
 90
       25
 90
       24
 90
        3
 90
      164
 90
       24
 90
       23
 90
        3
 90
      164
 90
       23
 90
       22
 90
        4
 90
      165
 90
      164
 90
       22
 90
       21
 90
        3
 90
      165
 90
       21
 90
       20
 90
        3
 90
      165
 90
       20
 90
       19
 90
        4
 90
      158
 90
      165
 90
       19
 90
       18
 90
        3
 90
      158
 90
       18
 90
       17
 90
        3
 90
      158
 90
       17
 90
       16
 90
        4
 90
      144
 90
      158
 90
       16
 90
       15
 90
        3
 90
      145
 90
      144
 90
       15
 90
        4
 90
      146
 90
      145
 90
       15
 90
        0
 90
        4
 90
       14
 90
       13
 90
      148
 90
      147
 90
        4
 90
       11
 90
       10
 90
      188
 90
      200
 90
        4
 90
       13
 90
       12
 90
      199
 90
      148
 90
        4
 90
       12
 90
       11
 90
      200
 90
      199
 90
        4
 90
      130
 90
      129
 90
      186
 90
      189
 90
        4
 90
       10
 90
      130
 90
      189
 90
      188
 90
        4
 90
       10
 90
        9
 90
      194
 90
      130
 90
        4
 90
        5
 90
      201
 90
      126
 90
      125
 90
        4
 90
        6
 90
        5
 90
      125
 90
      197
 90
        4
 90
        7
 90
        6
 90
      197
 90
      196
 90
        4
 90
        8
 90
        7
 90
      196
 90
      195
 90
        4
 90
        9
 90
        8
 90
      195
 90
      194
 90
        4
 90
      226
 90
        1
 90
      278
 90
      277
 90
        4
 90
      273
 90
      260
 90
       90
 90
      203
 90
        3
 90
      133
 90
      260
 90
      273
 90
        4
 90
      274
 90
       91
 90
      260
 90
      133
 90
        4
 90
      138
 90
       92
 90
       91
 90
      274
 90
        4
 90
      137
 90
      261
 90
       92
 90
      138
 90
        4
 90
      136
 90
       93
 90
      261
 90
      137
 90
        4
 90
      190
 90
      135
 90
      275
 90
      294
 90
        4
 90
      123
 90
      136
 90
      135
 90
      190
 90
        4
 90
      123
 90
       94
 90
       93
 90
      136
 90
        4
 90
      270
 90
      262
 90
       94
 90
      123
 90
        4
 90
      289
 90
       95
 90
      262
 90
      270
 90
        4
 90
      288
 90
      259
 90
       95
 90
      289
 90
        4
 90
      287
 90
       88
 90
      259
 90
      288
 90
        3
 90
      287
 90
      254
 90
       88
 90
        3
 90
      287
 90
      255
 90
      254
 90
        3
 90
      287
 90
      256
 90
      255
 90
        4
 90
      170
 90
      257
 90
      256
 90
      287
 90
        3
 90
      170
 90
      258
 90
      257
 90
        3
 90
      170
 90
       89
 90
      258
 90
        3
 90
      170
 90
       82
 90
       89
 90
        4
 90
      169
 90
      252
 90
       82
 90
      170
 90
        3
 90
      169
 90
       83
 90
      252
 90
        3
 90
      169
 90
      253
 90
       83
 90
        3
 90
      169
 90
       77
 90
      253
 90
        4
 90
      286
 90
      251
 90
       77
 90
      169
 90
        4
 90
      166
 90
       69
 90
      263
 90
      167
 90
        3
 90
      167
 90
      263
 90
      168
 90
        4
 90
      285
 90
      100
 90
      251
 90
      286
 90
        4
 90
      168
 90
      263
 90
      100
 90
      284
 90
        3
 90
      284
 90
      100
 90
      285
 90
        4
 90
      121
 90
       70
 90
       69
 90
      166
 90
        3
 90
      121
 90
      204
 90
       70
 90
        4
 90
      269
 90
      250
 90
      204
 90
      121
 90
        3
 90
      269
 90
      298
 90
      250
 90
        4
 90
      268
 90
       71
 90
      298
 90
      269
 90
        3
 90
      268
 90
      299
 90
       71
 90
        4
 90
      267
 90
       61
 90
      299
 90
      268
 90
        3
 90
      267
 90
      300
 90
       61
 90
        4
 90
      116
 90
       62
 90
      300
 90
      267
 90
        3
 90
      116
 90
      209
 90
       62
 90
        4
 90
      115
 90
       63
 90
      209
 90
      116
 90
        3
 90
      115
 90
      301
 90
       63
 90
        4
 90
      114
 90
      248
 90
      301
 90
      115
 90
        3
 90
      114
 90
      302
 90
      248
 90
        4
 90
      113
 90
      249
 90
      302
 90
      114
 90
        3
 90
      113
 90
      303
 90
      249
 90
        4
 90
      185
 90
       59
 90
      303
 90
      113
 90
        4
 90
      181
 90
      247
 90
       59
 90
      185
 90
        3
 90
      291
 90
      246
 90
      247
 90
        3
 90
      291
 90
      247
 90
      181
 90
        4
 90
      290
 90
       48
 90
      246
 90
      291
 90
        3
 90
      290
 90
      241
 90
       48
 90
        4
 90
      266
 90
      242
 90
      241
 90
      290
 90
        4
 90
      107
 90
      243
 90
      242
 90
      266
 90
        4
 90
      265
 90
       49
 90
      243
 90
      107
 90
        3
 90
      265
 90
      244
 90
       49
 90
        4
 90
      264
 90
       45
 90
      240
 90
      245
 90
        4
 90
      264
 90
      245
 90
      244
 90
      265
 90
        3
 90
      151
 90
       45
 90
      281
 90
        3
 90
      281
 90
       45
 90
      264
 90
        3
 90
      280
 90
      234
 90
      150
 90
        4
 90
      150
 90
      234
 90
       45
 90
      151
 90
        3
 90
      282
 90
      234
 90
      280
 90
        4
 90
      157
 90
      235
 90
      234
 90
      282
 90
        3
 90
      157
 90
       33
 90
      235
 90
        4
 90
      283
 90
       34
 90
       33
 90
      157
 90
        3
 90
      283
 90
       35
 90
       34
 90
        3
 90
      283
 90
       36
 90
       35
 90
        3
 90
      283
 90
       37
 90
       36
 90
        4
 90
      161
 90
      236
 90
       37
 90
      283
 90
        3
 90
      161
 90
       38
 90
      236
 90
        3
 90
      161
 90
      237
 90
       38
 90
        3
 90
      161
 90
       39
 90
      237
 90
        4
 90
      160
 90
       40
 90
       39
 90
      161
 90
        3
 90
      160
 90
      238
 90
       40
 90
        3
 90
      160
 90
       41
 90
      238
 90
        4
 90
      159
 90
       42
 90
       41
 90
      160
 90
        3
 90
      159
 90
       43
 90
       42
 90
        3
 90
      159
 90
      239
 90
       43
 90
        4
 90
      143
 90
      233
 90
      239
 90
      159
 90
        3
 90
      279
 90
      233
 90
      143
 90
        4
 90
      278
 90
        1
 90
      233
 90
      279
 90
        4
 90
      226
 90
      277
 90
      276
 90
      227
 90
        4
 90
      228
 90
      198
 90
      293
 90
      229
 90
        4
 90
      227
 90
      276
 90
      142
 90
        2
 90
        4
 90
        2
 90
      142
 90
      198
 90
      228
 90
        4
 90
      271
 90
      292
 90
      187
 90
      272
 90
        4
 90
      229
 90
      293
 90
      292
 90
      271
 90
        4
 90
      229
 90
      271
 90
      297
 90
      230
 90
        4
 90
        4
 90
      128
 90
      127
 90
      202
 90
        4
 90
      232
 90
      295
 90
      128
 90
        4
 90
        4
 90
      231
 90
      193
 90
      295
 90
      232
 90
        4
 90
        3
 90
      296
 90
      193
 90
      231
 90
        4
 90
      230
 90
      297
 90
      296
 90
        3
 94
      644
 90
      131
 90
      273
 90
      203
 90
      273
 90
      203
 90
      214
 90
      131
 90
      214
 90
       90
 90
      203
 90
       90
 90
      215
 90
      214
 90
      215
 90
       90
 90
      260
 90
      216
 90
      260
 90
      215
 90
      216
 90
       91
 90
      260
 90
       91
 90
       99
 90
       99
 90
      216
 90
       91
 90
       92
 90
       92
 90
      218
 90
       99
 90
      218
 90
       92
 90
      261
 90
       98
 90
      261
 90
       98
 90
      218
 90
       93
 90
      261
 90
       93
 90
       97
 90
       97
 90
       98
 90
       93
 90
       94
 90
       94
 90
      220
 90
       97
 90
      220
 90
       94
 90
      262
 90
       96
 90
      262
 90
       96
 90
      220
 90
       95
 90
      262
 90
       95
 90
      221
 90
       96
 90
      221
 90
       95
 90
      259
 90
      222
 90
      259
 90
      221
 90
      222
 90
       88
 90
      259
 90
       88
 90
      223
 90
      222
 90
      223
 90
       88
 90
      254
 90
      224
 90
      254
 90
      223
 90
      224
 90
      254
 90
      255
 90
      225
 90
      255
 90
      224
 90
      225
 90
      255
 90
      256
 90
       87
 90
      256
 90
       87
 90
      225
 90
      256
 90
      257
 90
       86
 90
      257
 90
       86
 90
       87
 90
      257
 90
      258
 90
       85
 90
      258
 90
       85
 90
       86
 90
       89
 90
      258
 90
       84
 90
       89
 90
       84
 90
       85
 90
       82
 90
       89
 90
       81
 90
       82
 90
       81
 90
       84
 90
       82
 90
      252
 90
       80
 90
      252
 90
       80
 90
       81
 90
       83
 90
      252
 90
       79
 90
       83
 90
       79
 90
       80
 90
       83
 90
      253
 90
       78
 90
      253
 90
       78
 90
       79
 90
       77
 90
      253
 90
       76
 90
       77
 90
       76
 90
       78
 90
       77
 90
      251
 90
       75
 90
      251
 90
       75
 90
       76
 90
      100
 90
      251
 90
      100
 90
      102
 90
       75
 90
      102
 90
      100
 90
      263
 90
      101
 90
      263
 90
      101
 90
      102
 90
       69
 90
      263
 90
       68
 90
       69
 90
       68
 90
      101
 90
       69
 90
       70
 90
       70
 90
      207
 90
       68
 90
      207
 90
       74
 90
      204
 90
      204
 90
      250
 90
      206
 90
      250
 90
       74
 90
      206
 90
       73
 90
      298
 90
       71
 90
      298
 90
       71
 90
      205
 90
       73
 90
      205
 90
       72
 90
      299
 90
       61
 90
      299
 90
       61
 90
      208
 90
       72
 90
      208
 90
       60
 90
      300
 90
       62
 90
      300
 90
       62
 90
      213
 90
       60
 90
      213
 90
       67
 90
      209
 90
       63
 90
      209
 90
       63
 90
      212
 90
       67
 90
      212
 90
       66
 90
      301
 90
      248
 90
      301
 90
      211
 90
      248
 90
       66
 90
      211
 90
       65
 90
      302
 90
      249
 90
      302
 90
      210
 90
      249
 90
       65
 90
      210
 90
       64
 90
      303
 90
       59
 90
      303
 90
       58
 90
       59
 90
       58
 90
       64
 90
       59
 90
      247
 90
       57
 90
      247
 90
       57
 90
       58
 90
      246
 90
      247
 90
       56
 90
      246
 90
       56
 90
       57
 90
       48
 90
      246
 90
       47
 90
       48
 90
       47
 90
       56
 90
       48
 90
      241
 90
       55
 90
      241
 90
       47
 90
       55
 90
      241
 90
      242
 90
       54
 90
      242
 90
       54
 90
       55
 90
      242
 90
      243
 90
       53
 90
      243
 90
       53
 90
       54
 90
       49
 90
      243
 90
       49
 90
       52
 90
       52
 90
       53
 90
       49
 90
      244
 90
       51
 90
      244
 90
       51
 90
       52
 90
      244
 90
      245
 90
       50
 90
      245
 90
       50
 90
       51
 90
      240
 90
      245
 90
       46
 90
      240
 90
       46
 90
       50
 90
       45
 90
      240
 90
       44
 90
       45
 90
       44
 90
       46
 90
       45
 90
      234
 90
       32
 90
      234
 90
       32
 90
       44
 90
      234
 90
      235
 90
       31
 90
      235
 90
       31
 90
       32
 90
       33
 90
      235
 90
       30
 90
       33
 90
       30
 90
       31
 90
       33
 90
       34
 90
       29
 90
       34
 90
       29
 90
       30
 90
       34
 90
       35
 90
       28
 90
       35
 90
       28
 90
       29
 90
       35
 90
       36
 90
       27
 90
       36
 90
       27
 90
       28
 90
       36
 90
       37
 90
       26
 90
       37
 90
       26
 90
       27
 90
       37
 90
      236
 90
       25
 90
      236
 90
       25
 90
       26
 90
       38
 90
      236
 90
       24
 90
       38
 90
       24
 90
       25
 90
       38
 90
      237
 90
       23
 90
      237
 90
       23
 90
       24
 90
       39
 90
      237
 90
       22
 90
       39
 90
       22
 90
       23
 90
       39
 90
       40
 90
       21
 90
       40
 90
       21
 90
       22
 90
       40
 90
      238
 90
       20
 90
      238
 90
       20
 90
       21
 90
       41
 90
      238
 90
       19
 90
       41
 90
       19
 90
       20
 90
       41
 90
       42
 90
       18
 90
       42
 90
       18
 90
       19
 90
       42
 90
       43
 90
       17
 90
       43
 90
       17
 90
       18
 90
       43
 90
      239
 90
       16
 90
      239
 90
       16
 90
       17
 90
      233
 90
      239
 90
       15
 90
      233
 90
       15
 90
       16
 90
        1
 90
      233
 90
        0
 90
        1
 90
        0
 90
       15
 90
        1
 90
      226
 90
       14
 90
      226
 90
        0
 90
       14
 90
      226
 90
      227
 90
       13
 90
      227
 90
       13
 90
       14
 90
        2
 90
      227
 90
        2
 90
       12
 90
       12
 90
       13
 90
        2
 90
      228
 90
       11
 90
      228
 90
       11
 90
       12
 90
      228
 90
      229
 90
       10
 90
      229
 90
       10
 90
       11
 90
      229
 90
      230
 90
        9
 90
      230
 90
        9
 90
       10
 90
        3
 90
      230
 90
        3
 90
        8
 90
        8
 90
        9
 90
        3
 90
      231
 90
        7
 90
      231
 90
        7
 90
        8
 90
      231
 90
      232
 90
        6
 90
      232
 90
        6
 90
        7
 90
        4
 90
      232
 90
        4
 90
        5
 90
        5
 90
        6
 90
        4
 90
      202
 90
      201
 90
      202
 90
        5
 90
      201
 90
      127
 90
      202
 90
      126
 90
      127
 90
      126
 90
      201
 90
      127
 90
      128
 90
      125
 90
      128
 90
      125
 90
      126
 90
      128
 90
      295
 90
      197
 90
      295
 90
      125
 90
      197
 90
      193
 90
      295
 90
      193
 90
      196
 90
      196
 90
      197
 90
      193
 90
      296
 90
      195
 90
      296
 90
      195
 90
      196
 90
      296
 90
      297
 90
      194
 90
      297
 90
      194
 90
      195
 90
      271
 90
      297
 90
      130
 90
      271
 90
      130
 90
      194
 90
      271
 90
      272
 90
      129
 90
      272
 90
      129
 90
      130
 90
      187
 90
      272
 90
      186
 90
      187
 90
      129
 90
      186
 90
      187
 90
      292
 90
      189
 90
      292
 90
      186
 90
      189
 90
      292
 90
      293
 90
      188
 90
      293
 90
      188
 90
      189
 90
      198
 90
      293
 90
      198
 90
      200
 90
      188
 90
      200
 90
      142
 90
      198
 90
      142
 90
      199
 90
      199
 90
      200
 90
      142
 90
      276
 90
      148
 90
      276
 90
      148
 90
      199
 90
      276
 90
      277
 90
      147
 90
      277
 90
      147
 90
      148
 90
      277
 90
      278
 90
      146
 90
      278
 90
      146
 90
      147
 90
      278
 90
      279
 90
      145
 90
      279
 90
      145
 90
      146
 90
      143
 90
      279
 90
      143
 90
      144
 90
      144
 90
      145
 90
      143
 90
      159
 90
      158
 90
      159
 90
      144
 90
      158
 90
      159
 90
      160
 90
      160
 90
      165
 90
      158
 90
      165
 90
      160
 90
      161
 90
      161
 90
      164
 90
      164
 90
      165
 90
      161
 90
      283
 90
      163
 90
      283
 90
      163
 90
      164
 90
      157
 90
      283
 90
      157
 90
      162
 90
      162
 90
      163
 90
      157
 90
      282
 90
      156
 90
      282
 90
      156
 90
      162
 90
      280
 90
      282
 90
      149
 90
      280
 90
      149
 90
      156
 90
      150
 90
      280
 90
      150
 90
      155
 90
      149
 90
      155
 90
      150
 90
      151
 90
      151
 90
      154
 90
      154
 90
      155
 90
      151
 90
      281
 90
      153
 90
      281
 90
      153
 90
      154
 90
      264
 90
      281
 90
      152
 90
      264
 90
      152
 90
      153
 90
      264
 90
      265
 90
      103
 90
      265
 90
      103
 90
      152
 90
      107
 90
      265
 90
      106
 90
      107
 90
      103
 90
      106
 90
      107
 90
      266
 90
      105
 90
      266
 90
      105
 90
      106
 90
      266
 90
      290
 90
      104
 90
      290
 90
      104
 90
      105
 90
      290
 90
      291
 90
      183
 90
      291
 90
      104
 90
      183
 90
      181
 90
      291
 90
      181
 90
      182
 90
      182
 90
      183
 90
      181
 90
      185
 90
      184
 90
      185
 90
      182
 90
      184
 90
      113
 90
      185
 90
      112
 90
      113
 90
      112
 90
      184
 90
      113
 90
      114
 90
      111
 90
      114
 90
      111
 90
      112
 90
      114
 90
      115
 90
      110
 90
      115
 90
      110
 90
      111
 90
      115
 90
      116
 90
      109
 90
      116
 90
      109
 90
      110
 90
      116
 90
      267
 90
      108
 90
      267
 90
      108
 90
      109
 90
      267
 90
      268
 90
      120
 90
      268
 90
      108
 90
      120
 90
      268
 90
      269
 90
      119
 90
      269
 90
      119
 90
      120
 90
      121
 90
      269
 90
      118
 90
      121
 90
      118
 90
      119
 90
      121
 90
      166
 90
      117
 90
      166
 90
      117
 90
      118
 90
      166
 90
      167
 90
      167
 90
      180
 90
      117
 90
      180
 90
      167
 90
      168
 90
      168
 90
      179
 90
      179
 90
      180
 90
      168
 90
      284
 90
      178
 90
      284
 90
      178
 90
      179
 90
      284
 90
      285
 90
      177
 90
      285
 90
      177
 90
      178
 90
      285
 90
      286
 90
      176
 90
      286
 90
      176
 90
      177
 90
      169
 90
      286
 90
      169
 90
      175
 90
      175
 90
      176
 90
      169
 90
      170
 90
      170
 90
      174
 90
      174
 90
      175
 90
      170
 90
      287
 90
      173
 90
      287
 90
      173
 90
      174
 90
      287
 90
      288
 90
      172
 90
      288
 90
      172
 90
      173
 90
      288
 90
      289
 90
      171
 90
      289
 90
      171
 90
      172
 90
      270
 90
      289
 90
      122
 90
      270
 90
      122
 90
      171
 90
      123
 90
      270
 90
      123
 90
      124
 90
      122
 90
      124
 90
      123
 90
      190
 90
      190
 90
      192
 90
      124
 90
      192
 90
      190
 90
      294
 90
      191
 90
      294
 90
      191
 90
      192
 90
      275
 90
      294
 90
      141
 90
      275
 90
      141
 90
      191
 90
      135
 90
      275
 90
      134
 90
      135
 90
      134
 90
      141
 90
      135
 90
      136
 90
      136
 90
      140
 90
      134
 90
      140
 90
      136
 90
      137
 90
      137
 90
      219
 90
      140
 90
      219
 90
      137
 90
      138
 90
      138
 90
      139
 90
      139
 90
      219
 90
      138
 90
      274
 90
      217
 90
      274
 90
      139
 90
      217
 90
      133
 90
      274
 90
      132
 90
      133
 90
      132
 90
      217
 90
      133
 90
      273
 90
      131
 90
      132
 90
       70
 90
      204
 90
       74
 90
      207
 90
      250
 90
      298
 90
       73
 90
      206
 90
       71
 90
      299
 90
       72
 90
      205
 90
       61
 90
      300
 90
       60
 90
      208
 90
       62
 90
      209
 90
       67
 90
      213
 90
       63
 90
      301
 90
       66
 90
      212
 90
      248
 90
      302
 90
       65
 90
      211
 90
      249
 90
      303
 90
       64
 90
      210
 90
       14
 90
      147
 90
        0
 90
      146
 90
      131
 90
      216
 90
      132
 90
      216
 90
       99
 90
      217
 90
      139
 90
      218
 90
       98
 90
      219
 90
       97
 90
      140
 90
      134
 90
      192
 90
      124
 90
      140
 90
      124
 90
      220
 90
       96
 90
      122
 90
      171
 90
      221
 90
      172
 90
      222
 90
      173
 90
      223
 90
      173
 90
      224
 90
      173
 90
      225
 90
       87
 90
      173
 90
       86
 90
      174
 90
       85
 90
      174
 90
       84
 90
      174
 90
       81
 90
      174
 90
       80
 90
      175
 90
       79
 90
      175
 90
       78
 90
      175
 90
       76
 90
      175
 90
       75
 90
      176
 90
      101
 90
      180
 90
       68
 90
      117
 90
      101
 90
      179
 90
      102
 90
      177
 90
      102
 90
      178
 90
      118
 90
      207
 90
       74
 90
      118
 90
      119
 90
      206
 90
       73
 90
      119
 90
      120
 90
      205
 90
       72
 90
      120
 90
      108
 90
      208
 90
       60
 90
      108
 90
      109
 90
      213
 90
       67
 90
      109
 90
      110
 90
      212
 90
       66
 90
      110
 90
      111
 90
      211
 90
       65
 90
      111
 90
      112
 90
      210
 90
       64
 90
      112
 90
       58
 90
      184
 90
       57
 90
      182
 90
       57
 90
      183
 90
       56
 90
      183
 90
       47
 90
      104
 90
       55
 90
      104
 90
       54
 90
      105
 90
       53
 90
      106
 90
       52
 90
      103
 90
       51
 90
      103
 90
       50
 90
      152
 90
       44
 90
      152
 90
       44
 90
      153
 90
       44
 90
      154
 90
       32
 90
      155
 90
       32
 90
      149
 90
       32
 90
      156
 90
       31
 90
      162
 90
       30
 90
      162
 90
       29
 90
      163
 90
       28
 90
      163
 90
       27
 90
      163
 90
       26
 90
      163
 90
       25
 90
      164
 90
       24
 90
      164
 90
       23
 90
      164
 90
       22
 90
      164
 90
       21
 90
      165
 90
       20
 90
      165
 90
       19
 90
      165
 90
       18
 90
      158
 90
       17
 90
      158
 90
       16
 90
      158
 90
       15
 90
      144
 90
       15
 90
      145
 90
       13
 90
      148
 90
       10
 90
      188
 90
       11
 90
      200
 90
       12
 90
      199
 90
      130
 90
      189
 90
       10
 90
      130
 90
        9
 90
      194
 90
        5
 90
      125
 90
        6
 90
      197
 90
        7
 90
      196
 90
        8
 90
      195
 90
        1
 90
      278
 90
      226
 90
      277
 90
      260
 90
      273
 90
      133
 90
      260
 90
       91
 90
      274
 90
       92
 90
      138
 90
      137
 90
      261
 90
       93
 90
      136
 90
      135
 90
      190
 90
      123
 90
      136
 90
       94
 90
      123
 90
      262
 90
      270
 90
       95
 90
      289
 90
      259
 90
      288
 90
       88
 90
      287
 90
      254
 90
      287
 90
      255
 90
      287
 90
      256
 90
      287
 90
      170
 90
      257
 90
      170
 90
      258
 90
       89
 90
      170
 90
       82
 90
      170
 90
      169
 90
      252
 90
       83
 90
      169
 90
      169
 90
      253
 90
       77
 90
      169
 90
      251
 90
      286
 90
       69
 90
      166
 90
      167
 90
      263
 90
      168
 90
      263
 90
      100
 90
      285
 90
      100
 90
      284
 90
       70
 90
      121
 90
      121
 90
      204
 90
      250
 90
      269
 90
      269
 90
      298
 90
       71
 90
      268
 90
      268
 90
      299
 90
       61
 90
      267
 90
      267
 90
      300
 90
       62
 90
      116
 90
      116
 90
      209
 90
       63
 90
      115
 90
      115
 90
      301
 90
      114
 90
      248
 90
      114
 90
      302
 90
      113
 90
      249
 90
      113
 90
      303
 90
       59
 90
      185
 90
      181
 90
      247
 90
      246
 90
      291
 90
      247
 90
      291
 90
       48
 90
      290
 90
      241
 90
      290
 90
      242
 90
      266
 90
      107
 90
      243
 90
       49
 90
      265
 90
      244
 90
      265
 90
       45
 90
      264
 90
      245
 90
      264
 90
       45
 90
      151
 90
       45
 90
      281
 90
      234
 90
      280
 90
      150
 90
      234
 90
      234
 90
      282
 90
      157
 90
      235
 90
       33
 90
      157
 90
       34
 90
      283
 90
       35
 90
      283
 90
       36
 90
      283
 90
       37
 90
      283
 90
      161
 90
      236
 90
       38
 90
      161
 90
      161
 90
      237
 90
       39
 90
      161
 90
       40
 90
      160
 90
      160
 90
      238
 90
       41
 90
      160
 90
       42
 90
      159
 90
       43
 90
      159
 90
      159
 90
      239
 90
      143
 90
      233
 90
      233
 90
      279
 90
      227
 90
      276
 90
      198
 90
      228
 90
      229
 90
      293
 90
        2
 90
      142
 90
      271
 90
      292
 90
      229
 90
      271
 90
      230
 90
      297
 90
        4
 90
      128
 90
      232
 90
      295
 90
      193
 90
      231
 90
        3
 90
      296
 95
      644
140
0.0
140
0.0
140
0.0
140
0.0
140
0.0
140
0.0
140
0.0
140
0.0
140
0.0
140
0.0
140
0.0
140
0.0
140
0.0
140
0.0
140
0.0
140
0.0
140
0.0
140
0.0
140
0.0
140
0.0
140
0.0
140
0.0
140
0.0
140
0.0
140
0.0
140
0.0
140
0.0
140
0.0
140
0.0
140
0.0
140
0.0
140
0.0
140
0.0
140
0.0
140
0.0
140
0.0
140
0.0
140
0.0
140
0.0
140
0.0
140
0.0
140
0.0
140
0.0
140
0.0
140
0.0
140
0.0
140
0.0
140
0.0
140
0.0
140
0.0
140
0.0
140
0.0
140
0.0
140
0.0
140
0.0
140
0.0
140
0.0
140
0.0
140
0.0
140
0.0
140
0.0
140
0.0
140
0.0
140
0.0
140
0.0
140
0.0
140
0.0
140
0.0
140
0.0
140
0.0
140
0.0
140
0.0
140
0.0
140
0.0
140
0.0
140
0.0
140
0.0
140
0.0
140
0.0
140
0.0
140
0.0
140
0.0
140
0.0
140
0.0
140
0.0
140
0.0
140
0.0
140
0.0
140
0.0
140
0.0
140
0.0
140
0.0
140
0.0
140
0.0
140
0.0
140
0.0
140
0.0
140
0.0
140
0.0
140
0.0
140
0.0
140
0.0
140
0.0
140
0.0
140
0.0
140
0.0
140
0.0
140
0.0
140
0.0
140
0.0
140
0.0
140
0.0
140
0.0
140
0.0
140
0.0
140
0.0
140
0.0
140
0.0
140
0.0
140
0.0
140
0.0
140
0.0
140
0.0
140
0.0
140
0.0
140
0.0
140
0.0
140
0.0
140
0.0
140
0.0
140
0.0
140
0.0
140
0.0
140
0.0
140
0.0
140
0.0
140
0.0
140
0.0
140
0.0
140
0.0
140
0.0
140
0.0
140
0.0
140
0.0
140
0.0
140
0.0
140
0.0
140
0.0
140
0.0
140
0.0
140
0.0
140
0.0
140
0.0
140
0.0
140
0.0
140
0.0
140
0.0
140
0.0
140
0.0
140
0.0
140
0.0
140
0.0
140
0.0
140
0.0
140
0.0
140
0.0
140
0.0
140
0.0
140
0.0
140
0.0
140
0.0
140
0.0
140
0.0
140
0.0
140
0.0
140
0.0
140
0.0
140
0.0
140
0.0
140
0.0
140
0.0
140
0.0
140
0.0
140
0.0
140
0.0
140
0.0
140
0.0
140
0.0
140
0.0
140
0.0
140
0.0
140
0.0
140
0.0
140
0.0
140
0.0
140
0.0
140
0.0
140
0.0
140
0.0
140
0.0
140
0.0
140
0.0
140
0.0
140
0.0
140
0.0
140
0.0
140
0.0
140
0.0
140
0.0
140
0.0
140
0.0
140
0.0
140
0.0
140
0.0
140
0.0
140
0.0
140
0.0
140
0.0
140
0.0
140
0.0
140
0.0
140
0.0
140
0.0
140
0.0
140
0.0
140
0.0
140
0.0
140
0.0
140
0.0
140
0.0
140
0.0
140
0.0
140
0.0
140
0.0
140
0.0
140
0.0
140
0.0
140
0.0
140
0.0
140
0.0
140
0.0
140
0.0
140
0.0
140
0.0
140
0.0
140
0.0
140
0.0
140
0.0
140
0.0
140
0.0
140
0.0
140
0.0
140
0.0
140
0.0
140
0.0
140
0.0
140
0.0
140
0.0
140
0.0
140
0.0
140
0.0
140
0.0
140
0.0
140
0.0
140
0.0
140
0.0
140
0.0
140
0.0
140
0.0
140
0.0
140
0.0
140
0.0
140
0.0
140
0.0
140
0.0
140
0.0
140
0.0
140
0.0
140
0.0
140
0.0
140
0.0
140
0.0
140
0.0
140
0.0
140
0.0
140
0.0
140
0.0
140
0.0
140
0.0
140
0.0
140
0.0
140
0.0
140
0.0
140
0.0
140
0.0
140
0.0
140
0.0
140
0.0
140
0.0
140
0.0
140
0.0
140
0.0
140
0.0
140
0.0
140
0.0
140
0.0
140
0.0
140
0.0
140
0.0
140
0.0
140
0.0
140
0.0
140
0.0
140
0.0
140
0.0
140
0.0
140
0.0
140
0.0
140
0.0
140
0.0
140
0.0
140
0.0
140
0.0
140
0.0
140
0.0
140
0.0
140
0.0
140
0.0
140
0.0
140
0.0
140
0.0
140
0.0
140
0.0
140
0.0
140
0.0
140
0.0
140
0.0
140
0.0
140
0.0
140
0.0
140
0.0
140
0.0
140
0.0
140
0.0
140
0.0
140
0.0
140
0.0
140
0.0
140
0.0
140
0.0
140
0.0
140
0.0
140
0.0
140
0.0
140
0.0
140
0.0
140
0.0
140
0.0
140
0.0
140
0.0
140
0.0
140
0.0
140
0.0
140
0.0
140
0.0
140
0.0
140
0.0
140
0.0
140
0.0
140
0.0
140
0.0
140
0.0
140
0.0
140
0.0
140
0.0
140
0.0
140
0.0
140
0.0
140
0.0
140
0.0
140
0.0
140
0.0
140
0.0
140
0.0
140
0.0
140
0.0
140
0.0
140
0.0
140
0.0
140
0.0
140
0.0
140
0.0
140
0.0
140
0.0
140
0.0
140
0.0
140
0.0
140
0.0
140
0.0
140
0.0
140
0.0
140
0.0
140
0.0
140
0.0
140
0.0
140
0.0
140
0.0
140
0.0
140
0.0
140
0.0
140
0.0
140
0.0
140
0.0
140
0.0
140
0.0
140
0.0
140
0.0
140
0.0
140
0.0
140
0.0
140
0.0
140
0.0
140
0.0
140
0.0
140
0.0
140
0.0
140
0.0
140
0.0
140
0.0
140
0.0
140
0.0
140
0.0
140
0.0
140
0.0
140
0.0
140
0.0
140
0.0
140
0.0
140
0.0
140
0.0
140
0.0
140
0.0
140
0.0
140
0.0
140
0.0
140
0.0
140
0.0
140
0.0
140
0.0
140
0.0
140
0.0
140
0.0
140
0.0
140
0.0
140
0.0
140
0.0
140
0.0
140
0.0
140
0.0
140
0.0
140
0.0
140
0.0
140
0.0
140
0.0
140
0.0
140
0.0
140
0.0
140
0.0
140
0.0
140
0.0
140
0.0
140
0.0
140
0.0
140
0.0
140
0.0
140
0.0
140
0.0
140
0.0
140
0.0
140
0.0
140
0.0
140
0.0
140
0.0
140
0.0
140
0.0
140
0.0
140
0.0
140
0.0
140
0.0
140
0.0
140
0.0
140
0.0
140
0.0
140
0.0
140
0.0
140
0.0
140
0.0
140
0.0
140
0.0
140
0.0
140
0.0
140
0.0
140
0.0
140
0.0
140
0.0
140
0.0
140
0.0
140
0.0
140
0.0
140
0.0
140
0.0
140
0.0
140
0.0
140
0.0
140
0.0
140
0.0
140
0.0
140
0.0
140
0.0
140
0.0
140
0.0
140
0.0
140
0.0
140
0.0
140
0.0
140
0.0
140
0.0
140
0.0
140
0.0
140
0.0
140
0.0
140
0.0
140
0.0
140
0.0
140
0.0
140
0.0
140
0.0
140
0.0
140
0.0
140
0.0
140
0.0
140
0.0
140
0.0
140
0.0
140
0.0
140
0.0
140
0.0
140
0.0
140
0.0
140
0.0
140
0.0
140
0.0
140
0.0
140
0.0
140
0.0
140
0.0
140
0.0
140
0.0
140
0.0
140
0.0
140
0.0
140
0.0
140
0.0
140
0.0
140
0.0
140
0.0
140
0.0
140
0.0
140
0.0
140
0.0
140
0.0
140
0.0
140
0.0
140
0.0
140
0.0
140
0.0
140
0.0
140
0.0
140
0.0
140
0.0
140
0.0
140
0.0
140
0.0
140
0.0
140
0.0
140
0.0
140
0.0
140
0.0
140
0.0
140
0.0
140
0.0
140
0.0
140
0.0
140
0.0
140
0.0
140
0.0
140
0.0
140
0.0
140
0.0
140
0.0
140
0.0
140
0.0
140
0.0
140
0.0
140
0.0
140
0.0
140
0.0
140
0.0
140
0.0
140
0.0
140
0.0
140
0.0
140
0.0
140
0.0
140
0.0
140
0.0
140
0.0
140
0.0
140
0.0
140
0.0
140
0.0
140
0.0
140
0.0
140
0.0
140
0.0
140
0.0
140
0.0
140
0.0
140
0.0
140
0.0
140
0.0
140
0.0
140
0.0
140
0.0
140
0.0
140
0.0
140
0.0
140
0.0
140
0.0
140
0.0
140
0.0
140
0.0
140
0.0
140
0.0
 90
        0
  0
POLYLINE
  5
FA
330
1F
100
AcDbEntity
  8
OracDecor_cornice_mouldings
 62
   136
420
   427889
100
AcDb2dPolyline
 66
     1
 10
0.0
 20
0.0
 30
0.0000284817033389
 70
     1
210
-0.9999999999999769
220
0.0000001788139343
230
-0.0000001192092896
  0
VERTEX
  5
FB
330
FA
100
AcDbEntity
  8
OracDecor_cornice_mouldings
 62
   136
420
   427889
100
AcDbVertex
100
AcDb2dVertex
 10
-25.53556060791016
 20
-250.1399841308594
 30
0.0000284817033389
  0
VERTEX
  5
FC
330
FA
100
AcDbEntity
  8
OracDecor_cornice_mouldings
 62
   136
420
   427889
100
AcDbVertex
100
AcDb2dVertex
 10
-22.43309783935547
 20
-250.4360656738281
 30
0.0000284817033389
  0
VERTEX
  5
FD
330
FA
100
AcDbEntity
  8
OracDecor_cornice_mouldings
 62
   136
420
   427889
100
AcDbVertex
100
AcDb2dVertex
 10
-19.8338394165039
 20
-251.2752990722656
 30
0.0000284817033389
  0
VERTEX
  5
FE
330
FA
100
AcDbEntity
  8
OracDecor_cornice_mouldings
 62
   136
420
   427889
100
AcDbVertex
100
AcDb2dVertex
 10
-17.72904205322265
 20
-252.5504455566406
 30
0.0000284817033389
  0
VERTEX
  5
FF
330
FA
100
AcDbEntity
  8
OracDecor_cornice_mouldings
 62
   136
420
   427889
100
AcDbVertex
100
AcDb2dVertex
 10
-15.54787445068359
 20
-254.8313293457031
 30
0.0000284817033389
  0
VERTEX
  5
100
330
FA
100
AcDbEntity
  8
OracDecor_cornice_mouldings
 62
   136
420
   427889
100
AcDbVertex
100
AcDb2dVertex
 10
-14.04677581787109
 20
-257.4088745117188
 30
0.0000284817033389
  0
VERTEX
  5
101
330
FA
100
AcDbEntity
  8
OracDecor_cornice_mouldings
 62
   136
420
   427889
100
AcDbVertex
100
AcDb2dVertex
 10
-13.08426666259765
 20
-259.8959655761719
 30
0.0000284817033389
  0
VERTEX
  5
102
330
FA
100
AcDbEntity
  8
OracDecor_cornice_mouldings
 62
   136
420
   427889
100
AcDbVertex
100
AcDb2dVertex
 10
-12.54795837402344
 20
-261.9641418457031
 30
0.0000284817033389
  0
VERTEX
  5
103
330
FA
100
AcDbEntity
  8
OracDecor_cornice_mouldings
 62
   136
420
   427889
100
AcDbVertex
100
AcDb2dVertex
 10
-12.10332489013672
 20
-264.5053100585938
 30
0.0000284817033389
  0
VERTEX
  5
104
330
FA
100
AcDbEntity
  8
OracDecor_cornice_mouldings
 62
   136
420
   427889
100
AcDbVertex
100
AcDb2dVertex
 10
-11.81454467773437
 20
-267.4141540527344
 30
0.0000284817033389
  0
VERTEX
  5
105
330
FA
100
AcDbEntity
  8
OracDecor_cornice_mouldings
 62
   136
420
   427889
100
AcDbVertex
100
AcDb2dVertex
 10
-11.70372772216797
 20
-270.9939575195313
 30
0.0000284817033389
  0
VERTEX
  5
106
330
FA
100
AcDbEntity
  8
OracDecor_cornice_mouldings
 62
   136
420
   427889
100
AcDbVertex
100
AcDb2dVertex
 10
0.0001220703125
 20
-270.9939575195313
 30
0.0000284817033389
  0
VERTEX
  5
107
330
FA
100
AcDbEntity
  8
OracDecor_cornice_mouldings
 62
   136
420
   427889
100
AcDbVertex
100
AcDb2dVertex
 10
0.0001144409179688
 20
-260.6747436523438
 30
0.0000284817033389
  0
VERTEX
  5
108
330
FA
100
AcDbEntity
  8
OracDecor_cornice_mouldings
 62
   136
420
   427889
100
AcDbVertex
100
AcDb2dVertex
 10
-0.83795166015625
 20
-260.4142456054688
 30
0.0000284817033389
  0
VERTEX
  5
109
330
FA
100
AcDbEntity
  8
OracDecor_cornice_mouldings
 62
   136
420
   427889
100
AcDbVertex
100
AcDb2dVertex
 10
-1.830917358398437
 20
-259.9664611816406
 30
0.0000284817033389
  0
VERTEX
  5
10A
330
FA
100
AcDbEntity
  8
OracDecor_cornice_mouldings
 62
   136
420
   427889
100
AcDbVertex
100
AcDb2dVertex
 10
-2.330894470214843
 20
-259.3492736816406
 30
0.0000284817033389
  0
VERTEX
  5
10B
330
FA
100
AcDbEntity
  8
OracDecor_cornice_mouldings
 62
   136
420
   427889
100
AcDbVertex
100
AcDb2dVertex
 10
-2.533210754394531
 20
-258.5865478515625
 30
0.0000284817033389
  0
VERTEX
  5
10C
330
FA
100
AcDbEntity
  8
OracDecor_cornice_mouldings
 62
   136
420
   427889
100
AcDbVertex
100
AcDb2dVertex
 10
-2.403221130371093
 20
-257.8088989257813
 30
0.0000284817033389
  0
VERTEX
  5
10D
330
FA
100
AcDbEntity
  8
OracDecor_cornice_mouldings
 62
   136
420
   427889
100
AcDbVertex
100
AcDb2dVertex
 10
-1.9632568359375
 20
-257.1494140625
 30
0.0000284817033389
  0
VERTEX
  5
10E
330
FA
100
AcDbEntity
  8
OracDecor_cornice_mouldings
 62
   136
420
   427889
100
AcDbVertex
100
AcDb2dVertex
 10
0.0001144409179688
 20
-255.2328186035156
 30
0.0000284817033389
  0
VERTEX
  5
10F
330
FA
100
AcDbEntity
  8
OracDecor_cornice_mouldings
 62
   136
420
   427889
100
AcDbVertex
100
AcDb2dVertex
 10
0.0001144409179688
 20
-245.8373718261719
 30
0.0000284817033389
  0
VERTEX
  5
110
330
FA
100
AcDbEntity
  8
OracDecor_cornice_mouldings
 62
   136
420
   427889
100
AcDbVertex
100
AcDb2dVertex
 10
-0.4754638671875
 20
-245.4501953125
 30
0.0000284817033389
  0
VERTEX
  5
111
330
FA
100
AcDbEntity
  8
OracDecor_cornice_mouldings
 62
   136
420
   427889
100
AcDbVertex
100
AcDb2dVertex
 10
-1.047515869140625
 20
-245.2203369140625
 30
0.0000284817033389
  0
VERTEX
  5
112
330
FA
100
AcDbEntity
  8
OracDecor_cornice_mouldings
 62
   136
420
   427889
100
AcDbVertex
100
AcDb2dVertex
 10
-4.272232055664062
 20
-244.2050476074219
 30
0.0000284817033389
  0
VERTEX
  5
113
330
FA
100
AcDbEntity
  8
OracDecor_cornice_mouldings
 62
   136
420
   427889
100
AcDbVertex
100
AcDb2dVertex
 10
-8.232192993164062
 20
-241.9073028564453
 30
0.0000284817033389
  0
VERTEX
  5
114
330
FA
100
AcDbEntity
  8
OracDecor_cornice_mouldings
 62
   136
420
   427889
100
AcDbVertex
100
AcDb2dVertex
 10
-11.04241943359375
 20
-238.723648071289
 30
0.0000284817033389
  0
VERTEX
  5
115
330
FA
100
AcDbEntity
  8
OracDecor_cornice_mouldings
 62
   136
420
   427889
100
AcDbVertex
100
AcDb2dVertex
 10
-13.63075256347656
 20
-235.1185760498047
 30
0.0000284817033389
  0
VERTEX
  5
116
330
FA
100
AcDbEntity
  8
OracDecor_cornice_mouldings
 62
   136
420
   427889
100
AcDbVertex
100
AcDb2dVertex
 10
-15.96190643310547
 20
-232.3959808349609
 30
0.0000284817033389
  0
VERTEX
  5
117
330
FA
100
AcDbEntity
  8
OracDecor_cornice_mouldings
 62
   136
420
   427889
100
AcDbVertex
100
AcDb2dVertex
 10
-20.12548065185547
 20
-229.8855285644531
 30
0.0000284817033389
  0
VERTEX
  5
118
330
FA
100
AcDbEntity
  8
OracDecor_cornice_mouldings
 62
   136
420
   427889
100
AcDbVertex
100
AcDb2dVertex
 10
-24.38574981689453
 20
-229.07568359375
 30
0.0000284817033389
  0
VERTEX
  5
119
330
FA
100
AcDbEntity
  8
OracDecor_cornice_mouldings
 62
   136
420
   427889
100
AcDbVertex
100
AcDb2dVertex
 10
-30.48907470703125
 20
-229.07568359375
 30
0.0000284817033389
  0
VERTEX
  5
11A
330
FA
100
AcDbEntity
  8
OracDecor_cornice_mouldings
 62
   136
420
   427889
100
AcDbVertex
100
AcDb2dVertex
 10
-34.48229217529297
 20
-228.1281585693359
 30
0.0000284817033389
  0
VERTEX
  5
11B
330
FA
100
AcDbEntity
  8
OracDecor_cornice_mouldings
 62
   136
420
   427889
100
AcDbVertex
100
AcDb2dVertex
 10
-38.57743072509766
 20
-224.654052734375
 30
0.0000284817033389
  0
VERTEX
  5
11C
330
FA
100
AcDbEntity
  8
OracDecor_cornice_mouldings
 62
   136
420
   427889
100
AcDbVertex
100
AcDb2dVertex
 10
-40.10777282714843
 20
-219.5624694824219
 30
0.0000284817033389
  0
VERTEX
  5
11D
330
FA
100
AcDbEntity
  8
OracDecor_cornice_mouldings
 62
   136
420
   427889
100
AcDbVertex
100
AcDb2dVertex
 10
-38.58821868896484
 20
-214.4676055908203
 30
0.0000284817033389
  0
VERTEX
  5
11E
330
FA
100
AcDbEntity
  8
OracDecor_cornice_mouldings
 62
   136
420
   427889
100
AcDbVertex
100
AcDb2dVertex
 10
-35.67307281494141
 20
-209.5679473876953
 30
0.0000284817033389
  0
VERTEX
  5
11F
330
FA
100
AcDbEntity
  8
OracDecor_cornice_mouldings
 62
   136
420
   427889
100
AcDbVertex
100
AcDb2dVertex
 10
-34.80178070068359
 20
-204.1299133300781
 30
0.0000284817033389
  0
VERTEX
  5
120
330
FA
100
AcDbEntity
  8
OracDecor_cornice_mouldings
 62
   136
420
   427889
100
AcDbVertex
100
AcDb2dVertex
 10
-34.84758758544922
 20
-199.7454986572265
 30
0.0000284817033389
  0
VERTEX
  5
121
330
FA
100
AcDbEntity
  8
OracDecor_cornice_mouldings
 62
   136
420
   427889
100
AcDbVertex
100
AcDb2dVertex
 10
-35.37724304199219
 20
-195.1476440429687
 30
0.0000284817033389
  0
VERTEX
  5
122
330
FA
100
AcDbEntity
  8
OracDecor_cornice_mouldings
 62
   136
420
   427889
100
AcDbVertex
100
AcDb2dVertex
 10
-36.54918670654297
 20
-191.5243072509765
 30
0.0000284817033389
  0
VERTEX
  5
123
330
FA
100
AcDbEntity
  8
OracDecor_cornice_mouldings
 62
   136
420
   427889
100
AcDbVertex
100
AcDb2dVertex
 10
-38.28569030761719
 20
-188.7099609375
 30
0.0000284817033389
  0
VERTEX
  5
124
330
FA
100
AcDbEntity
  8
OracDecor_cornice_mouldings
 62
   136
420
   427889
100
AcDbVertex
100
AcDb2dVertex
 10
-53.2052001953125
 20
-171.93310546875
 30
0.0000284817033389
  0
VERTEX
  5
125
330
FA
100
AcDbEntity
  8
OracDecor_cornice_mouldings
 62
   136
420
   427889
100
AcDbVertex
100
AcDb2dVertex
 10
-57.22573852539063
 20
-168.0998840332031
 30
0.0000284817033389
  0
VERTEX
  5
126
330
FA
100
AcDbEntity
  8
OracDecor_cornice_mouldings
 62
   136
420
   427889
100
AcDbVertex
100
AcDb2dVertex
 10
-61.81828689575195
 20
-164.944107055664
 30
0.0000284817033389
  0
VERTEX
  5
127
330
FA
100
AcDbEntity
  8
OracDecor_cornice_mouldings
 62
   136
420
   427889
100
AcDbVertex
100
AcDb2dVertex
 10
-70.16690063476563
 20
-160.9731140136718
 30
0.0000284817033389
  0
VERTEX
  5
128
330
FA
100
AcDbEntity
  8
OracDecor_cornice_mouldings
 62
   136
420
   427889
100
AcDbVertex
100
AcDb2dVertex
 10
-79.46337890625
 20
-155.248550415039
 30
0.0000284817033389
  0
VERTEX
  5
129
330
FA
100
AcDbEntity
  8
OracDecor_cornice_mouldings
 62
   136
420
   427889
100
AcDbVertex
100
AcDb2dVertex
 10
-84.69445037841797
 20
-150.2007141113281
 30
0.0000284817033389
  0
VERTEX
  5
12A
330
FA
100
AcDbEntity
  8
OracDecor_cornice_mouldings
 62
   136
420
   427889
100
AcDbVertex
100
AcDb2dVertex
 10
-86.13727569580078
 20
-148.0570983886718
 30
0.0000284817033389
  0
VERTEX
  5
12B
330
FA
100
AcDbEntity
  8
OracDecor_cornice_mouldings
 62
   136
420
   427889
100
AcDbVertex
100
AcDb2dVertex
 10
-86.97551727294921
 20
-145.6240844726562
 30
0.0000284817033389
  0
VERTEX
  5
12C
330
FA
100
AcDbEntity
  8
OracDecor_cornice_mouldings
 62
   136
420
   427889
100
AcDbVertex
100
AcDb2dVertex
 10
-92.32138061523437
 20
-125.8610382080078
 30
0.0000284817033389
  0
VERTEX
  5
12D
330
FA
100
AcDbEntity
  8
OracDecor_cornice_mouldings
 62
   136
420
   427889
100
AcDbVertex
100
AcDb2dVertex
 10
-100.1298217773437
 20
-106.9013748168945
 30
0.0000284817033389
  0
VERTEX
  5
12E
330
FA
100
AcDbEntity
  8
OracDecor_cornice_mouldings
 62
   136
420
   427889
100
AcDbVertex
100
AcDb2dVertex
 10
-110.2800140380859
 20
-89.03855895996093
 30
0.0000284817033389
  0
VERTEX
  5
12F
330
FA
100
AcDbEntity
  8
OracDecor_cornice_mouldings
 62
   136
420
   427889
100
AcDbVertex
100
AcDb2dVertex
 10
-122.6148605346679
 20
-72.54903411865234
 30
0.0000284817033389
  0
VERTEX
  5
130
330
FA
100
AcDbEntity
  8
OracDecor_cornice_mouldings
 62
   136
420
   427889
100
AcDbVertex
100
AcDb2dVertex
 10
-140.9610290527344
 20
-53.73351287841797
 30
0.0000284817033389
  0
VERTEX
  5
131
330
FA
100
AcDbEntity
  8
OracDecor_cornice_mouldings
 62
   136
420
   427889
100
AcDbVertex
100
AcDb2dVertex
 10
-161.7361755371093
 20
-37.52283096313477
 30
0.0000284817033389
  0
VERTEX
  5
132
330
FA
100
AcDbEntity
  8
OracDecor_cornice_mouldings
 62
   136
420
   427889
100
AcDbVertex
100
AcDb2dVertex
 10
-184.5580749511718
 20
-24.21535110473633
 30
0.0000284817033389
  0
VERTEX
  5
133
330
FA
100
AcDbEntity
  8
OracDecor_cornice_mouldings
 62
   136
420
   427889
100
AcDbVertex
100
AcDb2dVertex
 10
-209.6349487304688
 20
-13.8037691116333
 30
0.0000284817033389
  0
VERTEX
  5
134
330
FA
100
AcDbEntity
  8
OracDecor_cornice_mouldings
 62
   136
420
   427889
100
AcDbVertex
100
AcDb2dVertex
 10
-212.5910186767578
 20
-12.79971027374267
 30
0.0000284817033389
  0
VERTEX
  5
135
330
FA
100
AcDbEntity
  8
OracDecor_cornice_mouldings
 62
   136
420
   427889
100
AcDbVertex
100
AcDb2dVertex
 10
-215.290283203125
 20
-12.59431171417236
 30
0.0000284817033389
  0
VERTEX
  5
136
330
FA
100
AcDbEntity
  8
OracDecor_cornice_mouldings
 62
   136
420
   427889
100
AcDbVertex
100
AcDb2dVertex
 10
-218.2577819824219
 20
-13.17106437683105
 30
0.0000284817033389
  0
VERTEX
  5
137
330
FA
100
AcDbEntity
  8
OracDecor_cornice_mouldings
 62
   136
420
   427889
100
AcDbVertex
100
AcDb2dVertex
 10
-221.1101684570313
 20
-14.42245292663574
 30
0.0000284817033389
  0
VERTEX
  5
138
330
FA
100
AcDbEntity
  8
OracDecor_cornice_mouldings
 62
   136
420
   427889
100
AcDbVertex
100
AcDb2dVertex
 10
-223.1815643310547
 20
-15.95464897155762
 30
0.0000284817033389
  0
VERTEX
  5
139
330
FA
100
AcDbEntity
  8
OracDecor_cornice_mouldings
 62
   136
420
   427889
100
AcDbVertex
100
AcDb2dVertex
 10
-225.8170318603516
 20
-17.41731071472168
 30
0.0000284817033389
  0
VERTEX
  5
13A
330
FA
100
AcDbEntity
  8
OracDecor_cornice_mouldings
 62
   136
420
   427889
100
AcDbVertex
100
AcDb2dVertex
 10
-228.8359832763672
 20
-17.89394950866699
 30
0.0000284817033389
  0
VERTEX
  5
13B
330
FA
100
AcDbEntity
  8
OracDecor_cornice_mouldings
 62
   136
420
   427889
100
AcDbVertex
100
AcDb2dVertex
 10
-231.6663360595703
 20
-17.3333568572998
 30
0.0000284817033389
  0
VERTEX
  5
13C
330
FA
100
AcDbEntity
  8
OracDecor_cornice_mouldings
 62
   136
420
   427889
100
AcDbVertex
100
AcDb2dVertex
 10
-233.9265594482422
 20
-15.89406490325927
 30
0.0000284817033389
  0
VERTEX
  5
13D
330
FA
100
AcDbEntity
  8
OracDecor_cornice_mouldings
 62
   136
420
   427889
100
AcDbVertex
100
AcDb2dVertex
 10
-235.2249145507812
 20
-14.32794857025146
 30
0.0000284817033389
  0
VERTEX
  5
13E
330
FA
100
AcDbEntity
  8
OracDecor_cornice_mouldings
 62
   136
420
   427889
100
AcDbVertex
100
AcDb2dVertex
 10
-235.8974304199219
 20
-12.95021724700928
 30
0.0000284817033389
  0
VERTEX
  5
13F
330
FA
100
AcDbEntity
  8
OracDecor_cornice_mouldings
 62
   136
420
   427889
100
AcDbVertex
100
AcDb2dVertex
 10
-239.6531372070313
 20
-0.911604881286621
 30
0.0000284817033389
  0
VERTEX
  5
140
330
FA
100
AcDbEntity
  8
OracDecor_cornice_mouldings
 62
   136
420
   427889
100
AcDbVertex
100
AcDb2dVertex
 10
-239.8876953125
 20
-0.4154195785522461
 30
0.0000284817033389
  0
VERTEX
  5
141
330
FA
100
AcDbEntity
  8
OracDecor_cornice_mouldings
 62
   136
420
   427889
100
AcDbVertex
100
AcDb2dVertex
 10
-240.2506408691406
 20
-0.0000143200541061
 30
0.0000284817033389
  0
VERTEX
  5
142
330
FA
100
AcDbEntity
  8
OracDecor_cornice_mouldings
 62
   136
420
   427889
100
AcDbVertex
100
AcDb2dVertex
 10
-249.8196716308594
 20
-0.0000148904127855
 30
0.0000284817033389
  0
VERTEX
  5
143
330
FA
100
AcDbEntity
  8
OracDecor_cornice_mouldings
 62
   136
420
   427889
100
AcDbVertex
100
AcDb2dVertex
 10
-251.94482421875
 20
-1.934524297714233
 30
0.0000284817033389
  0
VERTEX
  5
144
330
FA
100
AcDbEntity
  8
OracDecor_cornice_mouldings
 62
   136
420
   427889
100
AcDbVertex
100
AcDb2dVertex
 10
-252.6201171875
 20
-2.33489966392517
 30
0.0000284817033389
  0
VERTEX
  5
145
330
FA
100
AcDbEntity
  8
OracDecor_cornice_mouldings
 62
   136
420
   427889
100
AcDbVertex
100
AcDb2dVertex
 10
-253.4022521972656
 20
-2.439162969589233
 30
0.0000284817033389
  0
VERTEX
  5
146
330
FA
100
AcDbEntity
  8
OracDecor_cornice_mouldings
 62
   136
420
   427889
100
AcDbVertex
100
AcDb2dVertex
 10
-254.1622314453125
 20
-2.230056762695312
 30
0.0000284817033389
  0
VERTEX
  5
147
330
FA
100
AcDbEntity
  8
OracDecor_cornice_mouldings
 62
   136
420
   427889
100
AcDbVertex
100
AcDb2dVertex
 10
-254.7746887207031
 20
-1.742050051689147
 30
0.0000284817033389
  0
VERTEX
  5
148
330
FA
100
AcDbEntity
  8
OracDecor_cornice_mouldings
 62
   136
420
   427889
100
AcDbVertex
100
AcDb2dVertex
 10
-255.21826171875
 20
-0.7908629775047303
 30
0.0000284817033389
  0
VERTEX
  5
149
330
FA
100
AcDbEntity
  8
OracDecor_cornice_mouldings
 62
   136
420
   427889
100
AcDbVertex
100
AcDb2dVertex
 10
-255.4697875976562
 20
-0.0000152271859406
 30
0.0000284817033389
  0
VERTEX
  5
14A
330
FA
100
AcDbEntity
  8
OracDecor_cornice_mouldings
 62
   136
420
   427889
100
AcDbVertex
100
AcDb2dVertex
 10
-265.9964599609375
 20
-0.0000463722026325
 30
0.0000284817033389
  0
VERTEX
  5
14B
330
FA
100
AcDbEntity
  8
OracDecor_cornice_mouldings
 62
   136
420
   427889
100
AcDbVertex
100
AcDb2dVertex
 10
-265.9964599609375
 20
-12.15683841705322
 30
0.0000284817033389
  0
VERTEX
  5
14C
330
FA
100
AcDbEntity
  8
OracDecor_cornice_mouldings
 62
   136
420
   427889
100
AcDbVertex
100
AcDb2dVertex
 10
-261.9270629882812
 20
-12.34342193603515
 30
0.0000284817033389
  0
VERTEX
  5
14D
330
FA
100
AcDbEntity
  8
OracDecor_cornice_mouldings
 62
   136
420
   427889
100
AcDbVertex
100
AcDb2dVertex
 10
-258.6205444335937
 20
-12.78835296630859
 30
0.0000284817033389
  0
VERTEX
  5
14E
330
FA
100
AcDbEntity
  8
OracDecor_cornice_mouldings
 62
   136
420
   427889
100
AcDbVertex
100
AcDb2dVertex
 10
-256.9058532714844
 20
-13.2018814086914
 30
0.0000284817033389
  0
VERTEX
  5
14F
330
FA
100
AcDbEntity
  8
OracDecor_cornice_mouldings
 62
   136
420
   427889
100
AcDbVertex
100
AcDb2dVertex
 10
-255.3950500488281
 20
-13.70990753173828
 30
0.0000284817033389
  0
VERTEX
  5
150
330
FA
100
AcDbEntity
  8
OracDecor_cornice_mouldings
 62
   136
420
   427889
100
AcDbVertex
100
AcDb2dVertex
 10
-253.6726684570313
 20
-14.5478515625
 30
0.0000284817033389
  0
VERTEX
  5
151
330
FA
100
AcDbEntity
  8
OracDecor_cornice_mouldings
 62
   136
420
   427889
100
AcDbVertex
100
AcDb2dVertex
 10
-252.3418579101563
 20
-15.44798278808594
 30
0.0000284817033389
  0
VERTEX
  5
152
330
FA
100
AcDbEntity
  8
OracDecor_cornice_mouldings
 62
   136
420
   427889
100
AcDbVertex
100
AcDb2dVertex
 10
-251.0884399414063
 20
-16.740966796875
 30
0.0000284817033389
  0
VERTEX
  5
153
330
FA
100
AcDbEntity
  8
OracDecor_cornice_mouldings
 62
   136
420
   427889
100
AcDbVertex
100
AcDb2dVertex
 10
-249.9874572753906
 20
-18.95634460449219
 30
0.0000284817033389
  0
VERTEX
  5
154
330
FA
100
AcDbEntity
  8
OracDecor_cornice_mouldings
 62
   136
420
   427889
100
AcDbVertex
100
AcDb2dVertex
 10
-249.5387573242187
 20
-21.69856262207031
 30
0.0000284817033389
  0
VERTEX
  5
155
330
FA
100
AcDbEntity
  8
OracDecor_cornice_mouldings
 62
   136
420
   427889
100
AcDbVertex
100
AcDb2dVertex
 10
-245.9212036132813
 20
-21.69856262207031
 30
0.0000284817033389
  0
VERTEX
  5
156
330
FA
100
AcDbEntity
  8
OracDecor_cornice_mouldings
 62
   136
420
   427889
100
AcDbVertex
100
AcDb2dVertex
 10
-246.3771362304687
 20
-24.77280426025391
 30
0.0000284817033389
  0
VERTEX
  5
157
330
FA
100
AcDbEntity
  8
OracDecor_cornice_mouldings
 62
   136
420
   427889
100
AcDbVertex
100
AcDb2dVertex
 10
-246.0422058105469
 20
-27.86195373535156
 30
0.0000284817033389
  0
VERTEX
  5
158
330
FA
100
AcDbEntity
  8
OracDecor_cornice_mouldings
 62
   136
420
   427889
100
AcDbVertex
100
AcDb2dVertex
 10
-244.9372863769531
 20
-30.77367401123047
 30
0.0000284817033389
  0
VERTEX
  5
159
330
FA
100
AcDbEntity
  8
OracDecor_cornice_mouldings
 62
   136
420
   427889
100
AcDbVertex
100
AcDb2dVertex
 10
-243.1311950683594
 20
-33.32667541503906
 30
0.0000284817033389
  0
VERTEX
  5
15A
330
FA
100
AcDbEntity
  8
OracDecor_cornice_mouldings
 62
   136
420
   427889
100
AcDbVertex
100
AcDb2dVertex
 10
-240.7363586425781
 20
-35.36199951171875
 30
0.0000284817033389
  0
VERTEX
  5
15B
330
FA
100
AcDbEntity
  8
OracDecor_cornice_mouldings
 62
   136
420
   427889
100
AcDbVertex
100
AcDb2dVertex
 10
-237.9018859863281
 20
-36.75291442871094
 30
0.0000284817033389
  0
VERTEX
  5
15C
330
FA
100
AcDbEntity
  8
OracDecor_cornice_mouldings
 62
   136
420
   427889
100
AcDbVertex
100
AcDb2dVertex
 10
-234.8042602539063
 20
-37.41282653808594
 30
0.0000284817033389
  0
VERTEX
  5
15D
330
FA
100
AcDbEntity
  8
OracDecor_cornice_mouldings
 62
   136
420
   427889
100
AcDbVertex
100
AcDb2dVertex
 10
-231.8064270019531
 20
-37.36604309082031
 30
0.0000284817033389
  0
VERTEX
  5
15E
330
FA
100
AcDbEntity
  8
OracDecor_cornice_mouldings
 62
   136
420
   427889
100
AcDbVertex
100
AcDb2dVertex
 10
-228.8844604492187
 20
-36.70852661132812
 30
0.0000284817033389
  0
VERTEX
  5
15F
330
FA
100
AcDbEntity
  8
OracDecor_cornice_mouldings
 62
   136
420
   427889
100
AcDbVertex
100
AcDb2dVertex
 10
-226.166259765625
 20
-35.46916198730469
 30
0.0000284817033389
  0
VERTEX
  5
160
330
FA
100
AcDbEntity
  8
OracDecor_cornice_mouldings
 62
   136
420
   427889
100
AcDbVertex
100
AcDb2dVertex
 10
-223.7708435058594
 20
-33.70212936401367
 30
0.0000284817033389
  0
VERTEX
  5
161
330
FA
100
AcDbEntity
  8
OracDecor_cornice_mouldings
 62
   136
420
   427889
100
AcDbVertex
100
AcDb2dVertex
 10
-214.3051147460937
 20
-25.05785942077637
 30
0.0000284817033389
  0
VERTEX
  5
162
330
FA
100
AcDbEntity
  8
OracDecor_cornice_mouldings
 62
   136
420
   427889
100
AcDbVertex
100
AcDb2dVertex
 10
-213.6846008300781
 20
-24.66882133483887
 30
0.0000284817033389
  0
VERTEX
  5
163
330
FA
100
AcDbEntity
  8
OracDecor_cornice_mouldings
 62
   136
420
   427889
100
AcDbVertex
100
AcDb2dVertex
 10
-212.9637451171875
 20
-24.52033805847168
 30
0.0000284817033389
  0
VERTEX
  5
164
330
FA
100
AcDbEntity
  8
OracDecor_cornice_mouldings
 62
   136
420
   427889
100
AcDbVertex
100
AcDb2dVertex
 10
-212.2359313964844
 20
-24.63163566589356
 30
0.0000284817033389
  0
VERTEX
  5
165
330
FA
100
AcDbEntity
  8
OracDecor_cornice_mouldings
 62
   136
420
   427889
100
AcDbVertex
100
AcDb2dVertex
 10
-194.8280639648437
 20
-31.91100692749023
 30
0.0000284817033389
  0
VERTEX
  5
166
330
FA
100
AcDbEntity
  8
OracDecor_cornice_mouldings
 62
   136
420
   427889
100
AcDbVertex
100
AcDb2dVertex
 10
-184.1749725341797
 20
-37.2260856628418
 30
0.0000284817033389
  0
VERTEX
  5
167
330
FA
100
AcDbEntity
  8
OracDecor_cornice_mouldings
 62
   136
420
   427889
100
AcDbVertex
100
AcDb2dVertex
 10
-173.08544921875
 20
-43.71622848510742
 30
0.0000284817033389
  0
VERTEX
  5
168
330
FA
100
AcDbEntity
  8
OracDecor_cornice_mouldings
 62
   136
420
   427889
100
AcDbVertex
100
AcDb2dVertex
 10
-163.2365112304687
 20
-50.40433883666992
 30
0.0000284817033389
  0
VERTEX
  5
169
330
FA
100
AcDbEntity
  8
OracDecor_cornice_mouldings
 62
   136
420
   427889
100
AcDbVertex
100
AcDb2dVertex
 10
-153.1633758544922
 20
-58.28000640869141
 30
0.0000284817033389
  0
VERTEX
  5
16A
330
FA
100
AcDbEntity
  8
OracDecor_cornice_mouldings
 62
   136
420
   427889
100
AcDbVertex
100
AcDb2dVertex
 10
-144.2998352050781
 20
-66.22754669189453
 30
0.0000284817033389
  0
VERTEX
  5
16B
330
FA
100
AcDbEntity
  8
OracDecor_cornice_mouldings
 62
   136
420
   427889
100
AcDbVertex
100
AcDb2dVertex
 10
-134.5569763183593
 20
-76.22614288330078
 30
0.0000284817033389
  0
VERTEX
  5
16C
330
FA
100
AcDbEntity
  8
OracDecor_cornice_mouldings
 62
   136
420
   427889
100
AcDbVertex
100
AcDb2dVertex
 10
-128.426528930664
 20
-83.39122772216796
 30
0.0000284817033389
  0
VERTEX
  5
16D
330
FA
100
AcDbEntity
  8
OracDecor_cornice_mouldings
 62
   136
420
   427889
100
AcDbVertex
100
AcDb2dVertex
 10
-122.7164764404297
 20
-91.01216125488281
 30
0.0000284817033389
  0
VERTEX
  5
16E
330
FA
100
AcDbEntity
  8
OracDecor_cornice_mouldings
 62
   136
420
   427889
100
AcDbVertex
100
AcDb2dVertex
 10
-117.5395355224609
 20
-98.89575195312501
 30
0.0000284817033389
  0
VERTEX
  5
16F
330
FA
100
AcDbEntity
  8
OracDecor_cornice_mouldings
 62
   136
420
   427889
100
AcDbVertex
100
AcDb2dVertex
 10
-112.8370056152343
 20
-107.1264572143554
 30
0.0000284817033389
  0
VERTEX
  5
170
330
FA
100
AcDbEntity
  8
OracDecor_cornice_mouldings
 62
   136
420
   427889
100
AcDbVertex
100
AcDb2dVertex
 10
-108.6767196655273
 20
-115.5905532836914
 30
0.0000284817033389
  0
VERTEX
  5
171
330
FA
100
AcDbEntity
  8
OracDecor_cornice_mouldings
 62
   136
420
   427889
100
AcDbVertex
100
AcDb2dVertex
 10
-105.0467376708984
 20
-124.3070526123047
 30
0.0000284817033389
  0
VERTEX
  5
172
330
FA
100
AcDbEntity
  8
OracDecor_cornice_mouldings
 62
   136
420
   427889
100
AcDbVertex
100
AcDb2dVertex
 10
-101.971450805664
 20
-133.2227172851562
 30
0.0000284817033389
  0
VERTEX
  5
173
330
FA
100
AcDbEntity
  8
OracDecor_cornice_mouldings
 62
   136
420
   427889
100
AcDbVertex
100
AcDb2dVertex
 10
-99.46337127685547
 20
-142.2958526611328
 30
0.0000284817033389
  0
VERTEX
  5
174
330
FA
100
AcDbEntity
  8
OracDecor_cornice_mouldings
 62
   136
420
   427889
100
AcDbVertex
100
AcDb2dVertex
 10
-97.52430725097656
 20
-151.525405883789
 30
0.0000284817033389
  0
VERTEX
  5
175
330
FA
100
AcDbEntity
  8
OracDecor_cornice_mouldings
 62
   136
420
   427889
100
AcDbVertex
100
AcDb2dVertex
 10
-95.49159240722657
 20
-165.4980010986328
 30
0.0000284817033389
  0
VERTEX
  5
176
330
FA
100
AcDbEntity
  8
OracDecor_cornice_mouldings
 62
   136
420
   427889
100
AcDbVertex
100
AcDb2dVertex
 10
-83.9547882080078
 20
-165.4979705810547
 30
0.0000284817033389
  0
VERTEX
  5
177
330
FA
100
AcDbEntity
  8
OracDecor_cornice_mouldings
 62
   136
420
   427889
100
AcDbVertex
100
AcDb2dVertex
 10
-83.9547882080078
 20
-171.2328033447265
 30
0.0000284817033389
  0
VERTEX
  5
178
330
FA
100
AcDbEntity
  8
OracDecor_cornice_mouldings
 62
   136
420
   427889
100
AcDbVertex
100
AcDb2dVertex
 10
-79.58917236328125
 20
-171.2328033447265
 30
0.0000284817033389
  0
VERTEX
  5
179
330
FA
100
AcDbEntity
  8
OracDecor_cornice_mouldings
 62
   136
420
   427889
100
AcDbVertex
100
AcDb2dVertex
 10
-74.15374755859375
 20
-171.848892211914
 30
0.0000284817033389
  0
VERTEX
  5
17A
330
FA
100
AcDbEntity
  8
OracDecor_cornice_mouldings
 62
   136
420
   427889
100
AcDbVertex
100
AcDb2dVertex
 10
-69.00506591796875
 20
-173.6647186279297
 30
0.0000284817033389
  0
VERTEX
  5
17B
330
FA
100
AcDbEntity
  8
OracDecor_cornice_mouldings
 62
   136
420
   427889
100
AcDbVertex
100
AcDb2dVertex
 10
-64.41536712646485
 20
-176.5843353271484
 30
0.0000284817033389
  0
VERTEX
  5
17C
330
FA
100
AcDbEntity
  8
OracDecor_cornice_mouldings
 62
   136
420
   427889
100
AcDbVertex
100
AcDb2dVertex
 10
-60.62710952758789
 20
-180.453369140625
 30
0.0000284817033389
  0
VERTEX
  5
17D
330
FA
100
AcDbEntity
  8
OracDecor_cornice_mouldings
 62
   136
420
   427889
100
AcDbVertex
100
AcDb2dVertex
 10
-57.83992004394531
 20
-185.0679321289062
 30
0.0000284817033389
  0
VERTEX
  5
17E
330
FA
100
AcDbEntity
  8
OracDecor_cornice_mouldings
 62
   136
420
   427889
100
AcDbVertex
100
AcDb2dVertex
 10
-56.20117568969726
 20
-190.1842651367187
 30
0.0000284817033389
  0
VERTEX
  5
17F
330
FA
100
AcDbEntity
  8
OracDecor_cornice_mouldings
 62
   136
420
   427889
100
AcDbVertex
100
AcDb2dVertex
 10
-55.79745864868164
 20
-195.5318298339843
 30
0.0000284817033389
  0
VERTEX
  5
180
330
FA
100
AcDbEntity
  8
OracDecor_cornice_mouldings
 62
   136
420
   427889
100
AcDbVertex
100
AcDb2dVertex
 10
-47.28556823730468
 20
-195.5318298339843
 30
0.0000284817033389
  0
VERTEX
  5
181
330
FA
100
AcDbEntity
  8
OracDecor_cornice_mouldings
 62
   136
420
   427889
100
AcDbVertex
100
AcDb2dVertex
 10
-47.28556060791015
 20
-205.3331909179687
 30
0.0000284817033389
  0
VERTEX
  5
182
330
FA
100
AcDbEntity
  8
OracDecor_cornice_mouldings
 62
   136
420
   427889
100
AcDbVertex
100
AcDb2dVertex
 10
-48.81397247314453
 20
-207.3069763183594
 30
0.0000284817033389
  0
VERTEX
  5
183
330
FA
100
AcDbEntity
  8
OracDecor_cornice_mouldings
 62
   136
420
   427889
100
AcDbVertex
100
AcDb2dVertex
 10
-50.49490356445312
 20
-210.1677093505859
 30
0.0000284817033389
  0
VERTEX
  5
184
330
FA
100
AcDbEntity
  8
OracDecor_cornice_mouldings
 62
   136
420
   427889
100
AcDbVertex
100
AcDb2dVertex
 10
-51.71440887451172
 20
-213.2449645996094
 30
0.0000284817033389
  0
VERTEX
  5
185
330
FA
100
AcDbEntity
  8
OracDecor_cornice_mouldings
 62
   136
420
   427889
100
AcDbVertex
100
AcDb2dVertex
 10
-52.44434356689453
 20
-216.4677429199219
 30
0.0000284817033389
  0
VERTEX
  5
186
330
FA
100
AcDbEntity
  8
OracDecor_cornice_mouldings
 62
   136
420
   427889
100
AcDbVertex
100
AcDb2dVertex
 10
-52.66782379150391
 20
-219.7617034912109
 30
0.0000284817033389
  0
VERTEX
  5
187
330
FA
100
AcDbEntity
  8
OracDecor_cornice_mouldings
 62
   136
420
   427889
100
AcDbVertex
100
AcDb2dVertex
 10
-52.37972259521484
 20
-223.0507965087891
 30
0.0000284817033389
  0
VERTEX
  5
188
330
FA
100
AcDbEntity
  8
OracDecor_cornice_mouldings
 62
   136
420
   427889
100
AcDbVertex
100
AcDb2dVertex
 10
-51.5866928100586
 20
-226.2591857910156
 30
0.0000284817033389
  0
VERTEX
  5
189
330
FA
100
AcDbEntity
  8
OracDecor_cornice_mouldings
 62
   136
420
   427889
100
AcDbVertex
100
AcDb2dVertex
 10
-50.30704498291015
 20
-229.3128204345703
 30
0.0000284817033389
  0
VERTEX
  5
18A
330
FA
100
AcDbEntity
  8
OracDecor_cornice_mouldings
 62
   136
420
   427889
100
AcDbVertex
100
AcDb2dVertex
 10
-48.5703353881836
 20
-232.1412353515625
 30
0.0000284817033389
  0
VERTEX
  5
18B
330
FA
100
AcDbEntity
  8
OracDecor_cornice_mouldings
 62
   136
420
   427889
100
AcDbVertex
100
AcDb2dVertex
 10
-46.41654205322265
 20
-234.6793823242188
 30
0.0000284817033389
  0
VERTEX
  5
18C
330
FA
100
AcDbEntity
  8
OracDecor_cornice_mouldings
 62
   136
420
   427889
100
AcDbVertex
100
AcDb2dVertex
 10
-43.89532470703125
 20
-236.8686676025391
 30
0.0000284817033389
  0
VERTEX
  5
18D
330
FA
100
AcDbEntity
  8
OracDecor_cornice_mouldings
 62
   136
420
   427889
100
AcDbVertex
100
AcDb2dVertex
 10
-41.06484222412109
 20
-238.6585540771484
 30
0.0000284817033389
  0
VERTEX
  5
18E
330
FA
100
AcDbEntity
  8
OracDecor_cornice_mouldings
 62
   136
420
   427889
100
AcDbVertex
100
AcDb2dVertex
 10
-37.99037933349609
 20
-240.0077362060547
 30
0.0000284817033389
  0
VERTEX
  5
18F
330
FA
100
AcDbEntity
  8
OracDecor_cornice_mouldings
 62
   136
420
   427889
100
AcDbVertex
100
AcDb2dVertex
 10
-34.74289703369141
 20
-240.8851013183594
 30
0.0000284817033389
  0
VERTEX
  5
190
330
FA
100
AcDbEntity
  8
OracDecor_cornice_mouldings
 62
   136
420
   427889
100
AcDbVertex
100
AcDb2dVertex
 10
-31.39735412597656
 20
-241.2703704833984
 30
0.0000284817033389
  0
VERTEX
  5
191
330
FA
100
AcDbEntity
  8
OracDecor_cornice_mouldings
 62
   136
420
   427889
100
AcDbVertex
100
AcDb2dVertex
 10
-28.03090667724609
 20
-241.1547088623047
 30
0.0000284817033389
  0
VERTEX
  5
192
330
FA
100
AcDbEntity
  8
OracDecor_cornice_mouldings
 62
   136
420
   427889
100
AcDbVertex
100
AcDb2dVertex
 10
-25.53556060791016
 20
-240.7557067871094
 30
0.0000284817033389
  0
SEQEND
  5
193
330
FA
100
AcDbEntity
  8
OracDecor_cornice_mouldings
 62
   136
420
   427889
  0
ENDSEC
  0
SECTION
  2
OBJECTS
  0
DICTIONARY
  5
C
330
0
100
AcDbDictionary
281
     1
  3
ACAD_COLOR
350
DC
  3
ACAD_DETAILVIEWSTYLE
350
F5
  3
ACAD_GROUP
350
D
  3
ACAD_LAYOUT
350
1A
  3
ACAD_MATERIAL
350
AA
  3
ACAD_MLEADERSTYLE
350
F1
  3
ACAD_MLINESTYLE
350
17
  3
ACAD_PLOTSETTINGS
350
19
  3
ACAD_PLOTSTYLENAME
350
E
  3
ACAD_SCALELIST
350
DF
  3
ACAD_SECTIONVIEWSTYLE
350
F3
  3
ACAD_TABLESTYLE
350
DD
  3
ACAD_VISUALSTYLE
350
C3
  3
ACDB_RECOMPOSE_DATA
350
1A0
  3
AcDbVariableDictionary
350
194
  0
DICTIONARY
  5
DC
102
{ACAD_REACTORS
330
C
102
}
330
C
100
AcDbDictionary
281
     1
  0
DICTIONARY
  5
F5
102
{ACAD_REACTORS
330
C
102
}
330
C
100
AcDbDictionary
281
     1
  3
Imperial24
350
F6
  0
DICTIONARY
  5
D
102
{ACAD_REACTORS
330
C
102
}
330
C
100
AcDbDictionary
281
     1
  0
DICTIONARY
  5
1A
102
{ACAD_REACTORS
330
C
102
}
330
C
100
AcDbDictionary
281
     1
  3
Layout1
350
1E
  3
Layout2
350
26
  3
Model
350
22
  0
DICTIONARY
  5
AA
102
{ACAD_REACTORS
330
C
102
}
330
C
100
AcDbDictionary
281
     1
  3
ByBlock
350
B3
  3
ByLayer
350
AB
  3
Global
350
BB
  0
DICTIONARY
  5
F1
102
{ACAD_REACTORS
330
C
102
}
330
C
100
AcDbDictionary
281
     1
  3
Standard
350
F2
  0
DICTIONARY
  5
17
102
{ACAD_REACTORS
330
C
102
}
330
C
100
AcDbDictionary
281
     1
  3
Standard
350
18
  0
DICTIONARY
  5
19
102
{ACAD_REACTORS
330
C
102
}
330
C
100
AcDbDictionary
281
     1
  0
ACDBDICTIONARYWDFLT
  5
E
102
{ACAD_REACTORS
330
C
102
}
330
C
100
AcDbDictionary
281
     1
  3
ByLayer
350
2D
  3
Normal
350
F
100
AcDbDictionaryWithDefault
340
F
  0
DICTIONARY
  5
DF
102
{ACAD_REACTORS
330
C
102
}
330
C
100
AcDbDictionary
281
     1
  3
A0
350
E0
  3
A1
350
E1
  3
A2
350
E2
  3
A3
350
E3
  3
A4
350
E4
  3
A5
350
E5
  3
A6
350
E6
  3
A7
350
E7
  3
A8
350
E8
  3
A9
350
E9
  3
B0
350
EA
  3
B1
350
EB
  3
B2
350
EC
  3
B3
350
ED
  3
B4
350
EE
  3
B5
350
EF
  3
B6
350
F0
  0
DICTIONARY
  5
F3
102
{ACAD_REACTORS
330
C
102
}
330
C
100
AcDbDictionary
281
     1
  3
Imperial24
350
F4
  0
DICTIONARY
  5
DD
102
{ACAD_REACTORS
330
C
102
}
330
C
100
AcDbDictionary
281
     1
  3
Standard
350
DE
  0
DICTIONARY
  5
C3
102
{ACAD_REACTORS
330
C
102
}
330
C
100
AcDbDictionary
281
     1
  3
2dWireframe
350
C9
  3
Basic
350
C8
  3
Brighten
350
CF
  3
ColorChange
350
D3
  3
Conceptual
350
CC
  3
Dim
350
CE
  3
EdgeColorOff
350
DB
  3
Facepattern
350
D2
  3
Flat
350
C4
  3
FlatWithEdges
350
C5
  3
Gouraud
350
C6
  3
GouraudWithEdges
350
C7
  3
Hidden
350
CB
  3
JitterOff
350
D9
  3
Linepattern
350
D1
  3
OverhangOff
350
DA
  3
Realistic
350
CD
  3
Shaded
350
D8
  3
Shaded with edges
350
D7
  3
Shades of Gray
350
D4
  3
Sketchy
350
D5
  3
Thicken
350
D0
  3
Wireframe
350
CA
  3
X-Ray
350
D6
  0
XRECORD
  5
1A0
102
{ACAD_REACTORS
330
C
102
}
330
C
100
AcDbXrecord
280
     1
 90
        1
330
DE
  0
DICTIONARY
  5
194
102
{ACAD_REACTORS
330
C
102
}
330
C
100
AcDbDictionary
281
     1
  3
CANNOSCALE
350
19A
  3
CMLEADERSTYLE
350
196
  3
CTABLESTYLE
350
195
  3
CVIEWDETAILSTYLE
350
197
  3
CVIEWSECTIONSTYLE
350
198
  3
LAYEREVAL
350
19C
  3
LAYERNOTIFY
350
19D
  3
LIGHTINGUNITS
350
19B
  3
MSLTSCALE
350
199
  0
ACDBDETAILVIEWSTYLE
  5
F6
102
{ACAD_XDICTIONARY
360
1D5
102
}
102
{ACAD_REACTORS
330
F5
102
}
330
F5
100
AcDbModelDocViewStyle
 70
     0
  3
Imperial24
290
     0
100
AcDbDetailViewStyle
 70
     0
 71
     0
 90
        3
 71
     1
340
11
 62
   256
 40
0.24
340
0
 62
   256
 40
0.24
300

 40
0.36
280
     3
 71
     2
340
16
 90
       25
 62
   256
 71
     3
340
11
 62
   256
 40
0.24
 90
        1
 40
0.75
 90
        1
300
%<\AcVar ViewType \f "%tc1">% %<\AcVar ViewDetailId>%\PSCALE %<\AcVar ViewScale \f "%sn">%
 71
     4
340
16
 90
       25
 62
   256
340
16
 90
       25
 62
   256
280
     0
  0
LAYOUT
  5
1E
102
{ACAD_REACTORS
330
1A
102
}
330
1A
100
AcDbPlotSettings
  1

  2
\\KTXNTBDC\CASF2PN1
  4

  6

 40
0.0
 41
0.0
 42
0.0
 43
0.0
 44
0.0
 45
0.0
 46
0.0
 47
0.0
 48
0.0
 49
0.0
140
0.0
141
0.0
142
1.0
143
1.0
 70
   688
 72
     0
 73
     0
 74
     5
  7

 75
    16
147
1.0
 76
     0
 77
     2
 78
   300
148
0.0
149
0.0
100
AcDbLayout
  1
Layout1
 70
     1
 71
     1
 10
0.0
 20
0.0
 11
12.0
 21
9.0
 12
0.0
 22
0.0
 32
0.0
 14
1.000000000000000E+20
 24
1.000000000000000E+20
 34
1.000000000000000E+20
 15
-1.000000000000000E+20
 25
-1.000000000000000E+20
 35
-1.000000000000000E+20
146
0.0
 13
0.0
 23
0.0
 33
0.0
 16
1.0
 26
0.0
 36
0.0
 17
0.0
 27
1.0
 37
0.0
 76
     0
330
1B
  0
LAYOUT
  5
26
102
{ACAD_REACTORS
330
1A
102
}
330
1A
100
AcDbPlotSettings
  1

  2
\\KTXNTBDC\CASF2PN1
  4

  6

 40
0.0
 41
0.0
 42
0.0
 43
0.0
 44
0.0
 45
0.0
 46
0.0
 47
0.0
 48
0.0
 49
0.0
140
0.0
141
0.0
142
1.0
143
1.0
 70
   688
 72
     0
 73
     0
 74
     5
  7

 75
    16
147
1.0
 76
     0
 77
     2
 78
   300
148
0.0
149
0.0
100
AcDbLayout
  1
Layout2
 70
     1
 71
     2
 10
0.0
 20
0.0
 11
12.0
 21
9.0
 12
0.0
 22
0.0
 32
0.0
 14
0.0
 24
0.0
 34
0.0
 15
0.0
 25
0.0
 35
0.0
146
0.0
 13
0.0
 23
0.0
 33
0.0
 16
1.0
 26
0.0
 36
0.0
 17
0.0
 27
1.0
 37
0.0
 76
     0
330
23
  0
LAYOUT
  5
22
102
{ACAD_REACTORS
330
1A
102
}
330
1A
100
AcDbPlotSettings
  1

  2
\\KTXNTBDC\CASF2PN1
  4

  6

 40
0.0
 41
0.0
 42
0.0
 43
0.0
 44
0.0
 45
0.0
 46
0.0
 47
0.0
 48
0.0
 49
0.0
140
0.0
141
0.0
142
1.0
143
1.0
 70
  1712
 72
     0
 73
     0
 74
     0
  7

 75
     0
147
1.0
 76
     0
 77
     2
 78
   300
148
0.0
149
0.0
100
AcDbLayout
  1
Model
 70
     1
 71
     0
 10
0.0
 20
0.0
 11
12.0
 21
9.0
 12
0.0
 22
0.0
 32
0.0
 14
0.0
 24
0.0
 34
0.0
 15
0.0
 25
0.0
 35
0.0
146
0.0
 13
0.0
 23
0.0
 33
0.0
 16
1.0
 26
0.0
 36
0.0
 17
0.0
 27
1.0
 37
0.0
 76
     0
330
1F
  0
MATERIAL
  5
B3
102
{ACAD_XDICTIONARY
360
B4
102
}
102
{ACAD_REACTORS
330
AA
102
}
330
AA
100
AcDbMaterial
  1
ByBlock
 72
     0
 43
0.0208333333333333
 43
0.0
 43
0.0
 43
0.0
 43
0.0
 43
0.0208333333333333
 43
0.0
 43
0.0
 43
0.0
 43
0.0
 43
1.0
 43
0.0
 43
0.0
 43
0.0
 43
0.0
 43
1.0
 77
     0
 47
0.0208333333333333
 47
0.0
 47
0.0
 47
0.0
 47
0.0
 47
0.0208333333333333
 47
0.0
 47
0.0
 47
0.0
 47
0.0
 47
1.0
 47
0.0
 47
0.0
 47
0.0
 47
0.0
 47
1.0
171
     0
 49
0.0208333333333333
 49
0.0
 49
0.0
 49
0.0
 49
0.0
 49
0.0208333333333333
 49
0.0
 49
0.0
 49
0.0
 49
0.0
 49
1.0
 49
0.0
 49
0.0
 49
0.0
 49
0.0
 49
1.0
175
     0
142
0.0208333333333333
142
0.0
142
0.0
142
0.0
142
0.0
142
0.0208333333333333
142
0.0
142
0.0
142
0.0
142
0.0
142
1.0
142
0.0
142
0.0
142
0.0
142
0.0
142
1.0
179
     0
144
0.0208333333333333
144
0.0
144
0.0
144
0.0
144
0.0
144
0.0208333333333333
144
0.0
144
0.0
144
0.0
144
0.0
144
1.0
144
0.0
144
0.0
144
0.0
144
0.0
144
1.0
147
0.0208333333333333
147
0.0
147
0.0
147
0.0
147
0.0
147
0.0208333333333333
147
0.0
147
0.0
147
0.0
147
0.0
147
1.0
147
0.0
147
0.0
147
0.0
147
0.0
147
1.0
  0
MATERIAL
  5
AB
102
{ACAD_XDICTIONARY
360
AC
102
}
102
{ACAD_REACTORS
330
AA
102
}
330
AA
100
AcDbMaterial
  1
ByLayer
 72
     0
 43
0.0208333333333333
 43
0.0
 43
0.0
 43
0.0
 43
0.0
 43
0.0208333333333333
 43
0.0
 43
0.0
 43
0.0
 43
0.0
 43
1.0
 43
0.0
 43
0.0
 43
0.0
 43
0.0
 43
1.0
 77
     0
 47
0.0208333333333333
 47
0.0
 47
0.0
 47
0.0
 47
0.0
 47
0.0208333333333333
 47
0.0
 47
0.0
 47
0.0
 47
0.0
 47
1.0
 47
0.0
 47
0.0
 47
0.0
 47
0.0
 47
1.0
171
     0
 49
0.0208333333333333
 49
0.0
 49
0.0
 49
0.0
 49
0.0
 49
0.0208333333333333
 49
0.0
 49
0.0
 49
0.0
 49
0.0
 49
1.0
 49
0.0
 49
0.0
 49
0.0
 49
0.0
 49
1.0
175
     0
142
0.0208333333333333
142
0.0
142
0.0
142
0.0
142
0.0
142
0.0208333333333333
142
0.0
142
0.0
142
0.0
142
0.0
142
1.0
142
0.0
142
0.0
142
0.0
142
0.0
142
1.0
179
     0
144
0.0208333333333333
144
0.0
144
0.0
144
0.0
144
0.0
144
0.0208333333333333
144
0.0
144
0.0
144
0.0
144
0.0
144
1.0
144
0.0
144
0.0
144
0.0
144
0.0
144
1.0
147
0.0208333333333333
147
0.0
147
0.0
147
0.0
147
0.0
147
0.0208333333333333
147
0.0
147
0.0
147
0.0
147
0.0
147
1.0
147
0.0
147
0.0
147
0.0
147
0.0
147
1.0
  0
MATERIAL
  5
BB
102
{ACAD_XDICTIONARY
360
BC
102
}
102
{ACAD_REACTORS
330
AA
102
}
330
AA
100
AcDbMaterial
  1
Global
 72
     0
 43
0.0208333333333333
 43
0.0
 43
0.0
 43
0.0
 43
0.0
 43
0.0208333333333333
 43
0.0
 43
0.0
 43
0.0
 43
0.0
 43
1.0
 43
0.0
 43
0.0
 43
0.0
 43
0.0
 43
1.0
 77
     0
 47
0.0208333333333333
 47
0.0
 47
0.0
 47
0.0
 47
0.0
 47
0.0208333333333333
 47
0.0
 47
0.0
 47
0.0
 47
0.0
 47
1.0
 47
0.0
 47
0.0
 47
0.0
 47
0.0
 47
1.0
171
     0
 49
0.0208333333333333
 49
0.0
 49
0.0
 49
0.0
 49
0.0
 49
0.0208333333333333
 49
0.0
 49
0.0
 49
0.0
 49
0.0
 49
1.0
 49
0.0
 49
0.0
 49
0.0
 49
0.0
 49
1.0
175
     0
142
0.0208333333333333
142
0.0
142
0.0
142
0.0
142
0.0
142
0.0208333333333333
142
0.0
142
0.0
142
0.0
142
0.0
142
1.0
142
0.0
142
0.0
142
0.0
142
0.0
142
1.0
179
     0
144
0.0208333333333333
144
0.0
144
0.0
144
0.0
144
0.0
144
0.0208333333333333
144
0.0
144
0.0
144
0.0
144
0.0
144
1.0
144
0.0
144
0.0
144
0.0
144
0.0
144
1.0
147
0.0208333333333333
147
0.0
147
0.0
147
0.0
147
0.0
147
0.0208333333333333
147
0.0
147
0.0
147
0.0
147
0.0
147
1.0
147
0.0
147
0.0
147
0.0
147
0.0
147
1.0
  0
MLEADERSTYLE
  5
F2
102
{ACAD_XDICTIONARY
360
1D1
102
}
102
{ACAD_REACTORS
330
F1
102
}
330
F1
100
AcDbMLeaderStyle
179
     2
170
     2
171
     1
172
     0
 90
        2
 40
0.0
 41
0.0
173
     1
 91
-1056964608
340
14
 92
       -2
290
     1
 42
0.09
291
     1
 43
0.36
  3
Standard
 44
0.18
300

342
11
174
     1
178
     6
175
     1
176
     0
 93
-1056964608
 45
0.18
292
     0
297
     0
 46
0.18
 94
-1056964608
 47
1.0
 49
1.0
140
1.0
293
     1
141
0.0
294
     1
177
     0
142
1.0
295
     0
296
     0
143
0.125
271
     0
272
     9
273
     9
  0
MLINESTYLE
  5
18
102
{ACAD_REACTORS
330
17
102
}
330
17
100
AcDbMlineStyle
  2
STANDARD
 70
     0
  3

 62
   256
 51
90.0
 52
90.0
 71
     2
 49
0.5
 62
   256
  6
BYLAYER
 49
-0.5
 62
   256
  6
BYLAYER
  0
ACDBPLACEHOLDER
  5
2D
102
{ACAD_REACTORS
330
E
102
}
330
E
  0
ACDBPLACEHOLDER
  5
F
102
{ACAD_REACTORS
330
E
102
}
330
E
  0
SCALE
  5
E0
102
{ACAD_REACTORS
330
DF
102
}
330
DF
100
AcDbScale
 70
     0
300
1:1
140
1.0
141
1.0
290
     1
  0
SCALE
  5
E1
102
{ACAD_REACTORS
330
DF
102
}
330
DF
100
AcDbScale
 70
     0
300
1/128" = 1'-0"
140
0.0078125
141
12.0
290
     0
  0
SCALE
  5
E2
102
{ACAD_REACTORS
330
DF
102
}
330
DF
100
AcDbScale
 70
     0
300
1/64" = 1'-0"
140
0.015625
141
12.0
290
     0
  0
SCALE
  5
E3
102
{ACAD_REACTORS
330
DF
102
}
330
DF
100
AcDbScale
 70
     0
300
1/32" = 1'-0"
140
0.03125
141
12.0
290
     0
  0
SCALE
  5
E4
102
{ACAD_REACTORS
330
DF
102
}
330
DF
100
AcDbScale
 70
     0
300
1/16" = 1'-0"
140
0.0625
141
12.0
290
     0
  0
SCALE
  5
E5
102
{ACAD_REACTORS
330
DF
102
}
330
DF
100
AcDbScale
 70
     0
300
3/32" = 1'-0"
140
0.09375
141
12.0
290
     0
  0
SCALE
  5
E6
102
{ACAD_REACTORS
330
DF
102
}
330
DF
100
AcDbScale
 70
     0
300
1/8" = 1'-0"
140
0.125
141
12.0
290
     0
  0
SCALE
  5
E7
102
{ACAD_REACTORS
330
DF
102
}
330
DF
100
AcDbScale
 70
     0
300
3/16" = 1'-0"
140
0.1875
141
12.0
290
     0
  0
SCALE
  5
E8
102
{ACAD_REACTORS
330
DF
102
}
330
DF
100
AcDbScale
 70
     0
300
1/4" = 1'-0"
140
0.25
141
12.0
290
     0
  0
SCALE
  5
E9
102
{ACAD_REACTORS
330
DF
102
}
330
DF
100
AcDbScale
 70
     0
300
3/8" = 1'-0"
140
0.375
141
12.0
290
     0
  0
SCALE
  5
EA
102
{ACAD_REACTORS
330
DF
102
}
330
DF
100
AcDbScale
 70
     0
300
1/2" = 1'-0"
140
0.5
141
12.0
290
     0
  0
SCALE
  5
EB
102
{ACAD_REACTORS
330
DF
102
}
330
DF
100
AcDbScale
 70
     0
300
3/4" = 1'-0"
140
0.75
141
12.0
290
     0
  0
SCALE
  5
EC
102
{ACAD_REACTORS
330
DF
102
}
330
DF
100
AcDbScale
 70
     0
300
1" = 1'-0"
140
1.0
141
12.0
290
     0
  0
SCALE
  5
ED
102
{ACAD_REACTORS
330
DF
102
}
330
DF
100
AcDbScale
 70
     0
300
1-1/2" = 1'-0"
140
1.5
141
12.0
290
     0
  0
SCALE
  5
EE
102
{ACAD_REACTORS
330
DF
102
}
330
DF
100
AcDbScale
 70
     0
300
3" = 1'-0"
140
3.0
141
12.0
290
     0
  0
SCALE
  5
EF
102
{ACAD_REACTORS
330
DF
102
}
330
DF
100
AcDbScale
 70
     0
300
6" = 1'-0"
140
6.0
141
12.0
290
     0
  0
SCALE
  5
F0
102
{ACAD_REACTORS
330
DF
102
}
330
DF
100
AcDbScale
 70
     0
300
1'-0" = 1'-0"
140
12.0
141
12.0
290
     0
  0
ACDBSECTIONVIEWSTYLE
  5
F4
102
{ACAD_XDICTIONARY
360
1D3
102
}
102
{ACAD_REACTORS
330
F3
102
}
330
F3
100
AcDbModelDocViewStyle
 70
     0
  3
Imperial24
290
     0
100
AcDbSectionViewStyle
 70
     0
 71
     0
 90
       78
 71
     1
340
11
 62
   256
 40
0.24
340
0
340
0
 62
   256
 40
0.24
300
I, O, Q, S, X, Z
 40
0.48
 90
        3
 40
0.18
 90
        1
 71
     2
340
16
 90
       25
 62
   256
340
16
 90
       50
 62
   256
 40
0.24
 40
0.0
 40
0.24
 71
     3
340
11
 62
   256
 40
0.24
 90
        1
 40
0.75
 90
        1
300
%<\AcVar ViewType \f "%tc1">% %<\AcVar ViewSectionStartId>%-%<\AcVar ViewSectionEndId>%\PSCALE %<\AcVar ViewScale \f "%sn">%
 71
     4
 62
   256
 62
   257
300
ANSI31
 40
1.0
 90
        0
290
     0
290
     0
 90
        6
 40
0.0
 40
1.570796326794896
 40
0.2617993877991494
 40
1.308996938995747
 40
-0.2617993877991494
 40
1.832595714594046
  0
TABLESTYLE
  5
DE
102
{ACAD_XDICTIONARY
360
19E
102
}
102
{ACAD_REACTORS
330
DD
102
}
330
DD
100
AcDbTableStyle
280
     0
  3
Standard
 70
     0
 71
     0
 40
0.06
 41
0.06
280
     0
281
     0
  7
Standard
140
0.18
170
     2
 62
     0
 63
     7
283
     0
 90
      512
 91
        0
  1

274
    -2
284
     1
 64
     0
275
    -2
285
     1
 65
     0
276
    -2
286
     1
 66
     0
277
    -2
287
     1
 67
     0
278
    -2
288
     1
 68
     0
279
    -2
289
     1
 69
     0
  7
Standard
140
0.25
170
     5
 62
     0
 63
     7
283
     0
 90
      512
 91
        0
  1

274
    -2
284
     1
 64
     0
275
    -2
285
     1
 65
     0
276
    -2
286
     1
 66
     0
277
    -2
287
     1
 67
     0
278
    -2
288
     1
 68
     0
279
    -2
289
     1
 69
     0
  7
Standard
140
0.18
170
     5
 62
     0
 63
     7
283
     0
 90
      512
 91
        0
  1

274
    -2
284
     1
 64
     0
275
    -2
285
     1
 65
     0
276
    -2
286
     1
 66
     0
277
    -2
287
     1
 67
     0
278
    -2
288
     1
 68
     0
279
    -2
289
     1
 69
     0
  0
VISUALSTYLE
  5
C9
102
{ACAD_XDICTIONARY
360
1AB
102
}
102
{ACAD_REACTORS
330
C3
102
}
330
C3
100
AcDbVisualStyle
  2
2dWireframe
 70
     4
177
     2
291
     0
 71
     0
176
     1
 72
     2
176
     1
 73
     0
176
     1
 90
        0
176
     1
 40
0.6
176
     1
 41
30.0
176
     1
 63
     7
421
 16777215
176
     1
 74
     1
176
     1
 91
        4
176
     1
 64
     7
176
     1
 65
   257
176
     1
 75
     1
176
     1
175
     1
176
     1
 42
1.0
176
     1
 92
        0
176
     1
 66
   257
176
     1
 43
1.0
176
     1
 76
     1
176
     1
 77
     6
176
     1
 78
     2
176
     1
 67
     7
176
     1
 79
     5
176
     1
170
     0
176
     1
171
     0
176
     1
290
     0
176
     1
 93
        1
176
     1
 44
0.0
176
     1
173
     0
176
     1
1001
ACAD
1000
AcDbSavedByObjectVersion
1070
     0
  0
VISUALSTYLE
  5
C8
102
{ACAD_XDICTIONARY
360
1A9
102
}
102
{ACAD_REACTORS
330
C3
102
}
330
C3
100
AcDbVisualStyle
  2
Basic
 70
     7
177
     2
291
     1
 71
     1
176
     1
 72
     0
176
     1
 73
     1
176
     1
 90
        0
176
     1
 40
0.6
176
     1
 41
30.0
176
     1
 63
     7
421
 16777215
176
     1
 74
     0
176
     1
 91
        4
176
     1
 64
     7
176
     1
 65
   257
176
     1
 75
     1
176
     1
175
     1
176
     1
 42
1.0
176
     1
 92
        8
176
     1
 66
     7
176
     1
 43
1.0
176
     1
 76
     1
176
     1
 77
     6
176
     1
 78
     2
176
     1
 67
     7
176
     1
 79
     5
176
     1
170
     0
176
     1
171
     0
176
     1
290
     0
176
     1
 93
        1
176
     1
 44
0.0
176
     1
173
     0
176
     1
1001
ACAD
1000
AcDbSavedByObjectVersion
1070
     0
  0
VISUALSTYLE
  5
CF
102
{ACAD_XDICTIONARY
360
1B7
102
}
102
{ACAD_REACTORS
330
C3
102
}
330
C3
100
AcDbVisualStyle
  2
Brighten
 70
    12
177
     2
291
     1
 71
     2
176
     1
 72
     2
176
     1
 73
     0
176
     1
 90
        0
176
     1
 40
0.6
176
     1
 41
30.0
176
     1
 63
     7
421
 16777215
176
     1
 74
     1
176
     1
 91
        4
176
     1
 64
     7
176
     1
 65
   257
176
     1
 75
     1
176
     1
175
     1
176
     1
 42
1.0
176
     1
 92
        8
176
     1
 66
     7
176
     1
 43
1.0
176
     1
 76
     1
176
     1
 77
     6
176
     1
 78
     2
176
     1
 67
     7
176
     1
 79
     5
176
     1
170
     0
176
     1
171
     0
176
     1
290
     0
176
     1
 93
        1
176
     1
 44
50.0
176
     1
173
     0
176
     1
1001
ACAD
1000
AcDbSavedByObjectVersion
1070
     0
  0
VISUALSTYLE
  5
D3
102
{ACAD_XDICTIONARY
360
1BF
102
}
102
{ACAD_REACTORS
330
C3
102
}
330
C3
100
AcDbVisualStyle
  2
ColorChange
 70
    16
177
     2
291
     1
 71
     2
176
     1
 72
     2
176
     1
 73
     3
176
     1
 90
        0
176
     1
 40
0.6
176
     1
 41
30.0
176
     1
 63
     8
421
  8421504
176
     1
 74
     1
176
     1
 91
        4
176
     1
 64
     7
176
     1
 65
   257
176
     1
 75
     1
176
     1
175
     1
176
     1
 42
1.0
176
     1
 92
        8
176
     1
 66
     8
424
  8421504
176
     1
 43
1.0
176
     1
 76
     1
176
     1
 77
     6
176
     1
 78
     2
176
     1
 67
     7
176
     1
 79
     5
176
     1
170
     0
176
     1
171
     0
176
     1
290
     0
176
     1
 93
        1
176
     1
 44
0.0
176
     1
173
     0
176
     1
1001
ACAD
1000
AcDbSavedByObjectVersion
1070
     0
  0
VISUALSTYLE
  5
CC
102
{ACAD_XDICTIONARY
360
1B1
102
}
102
{ACAD_REACTORS
330
C3
102
}
330
C3
100
AcDbVisualStyle
  2
Conceptual
 70
     9
177
     2
291
     0
 71
     3
176
     1
 72
     2
176
     1
 73
     0
176
     1
 90
        0
176
     1
 40
0.6
176
     1
 41
30.0
176
     1
 63
     7
421
 16777215
176
     1
 74
     2
176
     1
 91
        2
176
     1
 64
     7
176
     1
 65
   257
176
     1
 75
     1
176
     1
175
     1
176
     1
 42
179.0
176
     1
 92
        8
176
     1
 66
     7
176
     1
 43
1.0
176
     1
 76
     1
176
     1
 77
     6
176
     1
 78
     2
176
     1
 67
     7
176
     1
 79
     3
176
     1
170
     0
176
     1
171
     0
176
     1
290
     0
176
     1
 93
        1
176
     1
 44
0.0
176
     1
173
     0
176
     1
1001
ACAD
1000
AcDbSavedByObjectVersion
1070
     0
  0
VISUALSTYLE
  5
CE
102
{ACAD_XDICTIONARY
360
1B5
102
}
102
{ACAD_REACTORS
330
C3
102
}
330
C3
100
AcDbVisualStyle
  2
Dim
 70
    11
177
     2
291
     1
 71
     2
176
     1
 72
     2
176
     1
 73
     0
176
     1
 90
        0
176
     1
 40
0.6
176
     1
 41
30.0
176
     1
 63
     7
421
 16777215
176
     1
 74
     1
176
     1
 91
        4
176
     1
 64
     7
176
     1
 65
   257
176
     1
 75
     1
176
     1
175
     1
176
     1
 42
1.0
176
     1
 92
        8
176
     1
 66
     7
176
     1
 43
1.0
176
     1
 76
     1
176
     1
 77
     6
176
     1
 78
     2
176
     1
 67
     7
176
     1
 79
     5
176
     1
170
     0
176
     1
171
     0
176
     1
290
     0
176
     1
 93
        1
176
     1
 44
-50.0
176
     1
173
     0
176
     1
1001
ACAD
1000
AcDbSavedByObjectVersion
1070
     0
  0
VISUALSTYLE
  5
DB
102
{ACAD_XDICTIONARY
360
1CF
102
}
102
{ACAD_REACTORS
330
C3
102
}
330
C3
100
AcDbVisualStyle
  2
EdgeColorOff
 70
    22
177
     2
291
     1
 71
     2
176
     0
 72
     2
176
     0
 73
     0
176
     0
 90
        0
176
     0
 40
0.6
176
     0
 41
30.0
176
     0
 63
     7
421
 16777215
176
     0
 74
     1
176
     0
 91
        4
176
     0
 64
     7
176
     0
 65
   257
176
     0
 75
     1
176
     0
175
     1
176
     0
 42
1.0
176
     0
 92
        8
176
     2
 66
     7
176
     0
 43
1.0
176
     0
 76
     1
176
     0
 77
     6
176
     0
 78
     2
176
     0
 67
     7
176
     0
 79
     5
176
     0
170
     0
176
     0
171
     0
176
     0
290
     0
176
     0
 93
        1
176
     0
 44
0.0
176
     0
173
     0
176
     0
1001
ACAD
1000
AcDbSavedByObjectVersion
1070
     0
  0
VISUALSTYLE
  5
D2
102
{ACAD_XDICTIONARY
360
1BD
102
}
102
{ACAD_REACTORS
330
C3
102
}
330
C3
100
AcDbVisualStyle
  2
Facepattern
 70
    15
177
     2
291
     1
 71
     2
176
     1
 72
     2
176
     1
 73
     0
176
     1
 90
        0
176
     1
 40
0.6
176
     1
 41
30.0
176
     1
 63
     7
421
 16777215
176
     1
 74
     1
176
     1
 91
        4
176
     1
 64
     7
176
     1
 65
   257
176
     1
 75
     1
176
     1
175
     1
176
     1
 42
1.0
176
     1
 92
        8
176
     1
 66
     7
176
     1
 43
1.0
176
     1
 76
     1
176
     1
 77
     6
176
     1
 78
     2
176
     1
 67
     7
176
     1
 79
     5
176
     1
170
     0
176
     1
171
     0
176
     1
290
     0
176
     1
 93
        1
176
     1
 44
0.0
176
     1
173
     0
176
     1
1001
ACAD
1000
AcDbSavedByObjectVersion
1070
     0
  0
VISUALSTYLE
  5
C4
102
{ACAD_XDICTIONARY
360
1A1
102
}
102
{ACAD_REACTORS
330
C3
102
}
330
C3
100
AcDbVisualStyle
  2
Flat
 70
     0
177
     2
291
     1
 71
     2
176
     1
 72
     1
176
     1
 73
     1
176
     1
 90
        2
176
     1
 40
0.6
176
     1
 41
30.0
176
     1
 63
     7
421
 16777215
176
     1
 74
     0
176
     1
 91
        0
176
     1
 64
     7
176
     1
 65
   257
176
     1
 75
     1
176
     1
175
     1
176
     1
 42
1.0
176
     1
 92
        8
176
     1
 66
     7
176
     1
 43
1.0
176
     1
 76
     1
176
     1
 77
     6
176
     1
 78
     2
176
     1
 67
     7
176
     1
 79
     5
176
     1
170
     0
176
     1
171
     0
176
     1
290
     0
176
     1
 93
       13
176
     1
 44
0.0
176
     1
173
     0
176
     1
1001
ACAD
1000
AcDbSavedByObjectVersion
1070
     0
  0
VISUALSTYLE
  5
C5
102
{ACAD_XDICTIONARY
360
1A3
102
}
102
{ACAD_REACTORS
330
C3
102
}
330
C3
100
AcDbVisualStyle
  2
FlatWithEdges
 70
     1
177
     2
291
     1
 71
     2
176
     1
 72
     1
176
     1
 73
     1
176
     1
 90
        2
176
     1
 40
0.6
176
     1
 41
30.0
176
     1
 63
     7
421
 16777215
176
     1
 74
     1
176
     1
 91
        0
176
     1
 64
     7
176
     1
 65
   257
176
     1
 75
     1
176
     1
175
     1
176
     1
 42
1.0
176
     1
 92
        0
176
     1
 66
   257
176
     1
 43
1.0
176
     1
 76
     1
176
     1
 77
     6
176
     1
 78
     2
176
     1
 67
     7
176
     1
 79
     5
176
     1
170
     0
176
     1
171
     0
176
     1
290
     0
176
     1
 93
       13
176
     1
 44
0.0
176
     1
173
     0
176
     1
1001
ACAD
1000
AcDbSavedByObjectVersion
1070
     0
  0
VISUALSTYLE
  5
C6
102
{ACAD_XDICTIONARY
360
1A5
102
}
102
{ACAD_REACTORS
330
C3
102
}
330
C3
100
AcDbVisualStyle
  2
Gouraud
 70
     2
177
     2
291
     1
 71
     2
176
     1
 72
     2
176
     1
 73
     1
176
     1
 90
        2
176
     1
 40
0.6
176
     1
 41
30.0
176
     1
 63
     7
421
 16777215
176
     1
 74
     0
176
     1
 91
        0
176
     1
 64
     7
176
     1
 65
   257
176
     1
 75
     1
176
     1
175
     1
176
     1
 42
1.0
176
     1
 92
        0
176
     1
 66
     7
176
     1
 43
1.0
176
     1
 76
     1
176
     1
 77
     6
176
     1
 78
     2
176
     1
 67
     7
176
     1
 79
     5
176
     1
170
     0
176
     1
171
     0
176
     1
290
     0
176
     1
 93
       13
176
     1
 44
0.0
176
     1
173
     0
176
     1
1001
ACAD
1000
AcDbSavedByObjectVersion
1070
     0
  0
VISUALSTYLE
  5
C7
102
{ACAD_XDICTIONARY
360
1A7
102
}
102
{ACAD_REACTORS
330
C3
102
}
330
C3
100
AcDbVisualStyle
  2
GouraudWithEdges
 70
     3
177
     2
291
     1
 71
     2
176
     1
 72
     2
176
     1
 73
     1
176
     1
 90
        2
176
     1
 40
0.6
176
     1
 41
30.0
176
     1
 63
     7
421
 16777215
176
     1
 74
     1
176
     1
 91
        0
176
     1
 64
     7
176
     1
 65
   257
176
     1
 75
     1
176
     1
175
     1
176
     1
 42
1.0
176
     1
 92
        0
176
     1
 66
   257
176
     1
 43
1.0
176
     1
 76
     1
176
     1
 77
     6
176
     1
 78
     2
176
     1
 67
     7
176
     1
 79
     5
176
     1
170
     0
176
     1
171
     0
176
     1
290
     0
176
     1
 93
       13
176
     1
 44
0.0
176
     1
173
     0
176
     1
1001
ACAD
1000
AcDbSavedByObjectVersion
1070
     0
  0
VISUALSTYLE
  5
CB
102
{ACAD_XDICTIONARY
360
1AF
102
}
102
{ACAD_REACTORS
330
C3
102
}
330
C3
100
AcDbVisualStyle
  2
Hidden
 70
     6
177
     2
291
     0
 71
     1
176
     1
 72
     2
176
     1
 73
     2
176
     1
 90
        0
176
     1
 40
0.6
176
     1
 41
30.0
176
     1
 63
     7
421
 16777215
176
     1
 74
     2
176
     1
 91
        2
176
     1
 64
     7
176
     1
 65
   257
176
     1
 75
     2
176
     1
175
     1
176
     1
 42
40.0
176
     1
 92
        0
176
     1
 66
   257
176
     1
 43
1.0
176
     1
 76
     1
176
     1
 77
     6
176
     1
 78
     2
176
     1
 67
     7
176
     1
 79
     3
176
     1
170
     0
176
     1
171
     0
176
     1
290
     0
176
     1
 93
        1
176
     1
 44
0.0
176
     1
173
     0
176
     1
1001
ACAD
1000
AcDbSavedByObjectVersion
1070
     0
  0
VISUALSTYLE
  5
D9
102
{ACAD_XDICTIONARY
360
1CB
102
}
102
{ACAD_REACTORS
330
C3
102
}
330
C3
100
AcDbVisualStyle
  2
JitterOff
 70
    20
177
     2
291
     1
 71
     2
176
     0
 72
     2
176
     0
 73
     0
176
     0
 90
        0
176
     0
 40
0.6
176
     0
 41
30.0
176
     0
 63
     7
421
 16777215
176
     0
 74
     1
176
     0
 91
        4
176
     0
 64
     7
176
     0
 65
   257
176
     0
 75
     1
176
     0
175
     1
176
     0
 42
1.0
176
     0
 92
       10
176
     2
 66
     7
176
     0
 43
1.0
176
     0
 76
     1
176
     0
 77
     6
176
     0
 78
     2
176
     0
 67
     7
176
     0
 79
     5
176
     0
170
     0
176
     0
171
     0
176
     0
290
     0
176
     0
 93
        1
176
     0
 44
0.0
176
     0
173
     0
176
     0
1001
ACAD
1000
AcDbSavedByObjectVersion
1070
     0
  0
VISUALSTYLE
  5
D1
102
{ACAD_XDICTIONARY
360
1BB
102
}
102
{ACAD_REACTORS
330
C3
102
}
330
C3
100
AcDbVisualStyle
  2
Linepattern
 70
    14
177
     2
291
     1
 71
     2
176
     1
 72
     2
176
     1
 73
     0
176
     1
 90
        0
176
     1
 40
0.6
176
     1
 41
30.0
176
     1
 63
     7
421
 16777215
176
     1
 74
     1
176
     1
 91
        4
176
     1
 64
     7
176
     1
 65
   257
176
     1
 75
     7
176
     1
175
     7
176
     1
 42
1.0
176
     1
 92
        8
176
     1
 66
     7
176
     1
 43
1.0
176
     1
 76
     1
176
     1
 77
     6
176
     1
 78
     2
176
     1
 67
     7
176
     1
 79
     5
176
     1
170
     0
176
     1
171
     0
176
     1
290
     0
176
     1
 93
        1
176
     1
 44
0.0
176
     1
173
     0
176
     1
1001
ACAD
1000
AcDbSavedByObjectVersion
1070
     0
  0
VISUALSTYLE
  5
DA
102
{ACAD_XDICTIONARY
360
1CD
102
}
102
{ACAD_REACTORS
330
C3
102
}
330
C3
100
AcDbVisualStyle
  2
OverhangOff
 70
    21
177
     2
291
     1
 71
     2
176
     0
 72
     2
176
     0
 73
     0
176
     0
 90
        0
176
     0
 40
0.6
176
     0
 41
30.0
176
     0
 63
     7
421
 16777215
176
     0
 74
     1
176
     0
 91
        4
176
     0
 64
     7
176
     0
 65
   257
176
     0
 75
     1
176
     0
175
     1
176
     0
 42
1.0
176
     0
 92
        9
176
     2
 66
     7
176
     0
 43
1.0
176
     0
 76
     1
176
     0
 77
     6
176
     0
 78
     2
176
     0
 67
     7
176
     0
 79
     5
176
     0
170
     0
176
     0
171
     0
176
     0
290
     0
176
     0
 93
        1
176
     0
 44
0.0
176
     0
173
     0
176
     0
1001
ACAD
1000
AcDbSavedByObjectVersion
1070
     0
  0
VISUALSTYLE
  5
CD
102
{ACAD_XDICTIONARY
360
1B3
102
}
102
{ACAD_REACTORS
330
C3
102
}
330
C3
100
AcDbVisualStyle
  2
Realistic
 70
     8
177
     2
291
     0
 71
     2
176
     1
 72
     3
176
     1
 73
     0
176
     1
 90
        2
176
     1
 40
0.6
176
     1
 41
30.0
176
     1
 63
     7
421
 16777215
176
     1
 74
     0
176
     1
 91
        0
176
     1
 64
     7
176
     1
 65
   257
176
     1
 75
     1
176
     1
175
     1
176
     1
 42
1.0
176
     1
 92
        8
176
     1
 66
   257
176
     1
 43
1.0
176
     1
 76
     1
176
     1
 77
     6
176
     1
 78
     2
176
     1
 67
     7
176
     1
 79
     3
176
     1
170
     0
176
     1
171
     0
176
     1
290
     0
176
     1
 93
       13
176
     1
 44
0.0
176
     1
173
     0
176
     1
1001
ACAD
1000
AcDbSavedByObjectVersion
1070
     0
  0
VISUALSTYLE
  5
D8
102
{ACAD_XDICTIONARY
360
1C9
102
}
102
{ACAD_REACTORS
330
C3
102
}
330
C3
100
AcDbVisualStyle
  2
Shaded
 70
    27
177
     2
291
     0
 71
     2
176
     1
 72
     2
176
     1
 73
     1
176
     1
 90
        2
176
     1
 40
0.6
176
     1
 41
30.0
176
     1
 63
     7
421
 16777215
176
     1
 74
     0
176
     1
 91
        4
176
     1
 64
     7
176
     1
 65
   257
176
     1
 75
     1
176
     1
175
     1
176
     1
 42
1.0
176
     1
 92
        8
176
     1
 66
   257
176
     1
 43
1.0
176
     1
 76
     1
176
     1
 77
     6
176
     1
 78
     2
176
     1
 67
     8
425
  7895160
176
     1
 79
     3
176
     1
170
     0
176
     1
171
     0
176
     1
290
     0
176
     1
 93
        5
176
     1
 44
0.0
176
     1
173
     0
176
     1
1001
ACAD
1000
AcDbSavedByObjectVersion
1070
     0
  0
VISUALSTYLE
  5
D7
102
{ACAD_XDICTIONARY
360
1C7
102
}
102
{ACAD_REACTORS
330
C3
102
}
330
C3
100
AcDbVisualStyle
  2
Shaded with edges
 70
    26
177
     2
291
     0
 71
     2
176
     1
 72
     2
176
     1
 73
     1
176
     1
 90
        2
176
     1
 40
0.6
176
     1
 41
30.0
176
     1
 63
     7
421
 16777215
176
     1
 74
     1
176
     1
 91
       10
176
     1
 64
     7
176
     1
 65
   257
176
     1
 75
     2
176
     1
175
     1
176
     1
 42
1.0
176
     1
 92
        8
176
     1
 66
   257
176
     1
 43
1.0
176
     1
 76
     1
176
     1
 77
     6
176
     1
 78
     2
176
     1
 67
     7
176
     1
 79
     3
176
     1
170
     0
176
     1
171
     0
176
     1
290
     0
176
     1
 93
        5
176
     1
 44
0.0
176
     1
173
     0
176
     1
1001
ACAD
1000
AcDbSavedByObjectVersion
1070
     0
  0
VISUALSTYLE
  5
D4
102
{ACAD_XDICTIONARY
360
1C1
102
}
102
{ACAD_REACTORS
330
C3
102
}
330
C3
100
AcDbVisualStyle
  2
Shades of Gray
 70
    23
177
     2
291
     0
 71
     2
176
     1
 72
     2
176
     1
 73
     3
176
     1
 90
        0
176
     1
 40
0.6
176
     1
 41
30.0
176
     1
 63
     7
421
 16777215
176
     1
 74
     2
176
     1
 91
        2
176
     1
 64
     7
176
     1
 65
     7
176
     1
 75
     1
176
     1
175
     1
176
     1
 42
40.0
176
     1
 92
        8
176
     1
 66
     7
176
     1
 43
1.0
176
     1
 76
     1
176
     1
 77
     6
176
     1
 78
     2
176
     1
 67
     7
176
     1
 79
     3
176
     1
170
     0
176
     1
171
     0
176
     1
290
     0
176
     1
 93
        1
176
     1
 44
0.0
176
     1
173
     0
176
     1
1001
ACAD
1000
AcDbSavedByObjectVersion
1070
     0
  0
VISUALSTYLE
  5
D5
102
{ACAD_XDICTIONARY
360
1C3
102
}
102
{ACAD_REACTORS
330
C3
102
}
330
C3
100
AcDbVisualStyle
  2
Sketchy
 70
    24
177
     2
291
     0
 71
     1
176
     1
 72
     2
176
     1
 73
     2
176
     1
 90
        0
176
     1
 40
0.6
176
     1
 41
30.0
176
     1
 63
     7
421
 16777215
176
     1
 74
     2
176
     1
 91
        2
176
     1
 64
     7
176
     1
 65
     7
176
     1
 75
     1
176
     1
175
     1
176
     1
 42
40.0
176
     1
 92
       11
176
     1
 66
     7
176
     1
 43
1.0
176
     1
 76
     1
176
     1
 77
     6
176
     1
 78
     2
176
     1
 67
     7
176
     1
 79
     6
176
     1
170
     0
176
     1
171
     0
176
     1
290
     0
176
     1
 93
        1
176
     1
 44
0.0
176
     1
173
     0
176
     1
1001
ACAD
1000
AcDbSavedByObjectVersion
1070
     0
  0
VISUALSTYLE
  5
D0
102
{ACAD_XDICTIONARY
360
1B9
102
}
102
{ACAD_REACTORS
330
C3
102
}
330
C3
100
AcDbVisualStyle
  2
Thicken
 70
    13
177
     2
291
     1
 71
     2
176
     1
 72
     2
176
     1
 73
     0
176
     1
 90
        0
176
     1
 40
0.6
176
     1
 41
30.0
176
     1
 63
     7
421
 16777215
176
     1
 74
     1
176
     1
 91
        4
176
     1
 64
     7
176
     1
 65
   257
176
     1
 75
     1
176
     1
175
     1
176
     1
 42
1.0
176
     1
 92
       12
176
     1
 66
     7
176
     1
 43
1.0
176
     1
 76
     1
176
     1
 77
     6
176
     1
 78
     2
176
     1
 67
     7
176
     1
 79
     5
176
     1
170
     0
176
     1
171
     0
176
     1
290
     0
176
     1
 93
        1
176
     1
 44
0.0
176
     1
173
     0
176
     1
1001
ACAD
1000
AcDbSavedByObjectVersion
1070
     0
  0
VISUALSTYLE
  5
CA
102
{ACAD_XDICTIONARY
360
1AD
102
}
102
{ACAD_REACTORS
330
C3
102
}
330
C3
100
AcDbVisualStyle
  2
Wireframe
 70
     5
177
     2
291
     0
 71
     0
176
     1
 72
     2
176
     1
 73
     0
176
     1
 90
        0
176
     1
 40
0.6
176
     1
 41
30.0
176
     1
 63
     7
421
 16777215
176
     1
 74
     1
176
     1
 91
        4
176
     1
 64
     7
176
     1
 65
   257
176
     1
 75
     1
176
     1
175
     1
176
     1
 42
1.0
176
     1
 92
        0
176
     1
 66
   257
176
     1
 43
1.0
176
     1
 76
     1
176
     1
 77
     6
176
     1
 78
     2
176
     1
 67
     7
176
     1
 79
     3
176
     1
170
     0
176
     1
171
     0
176
     1
290
     0
176
     1
 93
        1
176
     1
 44
0.0
176
     1
173
     0
176
     1
1001
ACAD
1000
AcDbSavedByObjectVersion
1070
     0
  0
VISUALSTYLE
  5
D6
102
{ACAD_XDICTIONARY
360
1C5
102
}
102
{ACAD_REACTORS
330
C3
102
}
330
C3
100
AcDbVisualStyle
  2
X-Ray
 70
    25
177
     2
291
     0
 71
     2
176
     1
 72
     2
176
     1
 73
     1
176
     1
 90
        1
176
     1
 40
0.5
176
     1
 41
30.0
176
     1
 63
     7
421
 16777215
176
     1
 74
     1
176
     1
 91
        0
176
     1
 64
     7
176
     1
 65
   257
176
     1
 75
     1
176
     1
175
     1
176
     1
 42
1.0
176
     1
 92
        8
176
     1
 66
     7
176
     1
 43
1.0
176
     1
 76
     1
176
     1
 77
     6
176
     1
 78
     2
176
     1
 67
     7
176
     1
 79
     3
176
     1
170
     0
176
     1
171
     0
176
     1
290
     0
176
     1
 93
       13
176
     1
 44
0.0
176
     1
173
     0
176
     1
1001
ACAD
1000
AcDbSavedByObjectVersion
1070
     0
  0
DICTIONARYVAR
  5
19A
102
{ACAD_REACTORS
330
194
102
}
330
194
100
DictionaryVariables
280
     0
  1
1:1
  0
DICTIONARYVAR
  5
196
102
{ACAD_REACTORS
330
194
102
}
330
194
100
DictionaryVariables
280
     0
  1
STANDARD
  0
DICTIONARYVAR
  5
195
102
{ACAD_REACTORS
330
194
102
}
330
194
100
DictionaryVariables
280
     0
  1
STANDARD
  0
DICTIONARYVAR
  5
197
102
{ACAD_REACTORS
330
194
102
}
330
194
100
DictionaryVariables
280
     0
  1
Imperial24
  0
DICTIONARYVAR
  5
198
102
{ACAD_REACTORS
330
194
102
}
330
194
100
DictionaryVariables
280
     0
  1
Imperial24
  0
DICTIONARYVAR
  5
19C
102
{ACAD_REACTORS
330
194
102
}
330
194
100
DictionaryVariables
280
     0
  1
1
  0
DICTIONARYVAR
  5
19D
102
{ACAD_REACTORS
330
194
102
}
330
194
100
DictionaryVariables
280
     0
  1
15
  0
DICTIONARYVAR
  5
19B
102
{ACAD_REACTORS
330
194
102
}
330
194
100
DictionaryVariables
280
     0
  1
0
  0
DICTIONARYVAR
  5
199
102
{ACAD_REACTORS
330
194
102
}
330
194
100
DictionaryVariables
280
     0
  1
0
  0
DICTIONARY
  5
1D5
330
F6
100
AcDbDictionary
280
     1
281
     1
  3
ACAD_XREC_ROUNDTRIP
360
1D6
  0
DICTIONARY
  5
B4
330
B3
100
AcDbDictionary
280
     1
281
     1
  3
BUMPTILE
360
B6
  3
DIFFUSETILE
360
B5
  3
OPACITYTILE
360
B9
  3
REFLECTIONTILE
360
B8
  3
REFRACTIONTILE
360
BA
  3
SPECULARTILE
360
B7
  0
DICTIONARY
  5
AC
330
AB
100
AcDbDictionary
280
     1
281
     1
  3
BUMPTILE
360
AE
  3
DIFFUSETILE
360
AD
  3
OPACITYTILE
360
B1
  3
REFLECTIONTILE
360
B0
  3
REFRACTIONTILE
360
B2
  3
SPECULARTILE
360
AF
  0
DICTIONARY
  5
BC
330
BB
100
AcDbDictionary
280
     1
281
     1
  3
BUMPTILE
360
BE
  3
DIFFUSETILE
360
BD
  3
OPACITYTILE
360
C1
  3
REFLECTIONTILE
360
C0
  3
REFRACTIONTILE
360
C2
  3
SPECULARTILE
360
BF
  0
DICTIONARY
  5
1D1
330
F2
100
AcDbDictionary
280
     1
281
     1
  3
ACAD_XREC_ROUNDTRIP
360
1D2
  0
DICTIONARY
  5
1D3
330
F4
100
AcDbDictionary
280
     1
281
     1
  3
ACAD_XREC_ROUNDTRIP
360
1D4
  0
DICTIONARY
  5
19E
330
DE
100
AcDbDictionary
280
     1
281
     1
  3
ACAD_ROUNDTRIP_2008_TABLESTYLE_CELLSTYLEMAP
360
19F
  0
DICTIONARY
  5
1AB
330
C9
100
AcDbDictionary
280
     1
281
     1
  3
ACAD_XREC_ROUNDTRIP
360
1AC
  0
DICTIONARY
  5
1A9
330
C8
100
AcDbDictionary
280
     1
281
     1
  3
ACAD_XREC_ROUNDTRIP
360
1AA
  0
DICTIONARY
  5
1B7
330
CF
100
AcDbDictionary
280
     1
281
     1
  3
ACAD_XREC_ROUNDTRIP
360
1B8
  0
DICTIONARY
  5
1BF
330
D3
100
AcDbDictionary
280
     1
281
     1
  3
ACAD_XREC_ROUNDTRIP
360
1C0
  0
DICTIONARY
  5
1B1
330
CC
100
AcDbDictionary
280
     1
281
     1
  3
ACAD_XREC_ROUNDTRIP
360
1B2
  0
DICTIONARY
  5
1B5
330
CE
100
AcDbDictionary
280
     1
281
     1
  3
ACAD_XREC_ROUNDTRIP
360
1B6
  0
DICTIONARY
  5
1CF
330
DB
100
AcDbDictionary
280
     1
281
     1
  3
ACAD_XREC_ROUNDTRIP
360
1D0
  0
DICTIONARY
  5
1BD
330
D2
100
AcDbDictionary
280
     1
281
     1
  3
ACAD_XREC_ROUNDTRIP
360
1BE
  0
DICTIONARY
  5
1A1
330
C4
100
AcDbDictionary
280
     1
281
     1
  3
ACAD_XREC_ROUNDTRIP
360
1A2
  0
DICTIONARY
  5
1A3
330
C5
100
AcDbDictionary
280
     1
281
     1
  3
ACAD_XREC_ROUNDTRIP
360
1A4
  0
DICTIONARY
  5
1A5
330
C6
100
AcDbDictionary
280
     1
281
     1
  3
ACAD_XREC_ROUNDTRIP
360
1A6
  0
DICTIONARY
  5
1A7
330
C7
100
AcDbDictionary
280
     1
281
     1
  3
ACAD_XREC_ROUNDTRIP
360
1A8
  0
DICTIONARY
  5
1AF
330
CB
100
AcDbDictionary
280
     1
281
     1
  3
ACAD_XREC_ROUNDTRIP
360
1B0
  0
DICTIONARY
  5
1CB
330
D9
100
AcDbDictionary
280
     1
281
     1
  3
ACAD_XREC_ROUNDTRIP
360
1CC
  0
DICTIONARY
  5
1BB
330
D1
100
AcDbDictionary
280
     1
281
     1
  3
ACAD_XREC_ROUNDTRIP
360
1BC
  0
DICTIONARY
  5
1CD
330
DA
100
AcDbDictionary
280
     1
281
     1
  3
ACAD_XREC_ROUNDTRIP
360
1CE
  0
DICTIONARY
  5
1B3
330
CD
100
AcDbDictionary
280
     1
281
     1
  3
ACAD_XREC_ROUNDTRIP
360
1B4
  0
DICTIONARY
  5
1C9
330
D8
100
AcDbDictionary
280
     1
281
     1
  3
ACAD_XREC_ROUNDTRIP
360
1CA
  0
DICTIONARY
  5
1C7
330
D7
100
AcDbDictionary
280
     1
281
     1
  3
ACAD_XREC_ROUNDTRIP
360
1C8
  0
DICTIONARY
  5
1C1
330
D4
100
AcDbDictionary
280
     1
281
     1
  3
ACAD_XREC_ROUNDTRIP
360
1C2
  0
DICTIONARY
  5
1C3
330
D5
100
AcDbDictionary
280
     1
281
     1
  3
ACAD_XREC_ROUNDTRIP
360
1C4
  0
DICTIONARY
  5
1B9
330
D0
100
AcDbDictionary
280
     1
281
     1
  3
ACAD_XREC_ROUNDTRIP
360
1BA
  0
DICTIONARY
  5
1AD
330
CA
100
AcDbDictionary
280
     1
281
     1
  3
ACAD_XREC_ROUNDTRIP
360
1AE
  0
DICTIONARY
  5
1C5
330
D6
100
AcDbDictionary
280
     1
281
     1
  3
ACAD_XREC_ROUNDTRIP
360
1C6
  0
XRECORD
  5
1D6
102
{ACAD_REACTORS
330
1D5
102
}
330
1D5
100
AcDbXrecord
280
     1
102
DISPLAYNAME
  1
Imperial24
102
FLAGS
 90
        0
  0
XRECORD
  5
B6
102
{ACAD_REACTORS
330
B4
102
}
330
B4
100
AcDbXrecord
280
     1
270
     1
271
     1
  0
XRECORD
  5
B5
102
{ACAD_REACTORS
330
B4
102
}
330
B4
100
AcDbXrecord
280
     1
270
     1
271
     1
  0
XRECORD
  5
B9
102
{ACAD_REACTORS
330
B4
102
}
330
B4
100
AcDbXrecord
280
     1
270
     1
271
     1
  0
XRECORD
  5
B8
102
{ACAD_REACTORS
330
B4
102
}
330
B4
100
AcDbXrecord
280
     1
270
     1
271
     1
  0
XRECORD
  5
BA
102
{ACAD_REACTORS
330
B4
102
}
330
B4
100
AcDbXrecord
280
     1
270
     1
271
     1
  0
XRECORD
  5
B7
102
{ACAD_REACTORS
330
B4
102
}
330
B4
100
AcDbXrecord
280
     1
270
     1
271
     1
  0
XRECORD
  5
AE
102
{ACAD_REACTORS
330
AC
102
}
330
AC
100
AcDbXrecord
280
     1
270
     1
271
     1
  0
XRECORD
  5
AD
102
{ACAD_REACTORS
330
AC
102
}
330
AC
100
AcDbXrecord
280
     1
270
     1
271
     1
  0
XRECORD
  5
B1
102
{ACAD_REACTORS
330
AC
102
}
330
AC
100
AcDbXrecord
280
     1
270
     1
271
     1
  0
XRECORD
  5
B0
102
{ACAD_REACTORS
330
AC
102
}
330
AC
100
AcDbXrecord
280
     1
270
     1
271
     1
  0
XRECORD
  5
B2
102
{ACAD_REACTORS
330
AC
102
}
330
AC
100
AcDbXrecord
280
     1
270
     1
271
     1
  0
XRECORD
  5
AF
102
{ACAD_REACTORS
330
AC
102
}
330
AC
100
AcDbXrecord
280
     1
270
     1
271
     1
  0
XRECORD
  5
BE
102
{ACAD_REACTORS
330
BC
102
}
330
BC
100
AcDbXrecord
280
     1
270
     1
271
     1
  0
XRECORD
  5
BD
102
{ACAD_REACTORS
330
BC
102
}
330
BC
100
AcDbXrecord
280
     1
270
     1
271
     1
  0
XRECORD
  5
C1
102
{ACAD_REACTORS
330
BC
102
}
330
BC
100
AcDbXrecord
280
     1
270
     1
271
     1
  0
XRECORD
  5
C0
102
{ACAD_REACTORS
330
BC
102
}
330
BC
100
AcDbXrecord
280
     1
270
     1
271
     1
  0
XRECORD
  5
C2
102
{ACAD_REACTORS
330
BC
102
}
330
BC
100
AcDbXrecord
280
     1
270
     1
271
     1
  0
XRECORD
  5
BF
102
{ACAD_REACTORS
330
BC
102
}
330
BC
100
AcDbXrecord
280
     1
270
     1
271
     1
  0
XRECORD
  5
1D2
102
{ACAD_REACTORS
330
1D1
102
}
330
1D1
100
AcDbXrecord
280
     1
102
ACAD_ROUNDTRIP_2012_MLEADER_STYLE
298
     1
  0
XRECORD
  5
1D4
102
{ACAD_REACTORS
330
1D3
102
}
330
1D3
100
AcDbXrecord
280
     1
102
DISPLAYNAME
  1
Imperial24
102
FLAGS
 90
        0
  0
CELLSTYLEMAP
  5
19F
102
{ACAD_REACTORS
330
19E
102
}
330
19E
100
AcDbCellStyleMap
 90
        3
300
CELLSTYLE
  1
TABLEFORMAT_BEGIN
 90
        5
170
     1
 91
        0
 92
    32768
 62
   257
 93
        1
300
CONTENTFORMAT
  1
CONTENTFORMAT_BEGIN
 90
        0
 91
        0
 92
      512
 93
        0
300

 40
0.0
140
1.0
 94
        5
 62
     0
340
11
144
0.25
309
CONTENTFORMAT_END
171
     0
 94
        0
309
TABLEFORMAT_END
  1
CELLSTYLE_BEGIN
 90
        1
 91
        1
300
_TITLE
309
CELLSTYLE_END
300
CELLSTYLE
  1
TABLEFORMAT_BEGIN
 90
        5
170
     1
 91
        0
 92
        0
 62
   257
 93
        1
300
CONTENTFORMAT
  1
CONTENTFORMAT_BEGIN
 90
        0
 91
        0
 92
      512
 93
        0
300

 40
0.0
140
1.0
 94
        5
 62
     0
340
11
144
0.18
309
CONTENTFORMAT_END
171
     0
 94
        0
309
TABLEFORMAT_END
  1
CELLSTYLE_BEGIN
 90
        2
 91
        1
300
_HEADER
309
CELLSTYLE_END
300
CELLSTYLE
  1
TABLEFORMAT_BEGIN
 90
        5
170
     1
 91
        0
 92
        0
 62
   257
 93
        1
300
CONTENTFORMAT
  1
CONTENTFORMAT_BEGIN
 90
        0
 91
        0
 92
      512
 93
        0
300

 40
0.0
140
1.0
 94
        2
 62
     0
340
11
144
0.18
309
CONTENTFORMAT_END
171
     0
 94
        0
309
TABLEFORMAT_END
  1
CELLSTYLE_BEGIN
 90
        3
 91
        2
300
_DATA
309
CELLSTYLE_END
  0
XRECORD
  5
1AC
102
{ACAD_REACTORS
330
1AB
102
}
330
1AB
100
AcDbXrecord
280
     1
102
RTVSPost2010Prop28
280
     1
102
RTVSPost2010PropOp28
 70
     1
102
RTVSPost2010Prop29
280
     1
102
RTVSPost2010PropOp29
 70
     1
102
RTVSPost2010Prop30
280
     0
102
RTVSPost2010PropOp30
 70
     1
102
RTVSPost2010Prop31
280
     0
102
RTVSPost2010PropOp31
 70
     1
102
RTVSPost2010Prop32
280
     0
102
RTVSPost2010PropOp32
 70
     1
102
RTVSPost2010Prop33
280
     0
102
RTVSPost2010PropOp33
 70
     1
102
RTVSPost2010Prop34
280
     0
102
RTVSPost2010PropOp34
 70
     1
102
RTVSPost2010Prop35
280
     0
102
RTVSPost2010PropOp35
 70
     1
102
RTVSPost2010Prop36
280
     0
102
RTVSPost2010PropOp36
 70
     1
102
RTVSPost2010Prop37
 90
       50
102
RTVSPost2010PropOp37
 70
     1
102
RTVSPost2010Prop38
140
0.0
102
RTVSPost2010PropOp38
 70
     1
102
RTVSPost2010Prop39
140
1.0
102
RTVSPost2010PropOp39
 70
     1
102
RTVSPost2010Prop40
 90
        0
102
RTVSPost2010PropOp40
 70
     1
102
RTVSPost2010Prop41ColorIndex
 90
       18
102
RTVSPost2010Prop41ColorRGB
 90
        0
102
RTVSPost2010PropOp41
 70
     1
102
RTVSPost2010Prop42
 90
       50
102
RTVSPost2010PropOp42
 70
     1
102
RTVSPost2010Prop43
 90
        3
102
RTVSPost2010PropOp43
 70
     1
102
RTVSPost2010Prop44ColorIndex
 90
        5
102
RTVSPost2010Prop44ColorRGB
 90
      255
102
RTVSPost2010PropOp44
 70
     1
102
RTVSPost2010Prop45
280
     0
102
RTVSPost2010PropOp45
 70
     1
102
RTVSPost2010Prop46
 90
       50
102
RTVSPost2010PropOp46
 70
     1
102
RTVSPost2010Prop47
 90
       50
102
RTVSPost2010PropOp47
 70
     1
102
RTVSPost2010Prop48
 90
       50
102
RTVSPost2010PropOp48
 70
     1
102
RTVSPost2010Prop49
280
     0
102
RTVSPost2010PropOp49
 70
     1
102
RTVSPost2010Prop50
 90
       50
102
RTVSPost2010PropOp50
 70
     1
102
RTVSPost2010Prop51ColorIndex
 90
      256
102
RTVSPost2010Prop51ColorRGB
 90
-16777216
102
RTVSPost2010PropOp51
 70
     0
102
RTVSPost2010Prop52
140
1.0
102
RTVSPost2010PropOp52
 70
     0
102
RTVSPost2010Prop53
 90
        2
102
RTVSPost2010PropOp53
 70
     1
102
RTVSPost2010Prop54
  1
strokes_ogs.tif
102
RTVSPost2010PropOp54
 70
     1
102
RTVSPost2010Prop55
280
     0
102
RTVSPost2010PropOp55
 70
     1
102
RTVSPost2010Prop56
140
1.0
102
RTVSPost2010PropOp56
 70
     1
102
RTVSPost2010Prop57
140
1.0
102
RTVSPost2010PropOp57
 70
     1
  0
XRECORD
  5
1AA
102
{ACAD_REACTORS
330
1A9
102
}
330
1A9
100
AcDbXrecord
280
     1
102
RTVSPost2010Prop28
280
     0
102
RTVSPost2010PropOp28
 70
     1
102
RTVSPost2010Prop29
280
     1
102
RTVSPost2010PropOp29
 70
     1
102
RTVSPost2010Prop30
280
     1
102
RTVSPost2010PropOp30
 70
     1
102
RTVSPost2010Prop31
280
     0
102
RTVSPost2010PropOp31
 70
     1
102
RTVSPost2010Prop32
280
     0
102
RTVSPost2010PropOp32
 70
     1
102
RTVSPost2010Prop33
280
     0
102
RTVSPost2010PropOp33
 70
     1
102
RTVSPost2010Prop34
280
     0
102
RTVSPost2010PropOp34
 70
     1
102
RTVSPost2010Prop35
280
     0
102
RTVSPost2010PropOp35
 70
     1
102
RTVSPost2010Prop36
280
     0
102
RTVSPost2010PropOp36
 70
     1
102
RTVSPost2010Prop37
 90
       50
102
RTVSPost2010PropOp37
 70
     1
102
RTVSPost2010Prop38
140
0.0
102
RTVSPost2010PropOp38
 70
     1
102
RTVSPost2010Prop39
140
1.0
102
RTVSPost2010PropOp39
 70
     1
102
RTVSPost2010Prop40
 90
        0
102
RTVSPost2010PropOp40
 70
     1
102
RTVSPost2010Prop41ColorIndex
 90
       18
102
RTVSPost2010Prop41ColorRGB
 90
        0
102
RTVSPost2010PropOp41
 70
     1
102
RTVSPost2010Prop42
 90
       50
102
RTVSPost2010PropOp42
 70
     1
102
RTVSPost2010Prop43
 90
        3
102
RTVSPost2010PropOp43
 70
     1
102
RTVSPost2010Prop44ColorIndex
 90
        5
102
RTVSPost2010Prop44ColorRGB
 90
      255
102
RTVSPost2010PropOp44
 70
     1
102
RTVSPost2010Prop45
280
     0
102
RTVSPost2010PropOp45
 70
     1
102
RTVSPost2010Prop46
 90
       50
102
RTVSPost2010PropOp46
 70
     1
102
RTVSPost2010Prop47
 90
       50
102
RTVSPost2010PropOp47
 70
     1
102
RTVSPost2010Prop48
 90
       50
102
RTVSPost2010PropOp48
 70
     1
102
RTVSPost2010Prop49
280
     0
102
RTVSPost2010PropOp49
 70
     1
102
RTVSPost2010Prop50
 90
       50
102
RTVSPost2010PropOp50
 70
     1
102
RTVSPost2010Prop51ColorIndex
 90
      256
102
RTVSPost2010Prop51ColorRGB
 90
-16777216
102
RTVSPost2010PropOp51
 70
     0
102
RTVSPost2010Prop52
140
1.0
102
RTVSPost2010PropOp52
 70
     0
102
RTVSPost2010Prop53
 90
        2
102
RTVSPost2010PropOp53
 70
     1
102
RTVSPost2010Prop54
  1
strokes_ogs.tif
102
RTVSPost2010PropOp54
 70
     1
102
RTVSPost2010Prop55
280
     0
102
RTVSPost2010PropOp55
 70
     1
102
RTVSPost2010Prop56
140
1.0
102
RTVSPost2010PropOp56
 70
     1
102
RTVSPost2010Prop57
140
1.0
102
RTVSPost2010PropOp57
 70
     1
  0
XRECORD
  5
1B8
102
{ACAD_REACTORS
330
1B7
102
}
330
1B7
100
AcDbXrecord
280
     1
102
RTVSPost2010Prop28
280
     0
102
RTVSPost2010PropOp28
 70
     1
102
RTVSPost2010Prop29
280
     1
102
RTVSPost2010PropOp29
 70
     1
102
RTVSPost2010Prop30
280
     1
102
RTVSPost2010PropOp30
 70
     1
102
RTVSPost2010Prop31
280
     0
102
RTVSPost2010PropOp31
 70
     1
102
RTVSPost2010Prop32
280
     0
102
RTVSPost2010PropOp32
 70
     1
102
RTVSPost2010Prop33
280
     0
102
RTVSPost2010PropOp33
 70
     1
102
RTVSPost2010Prop34
280
     0
102
RTVSPost2010PropOp34
 70
     1
102
RTVSPost2010Prop35
280
     0
102
RTVSPost2010PropOp35
 70
     1
102
RTVSPost2010Prop36
280
     0
102
RTVSPost2010PropOp36
 70
     1
102
RTVSPost2010Prop37
 90
       50
102
RTVSPost2010PropOp37
 70
     1
102
RTVSPost2010Prop38
140
0.0
102
RTVSPost2010PropOp38
 70
     1
102
RTVSPost2010Prop39
140
1.0
102
RTVSPost2010PropOp39
 70
     1
102
RTVSPost2010Prop40
 90
        0
102
RTVSPost2010PropOp40
 70
     1
102
RTVSPost2010Prop41ColorIndex
 90
       18
102
RTVSPost2010Prop41ColorRGB
 90
        0
102
RTVSPost2010PropOp41
 70
     1
102
RTVSPost2010Prop42
 90
       50
102
RTVSPost2010PropOp42
 70
     1
102
RTVSPost2010Prop43
 90
        3
102
RTVSPost2010PropOp43
 70
     1
102
RTVSPost2010Prop44ColorIndex
 90
        5
102
RTVSPost2010Prop44ColorRGB
 90
      255
102
RTVSPost2010PropOp44
 70
     1
102
RTVSPost2010Prop45
280
     0
102
RTVSPost2010PropOp45
 70
     1
102
RTVSPost2010Prop46
 90
       50
102
RTVSPost2010PropOp46
 70
     1
102
RTVSPost2010Prop47
 90
       50
102
RTVSPost2010PropOp47
 70
     1
102
RTVSPost2010Prop48
 90
       50
102
RTVSPost2010PropOp48
 70
     1
102
RTVSPost2010Prop49
280
     0
102
RTVSPost2010PropOp49
 70
     1
102
RTVSPost2010Prop50
 90
       50
102
RTVSPost2010PropOp50
 70
     1
102
RTVSPost2010Prop51ColorIndex
 90
      256
102
RTVSPost2010Prop51ColorRGB
 90
-16777216
102
RTVSPost2010PropOp51
 70
     0
102
RTVSPost2010Prop52
140
1.0
102
RTVSPost2010PropOp52
 70
     0
102
RTVSPost2010Prop53
 90
        2
102
RTVSPost2010PropOp53
 70
     1
102
RTVSPost2010Prop54
  1
strokes_ogs.tif
102
RTVSPost2010PropOp54
 70
     1
102
RTVSPost2010Prop55
280
     0
102
RTVSPost2010PropOp55
 70
     1
102
RTVSPost2010Prop56
140
1.0
102
RTVSPost2010PropOp56
 70
     1
102
RTVSPost2010Prop57
140
1.0
102
RTVSPost2010PropOp57
 70
     1
  0
XRECORD
  5
1C0
102
{ACAD_REACTORS
330
1BF
102
}
330
1BF
100
AcDbXrecord
280
     1
102
RTVSPost2010Prop28
280
     0
102
RTVSPost2010PropOp28
 70
     1
102
RTVSPost2010Prop29
280
     1
102
RTVSPost2010PropOp29
 70
     1
102
RTVSPost2010Prop30
280
     1
102
RTVSPost2010PropOp30
 70
     1
102
RTVSPost2010Prop31
280
     0
102
RTVSPost2010PropOp31
 70
     1
102
RTVSPost2010Prop32
280
     0
102
RTVSPost2010PropOp32
 70
     1
102
RTVSPost2010Prop33
280
     0
102
RTVSPost2010PropOp33
 70
     1
102
RTVSPost2010Prop34
280
     0
102
RTVSPost2010PropOp34
 70
     1
102
RTVSPost2010Prop35
280
     0
102
RTVSPost2010PropOp35
 70
     1
102
RTVSPost2010Prop36
280
     0
102
RTVSPost2010PropOp36
 70
     1
102
RTVSPost2010Prop37
 90
       50
102
RTVSPost2010PropOp37
 70
     1
102
RTVSPost2010Prop38
140
0.0
102
RTVSPost2010PropOp38
 70
     1
102
RTVSPost2010Prop39
140
1.0
102
RTVSPost2010PropOp39
 70
     1
102
RTVSPost2010Prop40
 90
        0
102
RTVSPost2010PropOp40
 70
     1
102
RTVSPost2010Prop41ColorIndex
 90
       18
102
RTVSPost2010Prop41ColorRGB
 90
        0
102
RTVSPost2010PropOp41
 70
     1
102
RTVSPost2010Prop42
 90
       50
102
RTVSPost2010PropOp42
 70
     1
102
RTVSPost2010Prop43
 90
        3
102
RTVSPost2010PropOp43
 70
     1
102
RTVSPost2010Prop44ColorIndex
 90
        5
102
RTVSPost2010Prop44ColorRGB
 90
      255
102
RTVSPost2010PropOp44
 70
     1
102
RTVSPost2010Prop45
280
     0
102
RTVSPost2010PropOp45
 70
     1
102
RTVSPost2010Prop46
 90
       50
102
RTVSPost2010PropOp46
 70
     1
102
RTVSPost2010Prop47
 90
       50
102
RTVSPost2010PropOp47
 70
     1
102
RTVSPost2010Prop48
 90
       50
102
RTVSPost2010PropOp48
 70
     1
102
RTVSPost2010Prop49
280
     0
102
RTVSPost2010PropOp49
 70
     1
102
RTVSPost2010Prop50
 90
       50
102
RTVSPost2010PropOp50
 70
     1
102
RTVSPost2010Prop51ColorIndex
 90
      256
102
RTVSPost2010Prop51ColorRGB
 90
-16777216
102
RTVSPost2010PropOp51
 70
     0
102
RTVSPost2010Prop52
140
1.0
102
RTVSPost2010PropOp52
 70
     0
102
RTVSPost2010Prop53
 90
        2
102
RTVSPost2010PropOp53
 70
     1
102
RTVSPost2010Prop54
  1
strokes_ogs.tif
102
RTVSPost2010PropOp54
 70
     1
102
RTVSPost2010Prop55
280
     0
102
RTVSPost2010PropOp55
 70
     1
102
RTVSPost2010Prop56
140
1.0
102
RTVSPost2010PropOp56
 70
     1
102
RTVSPost2010Prop57
140
1.0
102
RTVSPost2010PropOp57
 70
     1
  0
XRECORD
  5
1B2
102
{ACAD_REACTORS
330
1B1
102
}
330
1B1
100
AcDbXrecord
280
     1
102
RTVSPost2010Prop28
280
     0
102
RTVSPost2010PropOp28
 70
     1
102
RTVSPost2010Prop29
280
     1
102
RTVSPost2010PropOp29
 70
     1
102
RTVSPost2010Prop30
280
     1
102
RTVSPost2010PropOp30
 70
     1
102
RTVSPost2010Prop31
280
     0
102
RTVSPost2010PropOp31
 70
     1
102
RTVSPost2010Prop32
280
     0
102
RTVSPost2010PropOp32
 70
     1
102
RTVSPost2010Prop33
280
     0
102
RTVSPost2010PropOp33
 70
     1
102
RTVSPost2010Prop34
280
     0
102
RTVSPost2010PropOp34
 70
     1
102
RTVSPost2010Prop35
280
     0
102
RTVSPost2010PropOp35
 70
     1
102
RTVSPost2010Prop36
280
     0
102
RTVSPost2010PropOp36
 70
     1
102
RTVSPost2010Prop37
 90
       50
102
RTVSPost2010PropOp37
 70
     1
102
RTVSPost2010Prop38
140
0.0
102
RTVSPost2010PropOp38
 70
     1
102
RTVSPost2010Prop39
140
1.0
102
RTVSPost2010PropOp39
 70
     1
102
RTVSPost2010Prop40
 90
        0
102
RTVSPost2010PropOp40
 70
     1
102
RTVSPost2010Prop41ColorIndex
 90
       18
102
RTVSPost2010Prop41ColorRGB
 90
        0
102
RTVSPost2010PropOp41
 70
     1
102
RTVSPost2010Prop42
 90
       50
102
RTVSPost2010PropOp42
 70
     1
102
RTVSPost2010Prop43
 90
        3
102
RTVSPost2010PropOp43
 70
     1
102
RTVSPost2010Prop44ColorIndex
 90
        5
102
RTVSPost2010Prop44ColorRGB
 90
      255
102
RTVSPost2010PropOp44
 70
     1
102
RTVSPost2010Prop45
280
     0
102
RTVSPost2010PropOp45
 70
     1
102
RTVSPost2010Prop46
 90
       50
102
RTVSPost2010PropOp46
 70
     1
102
RTVSPost2010Prop47
 90
       50
102
RTVSPost2010PropOp47
 70
     1
102
RTVSPost2010Prop48
 90
       50
102
RTVSPost2010PropOp48
 70
     1
102
RTVSPost2010Prop49
280
     0
102
RTVSPost2010PropOp49
 70
     1
102
RTVSPost2010Prop50
 90
       50
102
RTVSPost2010PropOp50
 70
     1
102
RTVSPost2010Prop51ColorIndex
 90
      256
102
RTVSPost2010Prop51ColorRGB
 90
-16777216
102
RTVSPost2010PropOp51
 70
     0
102
RTVSPost2010Prop52
140
1.0
102
RTVSPost2010PropOp52
 70
     0
102
RTVSPost2010Prop53
 90
        2
102
RTVSPost2010PropOp53
 70
     1
102
RTVSPost2010Prop54
  1
strokes_ogs.tif
102
RTVSPost2010PropOp54
 70
     1
102
RTVSPost2010Prop55
280
     0
102
RTVSPost2010PropOp55
 70
     1
102
RTVSPost2010Prop56
140
1.0
102
RTVSPost2010PropOp56
 70
     1
102
RTVSPost2010Prop57
140
1.0
102
RTVSPost2010PropOp57
 70
     1
  0
XRECORD
  5
1B6
102
{ACAD_REACTORS
330
1B5
102
}
330
1B5
100
AcDbXrecord
280
     1
102
RTVSPost2010Prop28
280
     0
102
RTVSPost2010PropOp28
 70
     1
102
RTVSPost2010Prop29
280
     1
102
RTVSPost2010PropOp29
 70
     1
102
RTVSPost2010Prop30
280
     1
102
RTVSPost2010PropOp30
 70
     1
102
RTVSPost2010Prop31
280
     0
102
RTVSPost2010PropOp31
 70
     1
102
RTVSPost2010Prop32
280
     0
102
RTVSPost2010PropOp32
 70
     1
102
RTVSPost2010Prop33
280
     0
102
RTVSPost2010PropOp33
 70
     1
102
RTVSPost2010Prop34
280
     0
102
RTVSPost2010PropOp34
 70
     1
102
RTVSPost2010Prop35
280
     0
102
RTVSPost2010PropOp35
 70
     1
102
RTVSPost2010Prop36
280
     0
102
RTVSPost2010PropOp36
 70
     1
102
RTVSPost2010Prop37
 90
       50
102
RTVSPost2010PropOp37
 70
     1
102
RTVSPost2010Prop38
140
0.0
102
RTVSPost2010PropOp38
 70
     1
102
RTVSPost2010Prop39
140
1.0
102
RTVSPost2010PropOp39
 70
     1
102
RTVSPost2010Prop40
 90
        0
102
RTVSPost2010PropOp40
 70
     1
102
RTVSPost2010Prop41ColorIndex
 90
       18
102
RTVSPost2010Prop41ColorRGB
 90
        0
102
RTVSPost2010PropOp41
 70
     1
102
RTVSPost2010Prop42
 90
       50
102
RTVSPost2010PropOp42
 70
     1
102
RTVSPost2010Prop43
 90
        3
102
RTVSPost2010PropOp43
 70
     1
102
RTVSPost2010Prop44ColorIndex
 90
        5
102
RTVSPost2010Prop44ColorRGB
 90
      255
102
RTVSPost2010PropOp44
 70
     1
102
RTVSPost2010Prop45
280
     0
102
RTVSPost2010PropOp45
 70
     1
102
RTVSPost2010Prop46
 90
       50
102
RTVSPost2010PropOp46
 70
     1
102
RTVSPost2010Prop47
 90
       50
102
RTVSPost2010PropOp47
 70
     1
102
RTVSPost2010Prop48
 90
       50
102
RTVSPost2010PropOp48
 70
     1
102
RTVSPost2010Prop49
280
     0
102
RTVSPost2010PropOp49
 70
     1
102
RTVSPost2010Prop50
 90
       50
102
RTVSPost2010PropOp50
 70
     1
102
RTVSPost2010Prop51ColorIndex
 90
      256
102
RTVSPost2010Prop51ColorRGB
 90
-16777216
102
RTVSPost2010PropOp51
 70
     0
102
RTVSPost2010Prop52
140
1.0
102
RTVSPost2010PropOp52
 70
     0
102
RTVSPost2010Prop53
 90
        2
102
RTVSPost2010PropOp53
 70
     1
102
RTVSPost2010Prop54
  1
strokes_ogs.tif
102
RTVSPost2010PropOp54
 70
     1
102
RTVSPost2010Prop55
280
     0
102
RTVSPost2010PropOp55
 70
     1
102
RTVSPost2010Prop56
140
1.0
102
RTVSPost2010PropOp56
 70
     1
102
RTVSPost2010Prop57
140
1.0
102
RTVSPost2010PropOp57
 70
     1
  0
XRECORD
  5
1D0
102
{ACAD_REACTORS
330
1CF
102
}
330
1CF
100
AcDbXrecord
280
     1
102
RTVSPost2010Prop28
280
     0
102
RTVSPost2010PropOp28
 70
     0
102
RTVSPost2010Prop29
280
     1
102
RTVSPost2010PropOp29
 70
     0
102
RTVSPost2010Prop30
280
     1
102
RTVSPost2010PropOp30
 70
     0
102
RTVSPost2010Prop31
280
     0
102
RTVSPost2010PropOp31
 70
     0
102
RTVSPost2010Prop32
280
     0
102
RTVSPost2010PropOp32
 70
     0
102
RTVSPost2010Prop33
280
     0
102
RTVSPost2010PropOp33
 70
     0
102
RTVSPost2010Prop34
280
     0
102
RTVSPost2010PropOp34
 70
     0
102
RTVSPost2010Prop35
280
     0
102
RTVSPost2010PropOp35
 70
     0
102
RTVSPost2010Prop36
280
     0
102
RTVSPost2010PropOp36
 70
     0
102
RTVSPost2010Prop37
 90
       50
102
RTVSPost2010PropOp37
 70
     0
102
RTVSPost2010Prop38
140
0.0
102
RTVSPost2010PropOp38
 70
     0
102
RTVSPost2010Prop39
140
1.0
102
RTVSPost2010PropOp39
 70
     0
102
RTVSPost2010Prop40
 90
        0
102
RTVSPost2010PropOp40
 70
     0
102
RTVSPost2010Prop41ColorIndex
 90
       18
102
RTVSPost2010Prop41ColorRGB
 90
        0
102
RTVSPost2010PropOp41
 70
     0
102
RTVSPost2010Prop42
 90
       50
102
RTVSPost2010PropOp42
 70
     0
102
RTVSPost2010Prop43
 90
        3
102
RTVSPost2010PropOp43
 70
     0
102
RTVSPost2010Prop44ColorIndex
 90
        5
102
RTVSPost2010Prop44ColorRGB
 90
      255
102
RTVSPost2010PropOp44
 70
     0
102
RTVSPost2010Prop45
280
     0
102
RTVSPost2010PropOp45
 70
     0
102
RTVSPost2010Prop46
 90
       50
102
RTVSPost2010PropOp46
 70
     0
102
RTVSPost2010Prop47
 90
       50
102
RTVSPost2010PropOp47
 70
     0
102
RTVSPost2010Prop48
 90
       50
102
RTVSPost2010PropOp48
 70
     0
102
RTVSPost2010Prop49
280
     0
102
RTVSPost2010PropOp49
 70
     0
102
RTVSPost2010Prop50
 90
       50
102
RTVSPost2010PropOp50
 70
     0
102
RTVSPost2010Prop51ColorIndex
 90
      256
102
RTVSPost2010Prop51ColorRGB
 90
-16777216
102
RTVSPost2010PropOp51
 70
     0
102
RTVSPost2010Prop52
140
1.0
102
RTVSPost2010PropOp52
 70
     0
102
RTVSPost2010Prop53
 90
        2
102
RTVSPost2010PropOp53
 70
     0
102
RTVSPost2010Prop54
  1
strokes_ogs.tif
102
RTVSPost2010PropOp54
 70
     0
102
RTVSPost2010Prop55
280
     0
102
RTVSPost2010PropOp55
 70
     0
102
RTVSPost2010Prop56
140
1.0
102
RTVSPost2010PropOp56
 70
     0
102
RTVSPost2010Prop57
140
1.0
102
RTVSPost2010PropOp57
 70
     0
  0
XRECORD
  5
1BE
102
{ACAD_REACTORS
330
1BD
102
}
330
1BD
100
AcDbXrecord
280
     1
102
RTVSPost2010Prop28
280
     0
102
RTVSPost2010PropOp28
 70
     1
102
RTVSPost2010Prop29
280
     1
102
RTVSPost2010PropOp29
 70
     1
102
RTVSPost2010Prop30
280
     1
102
RTVSPost2010PropOp30
 70
     1
102
RTVSPost2010Prop31
280
     0
102
RTVSPost2010PropOp31
 70
     1
102
RTVSPost2010Prop32
280
     0
102
RTVSPost2010PropOp32
 70
     1
102
RTVSPost2010Prop33
280
     0
102
RTVSPost2010PropOp33
 70
     1
102
RTVSPost2010Prop34
280
     0
102
RTVSPost2010PropOp34
 70
     1
102
RTVSPost2010Prop35
280
     0
102
RTVSPost2010PropOp35
 70
     1
102
RTVSPost2010Prop36
280
     0
102
RTVSPost2010PropOp36
 70
     1
102
RTVSPost2010Prop37
 90
       50
102
RTVSPost2010PropOp37
 70
     1
102
RTVSPost2010Prop38
140
0.0
102
RTVSPost2010PropOp38
 70
     1
102
RTVSPost2010Prop39
140
1.0
102
RTVSPost2010PropOp39
 70
     1
102
RTVSPost2010Prop40
 90
        0
102
RTVSPost2010PropOp40
 70
     1
102
RTVSPost2010Prop41ColorIndex
 90
       18
102
RTVSPost2010Prop41ColorRGB
 90
        0
102
RTVSPost2010PropOp41
 70
     1
102
RTVSPost2010Prop42
 90
       50
102
RTVSPost2010PropOp42
 70
     1
102
RTVSPost2010Prop43
 90
        3
102
RTVSPost2010PropOp43
 70
     1
102
RTVSPost2010Prop44ColorIndex
 90
        5
102
RTVSPost2010Prop44ColorRGB
 90
      255
102
RTVSPost2010PropOp44
 70
     1
102
RTVSPost2010Prop45
280
     0
102
RTVSPost2010PropOp45
 70
     1
102
RTVSPost2010Prop46
 90
       50
102
RTVSPost2010PropOp46
 70
     1
102
RTVSPost2010Prop47
 90
       50
102
RTVSPost2010PropOp47
 70
     1
102
RTVSPost2010Prop48
 90
       50
102
RTVSPost2010PropOp48
 70
     1
102
RTVSPost2010Prop49
280
     0
102
RTVSPost2010PropOp49
 70
     1
102
RTVSPost2010Prop50
 90
       50
102
RTVSPost2010PropOp50
 70
     1
102
RTVSPost2010Prop51ColorIndex
 90
      256
102
RTVSPost2010Prop51ColorRGB
 90
-16777216
102
RTVSPost2010PropOp51
 70
     0
102
RTVSPost2010Prop52
140
1.0
102
RTVSPost2010PropOp52
 70
     0
102
RTVSPost2010Prop53
 90
        2
102
RTVSPost2010PropOp53
 70
     1
102
RTVSPost2010Prop54
  1
strokes_ogs.tif
102
RTVSPost2010PropOp54
 70
     1
102
RTVSPost2010Prop55
280
     0
102
RTVSPost2010PropOp55
 70
     1
102
RTVSPost2010Prop56
140
1.0
102
RTVSPost2010PropOp56
 70
     1
102
RTVSPost2010Prop57
140
1.0
102
RTVSPost2010PropOp57
 70
     1
  0
XRECORD
  5
1A2
102
{ACAD_REACTORS
330
1A1
102
}
330
1A1
100
AcDbXrecord
280
     1
102
RTVSPost2010Prop28
280
     0
102
RTVSPost2010PropOp28
 70
     1
102
RTVSPost2010Prop29
280
     1
102
RTVSPost2010PropOp29
 70
     1
102
RTVSPost2010Prop30
280
     1
102
RTVSPost2010PropOp30
 70
     1
102
RTVSPost2010Prop31
280
     0
102
RTVSPost2010PropOp31
 70
     1
102
RTVSPost2010Prop32
280
     0
102
RTVSPost2010PropOp32
 70
     1
102
RTVSPost2010Prop33
280
     0
102
RTVSPost2010PropOp33
 70
     1
102
RTVSPost2010Prop34
280
     0
102
RTVSPost2010PropOp34
 70
     1
102
RTVSPost2010Prop35
280
     0
102
RTVSPost2010PropOp35
 70
     1
102
RTVSPost2010Prop36
280
     0
102
RTVSPost2010PropOp36
 70
     1
102
RTVSPost2010Prop37
 90
       50
102
RTVSPost2010PropOp37
 70
     1
102
RTVSPost2010Prop38
140
0.0
102
RTVSPost2010PropOp38
 70
     1
102
RTVSPost2010Prop39
140
1.0
102
RTVSPost2010PropOp39
 70
     1
102
RTVSPost2010Prop40
 90
        0
102
RTVSPost2010PropOp40
 70
     1
102
RTVSPost2010Prop41ColorIndex
 90
       18
102
RTVSPost2010Prop41ColorRGB
 90
        0
102
RTVSPost2010PropOp41
 70
     1
102
RTVSPost2010Prop42
 90
       50
102
RTVSPost2010PropOp42
 70
     1
102
RTVSPost2010Prop43
 90
        3
102
RTVSPost2010PropOp43
 70
     1
102
RTVSPost2010Prop44ColorIndex
 90
        5
102
RTVSPost2010Prop44ColorRGB
 90
      255
102
RTVSPost2010PropOp44
 70
     1
102
RTVSPost2010Prop45
280
     0
102
RTVSPost2010PropOp45
 70
     1
102
RTVSPost2010Prop46
 90
       50
102
RTVSPost2010PropOp46
 70
     1
102
RTVSPost2010Prop47
 90
       50
102
RTVSPost2010PropOp47
 70
     1
102
RTVSPost2010Prop48
 90
       50
102
RTVSPost2010PropOp48
 70
     1
102
RTVSPost2010Prop49
280
     0
102
RTVSPost2010PropOp49
 70
     1
102
RTVSPost2010Prop50
 90
       50
102
RTVSPost2010PropOp50
 70
     1
102
RTVSPost2010Prop51ColorIndex
 90
      256
102
RTVSPost2010Prop51ColorRGB
 90
-16777216
102
RTVSPost2010PropOp51
 70
     0
102
RTVSPost2010Prop52
140
1.0
102
RTVSPost2010PropOp52
 70
     0
102
RTVSPost2010Prop53
 90
        2
102
RTVSPost2010PropOp53
 70
     1
102
RTVSPost2010Prop54
  1
strokes_ogs.tif
102
RTVSPost2010PropOp54
 70
     1
102
RTVSPost2010Prop55
280
     0
102
RTVSPost2010PropOp55
 70
     1
102
RTVSPost2010Prop56
140
1.0
102
RTVSPost2010PropOp56
 70
     1
102
RTVSPost2010Prop57
140
1.0
102
RTVSPost2010PropOp57
 70
     1
  0
XRECORD
  5
1A4
102
{ACAD_REACTORS
330
1A3
102
}
330
1A3
100
AcDbXrecord
280
     1
102
RTVSPost2010Prop28
280
     0
102
RTVSPost2010PropOp28
 70
     1
102
RTVSPost2010Prop29
280
     1
102
RTVSPost2010PropOp29
 70
     1
102
RTVSPost2010Prop30
280
     1
102
RTVSPost2010PropOp30
 70
     1
102
RTVSPost2010Prop31
280
     0
102
RTVSPost2010PropOp31
 70
     1
102
RTVSPost2010Prop32
280
     0
102
RTVSPost2010PropOp32
 70
     1
102
RTVSPost2010Prop33
280
     0
102
RTVSPost2010PropOp33
 70
     1
102
RTVSPost2010Prop34
280
     0
102
RTVSPost2010PropOp34
 70
     1
102
RTVSPost2010Prop35
280
     0
102
RTVSPost2010PropOp35
 70
     1
102
RTVSPost2010Prop36
280
     0
102
RTVSPost2010PropOp36
 70
     1
102
RTVSPost2010Prop37
 90
       50
102
RTVSPost2010PropOp37
 70
     1
102
RTVSPost2010Prop38
140
0.0
102
RTVSPost2010PropOp38
 70
     1
102
RTVSPost2010Prop39
140
1.0
102
RTVSPost2010PropOp39
 70
     1
102
RTVSPost2010Prop40
 90
        0
102
RTVSPost2010PropOp40
 70
     1
102
RTVSPost2010Prop41ColorIndex
 90
       18
102
RTVSPost2010Prop41ColorRGB
 90
        0
102
RTVSPost2010PropOp41
 70
     1
102
RTVSPost2010Prop42
 90
       50
102
RTVSPost2010PropOp42
 70
     1
102
RTVSPost2010Prop43
 90
        3
102
RTVSPost2010PropOp43
 70
     1
102
RTVSPost2010Prop44ColorIndex
 90
        5
102
RTVSPost2010Prop44ColorRGB
 90
      255
102
RTVSPost2010PropOp44
 70
     1
102
RTVSPost2010Prop45
280
     0
102
RTVSPost2010PropOp45
 70
     1
102
RTVSPost2010Prop46
 90
       50
102
RTVSPost2010PropOp46
 70
     1
102
RTVSPost2010Prop47
 90
       50
102
RTVSPost2010PropOp47
 70
     1
102
RTVSPost2010Prop48
 90
       50
102
RTVSPost2010PropOp48
 70
     1
102
RTVSPost2010Prop49
280
     0
102
RTVSPost2010PropOp49
 70
     1
102
RTVSPost2010Prop50
 90
       50
102
RTVSPost2010PropOp50
 70
     1
102
RTVSPost2010Prop51ColorIndex
 90
      256
102
RTVSPost2010Prop51ColorRGB
 90
-16777216
102
RTVSPost2010PropOp51
 70
     0
102
RTVSPost2010Prop52
140
1.0
102
RTVSPost2010PropOp52
 70
     0
102
RTVSPost2010Prop53
 90
        2
102
RTVSPost2010PropOp53
 70
     1
102
RTVSPost2010Prop54
  1
strokes_ogs.tif
102
RTVSPost2010PropOp54
 70
     1
102
RTVSPost2010Prop55
280
     0
102
RTVSPost2010PropOp55
 70
     1
102
RTVSPost2010Prop56
140
1.0
102
RTVSPost2010PropOp56
 70
     1
102
RTVSPost2010Prop57
140
1.0
102
RTVSPost2010PropOp57
 70
     1
  0
XRECORD
  5
1A6
102
{ACAD_REACTORS
330
1A5
102
}
330
1A5
100
AcDbXrecord
280
     1
102
RTVSPost2010Prop28
280
     0
102
RTVSPost2010PropOp28
 70
     1
102
RTVSPost2010Prop29
280
     1
102
RTVSPost2010PropOp29
 70
     1
102
RTVSPost2010Prop30
280
     1
102
RTVSPost2010PropOp30
 70
     1
102
RTVSPost2010Prop31
280
     0
102
RTVSPost2010PropOp31
 70
     1
102
RTVSPost2010Prop32
280
     0
102
RTVSPost2010PropOp32
 70
     1
102
RTVSPost2010Prop33
280
     0
102
RTVSPost2010PropOp33
 70
     1
102
RTVSPost2010Prop34
280
     0
102
RTVSPost2010PropOp34
 70
     1
102
RTVSPost2010Prop35
280
     0
102
RTVSPost2010PropOp35
 70
     1
102
RTVSPost2010Prop36
280
     0
102
RTVSPost2010PropOp36
 70
     1
102
RTVSPost2010Prop37
 90
       50
102
RTVSPost2010PropOp37
 70
     1
102
RTVSPost2010Prop38
140
0.0
102
RTVSPost2010PropOp38
 70
     1
102
RTVSPost2010Prop39
140
1.0
102
RTVSPost2010PropOp39
 70
     1
102
RTVSPost2010Prop40
 90
        0
102
RTVSPost2010PropOp40
 70
     1
102
RTVSPost2010Prop41ColorIndex
 90
       18
102
RTVSPost2010Prop41ColorRGB
 90
        0
102
RTVSPost2010PropOp41
 70
     1
102
RTVSPost2010Prop42
 90
       50
102
RTVSPost2010PropOp42
 70
     1
102
RTVSPost2010Prop43
 90
        3
102
RTVSPost2010PropOp43
 70
     1
102
RTVSPost2010Prop44ColorIndex
 90
        5
102
RTVSPost2010Prop44ColorRGB
 90
      255
102
RTVSPost2010PropOp44
 70
     1
102
RTVSPost2010Prop45
280
     0
102
RTVSPost2010PropOp45
 70
     1
102
RTVSPost2010Prop46
 90
       50
102
RTVSPost2010PropOp46
 70
     1
102
RTVSPost2010Prop47
 90
       50
102
RTVSPost2010PropOp47
 70
     1
102
RTVSPost2010Prop48
 90
       50
102
RTVSPost2010PropOp48
 70
     1
102
RTVSPost2010Prop49
280
     0
102
RTVSPost2010PropOp49
 70
     1
102
RTVSPost2010Prop50
 90
       50
102
RTVSPost2010PropOp50
 70
     1
102
RTVSPost2010Prop51ColorIndex
 90
      256
102
RTVSPost2010Prop51ColorRGB
 90
-16777216
102
RTVSPost2010PropOp51
 70
     0
102
RTVSPost2010Prop52
140
1.0
102
RTVSPost2010PropOp52
 70
     0
102
RTVSPost2010Prop53
 90
        2
102
RTVSPost2010PropOp53
 70
     1
102
RTVSPost2010Prop54
  1
strokes_ogs.tif
102
RTVSPost2010PropOp54
 70
     1
102
RTVSPost2010Prop55
280
     0
102
RTVSPost2010PropOp55
 70
     1
102
RTVSPost2010Prop56
140
1.0
102
RTVSPost2010PropOp56
 70
     1
102
RTVSPost2010Prop57
140
1.0
102
RTVSPost2010PropOp57
 70
     1
  0
XRECORD
  5
1A8
102
{ACAD_REACTORS
330
1A7
102
}
330
1A7
100
AcDbXrecord
280
     1
102
RTVSPost2010Prop28
280
     0
102
RTVSPost2010PropOp28
 70
     1
102
RTVSPost2010Prop29
280
     1
102
RTVSPost2010PropOp29
 70
     1
102
RTVSPost2010Prop30
280
     1
102
RTVSPost2010PropOp30
 70
     1
102
RTVSPost2010Prop31
280
     0
102
RTVSPost2010PropOp31
 70
     1
102
RTVSPost2010Prop32
280
     0
102
RTVSPost2010PropOp32
 70
     1
102
RTVSPost2010Prop33
280
     0
102
RTVSPost2010PropOp33
 70
     1
102
RTVSPost2010Prop34
280
     0
102
RTVSPost2010PropOp34
 70
     1
102
RTVSPost2010Prop35
280
     0
102
RTVSPost2010PropOp35
 70
     1
102
RTVSPost2010Prop36
280
     0
102
RTVSPost2010PropOp36
 70
     1
102
RTVSPost2010Prop37
 90
       50
102
RTVSPost2010PropOp37
 70
     1
102
RTVSPost2010Prop38
140
0.0
102
RTVSPost2010PropOp38
 70
     1
102
RTVSPost2010Prop39
140
1.0
102
RTVSPost2010PropOp39
 70
     1
102
RTVSPost2010Prop40
 90
        0
102
RTVSPost2010PropOp40
 70
     1
102
RTVSPost2010Prop41ColorIndex
 90
       18
102
RTVSPost2010Prop41ColorRGB
 90
        0
102
RTVSPost2010PropOp41
 70
     1
102
RTVSPost2010Prop42
 90
       50
102
RTVSPost2010PropOp42
 70
     1
102
RTVSPost2010Prop43
 90
        3
102
RTVSPost2010PropOp43
 70
     1
102
RTVSPost2010Prop44ColorIndex
 90
        5
102
RTVSPost2010Prop44ColorRGB
 90
      255
102
RTVSPost2010PropOp44
 70
     1
102
RTVSPost2010Prop45
280
     0
102
RTVSPost2010PropOp45
 70
     1
102
RTVSPost2010Prop46
 90
       50
102
RTVSPost2010PropOp46
 70
     1
102
RTVSPost2010Prop47
 90
       50
102
RTVSPost2010PropOp47
 70
     1
102
RTVSPost2010Prop48
 90
       50
102
RTVSPost2010PropOp48
 70
     1
102
RTVSPost2010Prop49
280
     0
102
RTVSPost2010PropOp49
 70
     1
102
RTVSPost2010Prop50
 90
       50
102
RTVSPost2010PropOp50
 70
     1
102
RTVSPost2010Prop51ColorIndex
 90
      256
102
RTVSPost2010Prop51ColorRGB
 90
-16777216
102
RTVSPost2010PropOp51
 70
     0
102
RTVSPost2010Prop52
140
1.0
102
RTVSPost2010PropOp52
 70
     0
102
RTVSPost2010Prop53
 90
        2
102
RTVSPost2010PropOp53
 70
     1
102
RTVSPost2010Prop54
  1
strokes_ogs.tif
102
RTVSPost2010PropOp54
 70
     1
102
RTVSPost2010Prop55
280
     0
102
RTVSPost2010PropOp55
 70
     1
102
RTVSPost2010Prop56
140
1.0
102
RTVSPost2010PropOp56
 70
     1
102
RTVSPost2010Prop57
140
1.0
102
RTVSPost2010PropOp57
 70
     1
  0
XRECORD
  5
1B0
102
{ACAD_REACTORS
330
1AF
102
}
330
1AF
100
AcDbXrecord
280
     1
102
RTVSPost2010Prop28
280
     0
102
RTVSPost2010PropOp28
 70
     1
102
RTVSPost2010Prop29
280
     1
102
RTVSPost2010PropOp29
 70
     1
102
RTVSPost2010Prop30
280
     1
102
RTVSPost2010PropOp30
 70
     1
102
RTVSPost2010Prop31
280
     0
102
RTVSPost2010PropOp31
 70
     1
102
RTVSPost2010Prop32
280
     0
102
RTVSPost2010PropOp32
 70
     1
102
RTVSPost2010Prop33
280
     0
102
RTVSPost2010PropOp33
 70
     1
102
RTVSPost2010Prop34
280
     0
102
RTVSPost2010PropOp34
 70
     1
102
RTVSPost2010Prop35
280
     0
102
RTVSPost2010PropOp35
 70
     1
102
RTVSPost2010Prop36
280
     0
102
RTVSPost2010PropOp36
 70
     1
102
RTVSPost2010Prop37
 90
       50
102
RTVSPost2010PropOp37
 70
     1
102
RTVSPost2010Prop38
140
0.0
102
RTVSPost2010PropOp38
 70
     1
102
RTVSPost2010Prop39
140
1.0
102
RTVSPost2010PropOp39
 70
     1
102
RTVSPost2010Prop40
 90
        0
102
RTVSPost2010PropOp40
 70
     1
102
RTVSPost2010Prop41ColorIndex
 90
       18
102
RTVSPost2010Prop41ColorRGB
 90
        0
102
RTVSPost2010PropOp41
 70
     1
102
RTVSPost2010Prop42
 90
       50
102
RTVSPost2010PropOp42
 70
     1
102
RTVSPost2010Prop43
 90
        3
102
RTVSPost2010PropOp43
 70
     1
102
RTVSPost2010Prop44ColorIndex
 90
        5
102
RTVSPost2010Prop44ColorRGB
 90
      255
102
RTVSPost2010PropOp44
 70
     1
102
RTVSPost2010Prop45
280
     0
102
RTVSPost2010PropOp45
 70
     1
102
RTVSPost2010Prop46
 90
       50
102
RTVSPost2010PropOp46
 70
     1
102
RTVSPost2010Prop47
 90
       50
102
RTVSPost2010PropOp47
 70
     1
102
RTVSPost2010Prop48
 90
       50
102
RTVSPost2010PropOp48
 70
     1
102
RTVSPost2010Prop49
280
     0
102
RTVSPost2010PropOp49
 70
     1
102
RTVSPost2010Prop50
 90
       50
102
RTVSPost2010PropOp50
 70
     1
102
RTVSPost2010Prop51ColorIndex
 90
      256
102
RTVSPost2010Prop51ColorRGB
 90
-16777216
102
RTVSPost2010PropOp51
 70
     0
102
RTVSPost2010Prop52
140
1.0
102
RTVSPost2010PropOp52
 70
     0
102
RTVSPost2010Prop53
 90
        2
102
RTVSPost2010PropOp53
 70
     1
102
RTVSPost2010Prop54
  1
strokes_ogs.tif
102
RTVSPost2010PropOp54
 70
     1
102
RTVSPost2010Prop55
280
     0
102
RTVSPost2010PropOp55
 70
     1
102
RTVSPost2010Prop56
140
1.0
102
RTVSPost2010PropOp56
 70
     1
102
RTVSPost2010Prop57
140
1.0
102
RTVSPost2010PropOp57
 70
     1
  0
XRECORD
  5
1CC
102
{ACAD_REACTORS
330
1CB
102
}
330
1CB
100
AcDbXrecord
280
     1
102
RTVSPost2010Prop28
280
     0
102
RTVSPost2010PropOp28
 70
     0
102
RTVSPost2010Prop29
280
     1
102
RTVSPost2010PropOp29
 70
     0
102
RTVSPost2010Prop30
280
     1
102
RTVSPost2010PropOp30
 70
     0
102
RTVSPost2010Prop31
280
     0
102
RTVSPost2010PropOp31
 70
     0
102
RTVSPost2010Prop32
280
     0
102
RTVSPost2010PropOp32
 70
     0
102
RTVSPost2010Prop33
280
     0
102
RTVSPost2010PropOp33
 70
     0
102
RTVSPost2010Prop34
280
     0
102
RTVSPost2010PropOp34
 70
     0
102
RTVSPost2010Prop35
280
     0
102
RTVSPost2010PropOp35
 70
     0
102
RTVSPost2010Prop36
280
     0
102
RTVSPost2010PropOp36
 70
     0
102
RTVSPost2010Prop37
 90
       50
102
RTVSPost2010PropOp37
 70
     0
102
RTVSPost2010Prop38
140
0.0
102
RTVSPost2010PropOp38
 70
     0
102
RTVSPost2010Prop39
140
1.0
102
RTVSPost2010PropOp39
 70
     0
102
RTVSPost2010Prop40
 90
        0
102
RTVSPost2010PropOp40
 70
     0
102
RTVSPost2010Prop41ColorIndex
 90
       18
102
RTVSPost2010Prop41ColorRGB
 90
        0
102
RTVSPost2010PropOp41
 70
     0
102
RTVSPost2010Prop42
 90
       50
102
RTVSPost2010PropOp42
 70
     0
102
RTVSPost2010Prop43
 90
        3
102
RTVSPost2010PropOp43
 70
     0
102
RTVSPost2010Prop44ColorIndex
 90
        5
102
RTVSPost2010Prop44ColorRGB
 90
      255
102
RTVSPost2010PropOp44
 70
     0
102
RTVSPost2010Prop45
280
     0
102
RTVSPost2010PropOp45
 70
     0
102
RTVSPost2010Prop46
 90
       50
102
RTVSPost2010PropOp46
 70
     0
102
RTVSPost2010Prop47
 90
       50
102
RTVSPost2010PropOp47
 70
     0
102
RTVSPost2010Prop48
 90
       50
102
RTVSPost2010PropOp48
 70
     0
102
RTVSPost2010Prop49
280
     0
102
RTVSPost2010PropOp49
 70
     0
102
RTVSPost2010Prop50
 90
       50
102
RTVSPost2010PropOp50
 70
     0
102
RTVSPost2010Prop51ColorIndex
 90
      256
102
RTVSPost2010Prop51ColorRGB
 90
-16777216
102
RTVSPost2010PropOp51
 70
     0
102
RTVSPost2010Prop52
140
1.0
102
RTVSPost2010PropOp52
 70
     0
102
RTVSPost2010Prop53
 90
        2
102
RTVSPost2010PropOp53
 70
     0
102
RTVSPost2010Prop54
  1
strokes_ogs.tif
102
RTVSPost2010PropOp54
 70
     0
102
RTVSPost2010Prop55
280
     0
102
RTVSPost2010PropOp55
 70
     0
102
RTVSPost2010Prop56
140
1.0
102
RTVSPost2010PropOp56
 70
     0
102
RTVSPost2010Prop57
140
1.0
102
RTVSPost2010PropOp57
 70
     0
  0
XRECORD
  5
1BC
102
{ACAD_REACTORS
330
1BB
102
}
330
1BB
100
AcDbXrecord
280
     1
102
RTVSPost2010Prop28
280
     0
102
RTVSPost2010PropOp28
 70
     1
102
RTVSPost2010Prop29
280
     1
102
RTVSPost2010PropOp29
 70
     1
102
RTVSPost2010Prop30
280
     1
102
RTVSPost2010PropOp30
 70
     1
102
RTVSPost2010Prop31
280
     0
102
RTVSPost2010PropOp31
 70
     1
102
RTVSPost2010Prop32
280
     0
102
RTVSPost2010PropOp32
 70
     1
102
RTVSPost2010Prop33
280
     0
102
RTVSPost2010PropOp33
 70
     1
102
RTVSPost2010Prop34
280
     0
102
RTVSPost2010PropOp34
 70
     1
102
RTVSPost2010Prop35
280
     0
102
RTVSPost2010PropOp35
 70
     1
102
RTVSPost2010Prop36
280
     0
102
RTVSPost2010PropOp36
 70
     1
102
RTVSPost2010Prop37
 90
       50
102
RTVSPost2010PropOp37
 70
     1
102
RTVSPost2010Prop38
140
0.0
102
RTVSPost2010PropOp38
 70
     1
102
RTVSPost2010Prop39
140
1.0
102
RTVSPost2010PropOp39
 70
     1
102
RTVSPost2010Prop40
 90
        0
102
RTVSPost2010PropOp40
 70
     1
102
RTVSPost2010Prop41ColorIndex
 90
       18
102
RTVSPost2010Prop41ColorRGB
 90
        0
102
RTVSPost2010PropOp41
 70
     1
102
RTVSPost2010Prop42
 90
       50
102
RTVSPost2010PropOp42
 70
     1
102
RTVSPost2010Prop43
 90
        3
102
RTVSPost2010PropOp43
 70
     1
102
RTVSPost2010Prop44ColorIndex
 90
        5
102
RTVSPost2010Prop44ColorRGB
 90
      255
102
RTVSPost2010PropOp44
 70
     1
102
RTVSPost2010Prop45
280
     0
102
RTVSPost2010PropOp45
 70
     1
102
RTVSPost2010Prop46
 90
       50
102
RTVSPost2010PropOp46
 70
     1
102
RTVSPost2010Prop47
 90
       50
102
RTVSPost2010PropOp47
 70
     1
102
RTVSPost2010Prop48
 90
       50
102
RTVSPost2010PropOp48
 70
     1
102
RTVSPost2010Prop49
280
     0
102
RTVSPost2010PropOp49
 70
     1
102
RTVSPost2010Prop50
 90
       50
102
RTVSPost2010PropOp50
 70
     1
102
RTVSPost2010Prop51ColorIndex
 90
      256
102
RTVSPost2010Prop51ColorRGB
 90
-16777216
102
RTVSPost2010PropOp51
 70
     0
102
RTVSPost2010Prop52
140
1.0
102
RTVSPost2010PropOp52
 70
     0
102
RTVSPost2010Prop53
 90
        2
102
RTVSPost2010PropOp53
 70
     1
102
RTVSPost2010Prop54
  1
strokes_ogs.tif
102
RTVSPost2010PropOp54
 70
     1
102
RTVSPost2010Prop55
280
     0
102
RTVSPost2010PropOp55
 70
     1
102
RTVSPost2010Prop56
140
1.0
102
RTVSPost2010PropOp56
 70
     1
102
RTVSPost2010Prop57
140
1.0
102
RTVSPost2010PropOp57
 70
     1
  0
XRECORD
  5
1CE
102
{ACAD_REACTORS
330
1CD
102
}
330
1CD
100
AcDbXrecord
280
     1
102
RTVSPost2010Prop28
280
     0
102
RTVSPost2010PropOp28
 70
     0
102
RTVSPost2010Prop29
280
     1
102
RTVSPost2010PropOp29
 70
     0
102
RTVSPost2010Prop30
280
     1
102
RTVSPost2010PropOp30
 70
     0
102
RTVSPost2010Prop31
280
     0
102
RTVSPost2010PropOp31
 70
     0
102
RTVSPost2010Prop32
280
     0
102
RTVSPost2010PropOp32
 70
     0
102
RTVSPost2010Prop33
280
     0
102
RTVSPost2010PropOp33
 70
     0
102
RTVSPost2010Prop34
280
     0
102
RTVSPost2010PropOp34
 70
     0
102
RTVSPost2010Prop35
280
     0
102
RTVSPost2010PropOp35
 70
     0
102
RTVSPost2010Prop36
280
     0
102
RTVSPost2010PropOp36
 70
     0
102
RTVSPost2010Prop37
 90
       50
102
RTVSPost2010PropOp37
 70
     0
102
RTVSPost2010Prop38
140
0.0
102
RTVSPost2010PropOp38
 70
     0
102
RTVSPost2010Prop39
140
1.0
102
RTVSPost2010PropOp39
 70
     0
102
RTVSPost2010Prop40
 90
        0
102
RTVSPost2010PropOp40
 70
     0
102
RTVSPost2010Prop41ColorIndex
 90
       18
102
RTVSPost2010Prop41ColorRGB
 90
        0
102
RTVSPost2010PropOp41
 70
     0
102
RTVSPost2010Prop42
 90
       50
102
RTVSPost2010PropOp42
 70
     0
102
RTVSPost2010Prop43
 90
        3
102
RTVSPost2010PropOp43
 70
     0
102
RTVSPost2010Prop44ColorIndex
 90
        5
102
RTVSPost2010Prop44ColorRGB
 90
      255
102
RTVSPost2010PropOp44
 70
     0
102
RTVSPost2010Prop45
280
     0
102
RTVSPost2010PropOp45
 70
     0
102
RTVSPost2010Prop46
 90
       50
102
RTVSPost2010PropOp46
 70
     0
102
RTVSPost2010Prop47
 90
       50
102
RTVSPost2010PropOp47
 70
     0
102
RTVSPost2010Prop48
 90
       50
102
RTVSPost2010PropOp48
 70
     0
102
RTVSPost2010Prop49
280
     0
102
RTVSPost2010PropOp49
 70
     0
102
RTVSPost2010Prop50
 90
       50
102
RTVSPost2010PropOp50
 70
     0
102
RTVSPost2010Prop51ColorIndex
 90
      256
102
RTVSPost2010Prop51ColorRGB
 90
-16777216
102
RTVSPost2010PropOp51
 70
     0
102
RTVSPost2010Prop52
140
1.0
102
RTVSPost2010PropOp52
 70
     0
102
RTVSPost2010Prop53
 90
        2
102
RTVSPost2010PropOp53
 70
     0
102
RTVSPost2010Prop54
  1
strokes_ogs.tif
102
RTVSPost2010PropOp54
 70
     0
102
RTVSPost2010Prop55
280
     0
102
RTVSPost2010PropOp55
 70
     0
102
RTVSPost2010Prop56
140
1.0
102
RTVSPost2010PropOp56
 70
     0
102
RTVSPost2010Prop57
140
1.0
102
RTVSPost2010PropOp57
 70
     0
  0
XRECORD
  5
1B4
102
{ACAD_REACTORS
330
1B3
102
}
330
1B3
100
AcDbXrecord
280
     1
102
RTVSPost2010Prop28
280
     0
102
RTVSPost2010PropOp28
 70
     1
102
RTVSPost2010Prop29
280
     1
102
RTVSPost2010PropOp29
 70
     1
102
RTVSPost2010Prop30
280
     1
102
RTVSPost2010PropOp30
 70
     1
102
RTVSPost2010Prop31
280
     0
102
RTVSPost2010PropOp31
 70
     1
102
RTVSPost2010Prop32
280
     0
102
RTVSPost2010PropOp32
 70
     1
102
RTVSPost2010Prop33
280
     0
102
RTVSPost2010PropOp33
 70
     1
102
RTVSPost2010Prop34
280
     0
102
RTVSPost2010PropOp34
 70
     1
102
RTVSPost2010Prop35
280
     0
102
RTVSPost2010PropOp35
 70
     1
102
RTVSPost2010Prop36
280
     0
102
RTVSPost2010PropOp36
 70
     1
102
RTVSPost2010Prop37
 90
       50
102
RTVSPost2010PropOp37
 70
     1
102
RTVSPost2010Prop38
140
0.0
102
RTVSPost2010PropOp38
 70
     1
102
RTVSPost2010Prop39
140
1.0
102
RTVSPost2010PropOp39
 70
     1
102
RTVSPost2010Prop40
 90
        0
102
RTVSPost2010PropOp40
 70
     1
102
RTVSPost2010Prop41ColorIndex
 90
       18
102
RTVSPost2010Prop41ColorRGB
 90
        0
102
RTVSPost2010PropOp41
 70
     1
102
RTVSPost2010Prop42
 90
       50
102
RTVSPost2010PropOp42
 70
     1
102
RTVSPost2010Prop43
 90
        3
102
RTVSPost2010PropOp43
 70
     1
102
RTVSPost2010Prop44ColorIndex
 90
        5
102
RTVSPost2010Prop44ColorRGB
 90
      255
102
RTVSPost2010PropOp44
 70
     1
102
RTVSPost2010Prop45
280
     0
102
RTVSPost2010PropOp45
 70
     1
102
RTVSPost2010Prop46
 90
       50
102
RTVSPost2010PropOp46
 70
     1
102
RTVSPost2010Prop47
 90
       50
102
RTVSPost2010PropOp47
 70
     1
102
RTVSPost2010Prop48
 90
       50
102
RTVSPost2010PropOp48
 70
     1
102
RTVSPost2010Prop49
280
     0
102
RTVSPost2010PropOp49
 70
     1
102
RTVSPost2010Prop50
 90
       50
102
RTVSPost2010PropOp50
 70
     1
102
RTVSPost2010Prop51ColorIndex
 90
      256
102
RTVSPost2010Prop51ColorRGB
 90
-16777216
102
RTVSPost2010PropOp51
 70
     0
102
RTVSPost2010Prop52
140
1.0
102
RTVSPost2010PropOp52
 70
     0
102
RTVSPost2010Prop53
 90
        2
102
RTVSPost2010PropOp53
 70
     1
102
RTVSPost2010Prop54
  1
strokes_ogs.tif
102
RTVSPost2010PropOp54
 70
     1
102
RTVSPost2010Prop55
280
     0
102
RTVSPost2010PropOp55
 70
     1
102
RTVSPost2010Prop56
140
1.0
102
RTVSPost2010PropOp56
 70
     1
102
RTVSPost2010Prop57
140
1.0
102
RTVSPost2010PropOp57
 70
     1
  0
XRECORD
  5
1CA
102
{ACAD_REACTORS
330
1C9
102
}
330
1C9
100
AcDbXrecord
280
     1
102
RTVSPost2010Prop28
280
     0
102
RTVSPost2010PropOp28
 70
     1
102
RTVSPost2010Prop29
280
     1
102
RTVSPost2010PropOp29
 70
     1
102
RTVSPost2010Prop30
280
     1
102
RTVSPost2010PropOp30
 70
     1
102
RTVSPost2010Prop31
280
     0
102
RTVSPost2010PropOp31
 70
     1
102
RTVSPost2010Prop32
280
     0
102
RTVSPost2010PropOp32
 70
     1
102
RTVSPost2010Prop33
280
     0
102
RTVSPost2010PropOp33
 70
     1
102
RTVSPost2010Prop34
280
     0
102
RTVSPost2010PropOp34
 70
     1
102
RTVSPost2010Prop35
280
     0
102
RTVSPost2010PropOp35
 70
     1
102
RTVSPost2010Prop36
280
     0
102
RTVSPost2010PropOp36
 70
     1
102
RTVSPost2010Prop37
 90
       50
102
RTVSPost2010PropOp37
 70
     1
102
RTVSPost2010Prop38
140
0.0
102
RTVSPost2010PropOp38
 70
     1
102
RTVSPost2010Prop39
140
1.0
102
RTVSPost2010PropOp39
 70
     1
102
RTVSPost2010Prop40
 90
        0
102
RTVSPost2010PropOp40
 70
     1
102
RTVSPost2010Prop41ColorIndex
 90
       18
102
RTVSPost2010Prop41ColorRGB
 90
        0
102
RTVSPost2010PropOp41
 70
     1
102
RTVSPost2010Prop42
 90
       50
102
RTVSPost2010PropOp42
 70
     1
102
RTVSPost2010Prop43
 90
        3
102
RTVSPost2010PropOp43
 70
     1
102
RTVSPost2010Prop44ColorIndex
 90
        5
102
RTVSPost2010Prop44ColorRGB
 90
      255
102
RTVSPost2010PropOp44
 70
     1
102
RTVSPost2010Prop45
280
     0
102
RTVSPost2010PropOp45
 70
     1
102
RTVSPost2010Prop46
 90
       50
102
RTVSPost2010PropOp46
 70
     1
102
RTVSPost2010Prop47
 90
       50
102
RTVSPost2010PropOp47
 70
     1
102
RTVSPost2010Prop48
 90
       50
102
RTVSPost2010PropOp48
 70
     1
102
RTVSPost2010Prop49
280
     0
102
RTVSPost2010PropOp49
 70
     1
102
RTVSPost2010Prop50
 90
       50
102
RTVSPost2010PropOp50
 70
     1
102
RTVSPost2010Prop51ColorIndex
 90
      256
102
RTVSPost2010Prop51ColorRGB
 90
-16777216
102
RTVSPost2010PropOp51
 70
     0
102
RTVSPost2010Prop52
140
1.0
102
RTVSPost2010PropOp52
 70
     0
102
RTVSPost2010Prop53
 90
        2
102
RTVSPost2010PropOp53
 70
     1
102
RTVSPost2010Prop54
  1
strokes_ogs.tif
102
RTVSPost2010PropOp54
 70
     1
102
RTVSPost2010Prop55
280
     0
102
RTVSPost2010PropOp55
 70
     1
102
RTVSPost2010Prop56
140
1.0
102
RTVSPost2010PropOp56
 70
     1
102
RTVSPost2010Prop57
140
1.0
102
RTVSPost2010PropOp57
 70
     1
  0
XRECORD
  5
1C8
102
{ACAD_REACTORS
330
1C7
102
}
330
1C7
100
AcDbXrecord
280
     1
102
RTVSPost2010Prop28
280
     0
102
RTVSPost2010PropOp28
 70
     1
102
RTVSPost2010Prop29
280
     1
102
RTVSPost2010PropOp29
 70
     1
102
RTVSPost2010Prop30
280
     1
102
RTVSPost2010PropOp30
 70
     1
102
RTVSPost2010Prop31
280
     0
102
RTVSPost2010PropOp31
 70
     1
102
RTVSPost2010Prop32
280
     0
102
RTVSPost2010PropOp32
 70
     1
102
RTVSPost2010Prop33
280
     0
102
RTVSPost2010PropOp33
 70
     1
102
RTVSPost2010Prop34
280
     0
102
RTVSPost2010PropOp34
 70
     1
102
RTVSPost2010Prop35
280
     0
102
RTVSPost2010PropOp35
 70
     1
102
RTVSPost2010Prop36
280
     0
102
RTVSPost2010PropOp36
 70
     1
102
RTVSPost2010Prop37
 90
       50
102
RTVSPost2010PropOp37
 70
     1
102
RTVSPost2010Prop38
140
0.0
102
RTVSPost2010PropOp38
 70
     1
102
RTVSPost2010Prop39
140
1.0
102
RTVSPost2010PropOp39
 70
     1
102
RTVSPost2010Prop40
 90
        0
102
RTVSPost2010PropOp40
 70
     1
102
RTVSPost2010Prop41ColorIndex
 90
       18
102
RTVSPost2010Prop41ColorRGB
 90
        0
102
RTVSPost2010PropOp41
 70
     1
102
RTVSPost2010Prop42
 90
       50
102
RTVSPost2010PropOp42
 70
     1
102
RTVSPost2010Prop43
 90
        3
102
RTVSPost2010PropOp43
 70
     1
102
RTVSPost2010Prop44ColorIndex
 90
        5
102
RTVSPost2010Prop44ColorRGB
 90
      255
102
RTVSPost2010PropOp44
 70
     1
102
RTVSPost2010Prop45
280
     0
102
RTVSPost2010PropOp45
 70
     1
102
RTVSPost2010Prop46
 90
       50
102
RTVSPost2010PropOp46
 70
     1
102
RTVSPost2010Prop47
 90
       50
102
RTVSPost2010PropOp47
 70
     1
102
RTVSPost2010Prop48
 90
       50
102
RTVSPost2010PropOp48
 70
     1
102
RTVSPost2010Prop49
280
     0
102
RTVSPost2010PropOp49
 70
     1
102
RTVSPost2010Prop50
 90
       50
102
RTVSPost2010PropOp50
 70
     1
102
RTVSPost2010Prop51ColorIndex
 90
      256
102
RTVSPost2010Prop51ColorRGB
 90
-16777216
102
RTVSPost2010PropOp51
 70
     0
102
RTVSPost2010Prop52
140
1.0
102
RTVSPost2010PropOp52
 70
     0
102
RTVSPost2010Prop53
 90
        2
102
RTVSPost2010PropOp53
 70
     1
102
RTVSPost2010Prop54
  1
strokes_ogs.tif
102
RTVSPost2010PropOp54
 70
     1
102
RTVSPost2010Prop55
280
     0
102
RTVSPost2010PropOp55
 70
     1
102
RTVSPost2010Prop56
140
1.0
102
RTVSPost2010PropOp56
 70
     1
102
RTVSPost2010Prop57
140
1.0
102
RTVSPost2010PropOp57
 70
     1
  0
XRECORD
  5
1C2
102
{ACAD_REACTORS
330
1C1
102
}
330
1C1
100
AcDbXrecord
280
     1
102
RTVSPost2010Prop28
280
     0
102
RTVSPost2010PropOp28
 70
     1
102
RTVSPost2010Prop29
280
     1
102
RTVSPost2010PropOp29
 70
     1
102
RTVSPost2010Prop30
280
     1
102
RTVSPost2010PropOp30
 70
     1
102
RTVSPost2010Prop31
280
     0
102
RTVSPost2010PropOp31
 70
     1
102
RTVSPost2010Prop32
280
     0
102
RTVSPost2010PropOp32
 70
     1
102
RTVSPost2010Prop33
280
     0
102
RTVSPost2010PropOp33
 70
     1
102
RTVSPost2010Prop34
280
     0
102
RTVSPost2010PropOp34
 70
     1
102
RTVSPost2010Prop35
280
     0
102
RTVSPost2010PropOp35
 70
     1
102
RTVSPost2010Prop36
280
     0
102
RTVSPost2010PropOp36
 70
     1
102
RTVSPost2010Prop37
 90
       50
102
RTVSPost2010PropOp37
 70
     1
102
RTVSPost2010Prop38
140
0.0
102
RTVSPost2010PropOp38
 70
     1
102
RTVSPost2010Prop39
140
1.0
102
RTVSPost2010PropOp39
 70
     1
102
RTVSPost2010Prop40
 90
        0
102
RTVSPost2010PropOp40
 70
     1
102
RTVSPost2010Prop41ColorIndex
 90
       18
102
RTVSPost2010Prop41ColorRGB
 90
        0
102
RTVSPost2010PropOp41
 70
     1
102
RTVSPost2010Prop42
 90
       50
102
RTVSPost2010PropOp42
 70
     1
102
RTVSPost2010Prop43
 90
        3
102
RTVSPost2010PropOp43
 70
     1
102
RTVSPost2010Prop44ColorIndex
 90
        5
102
RTVSPost2010Prop44ColorRGB
 90
      255
102
RTVSPost2010PropOp44
 70
     1
102
RTVSPost2010Prop45
280
     0
102
RTVSPost2010PropOp45
 70
     1
102
RTVSPost2010Prop46
 90
       50
102
RTVSPost2010PropOp46
 70
     1
102
RTVSPost2010Prop47
 90
       50
102
RTVSPost2010PropOp47
 70
     1
102
RTVSPost2010Prop48
 90
       50
102
RTVSPost2010PropOp48
 70
     1
102
RTVSPost2010Prop49
280
     0
102
RTVSPost2010PropOp49
 70
     1
102
RTVSPost2010Prop50
 90
       50
102
RTVSPost2010PropOp50
 70
     1
102
RTVSPost2010Prop51ColorIndex
 90
      256
102
RTVSPost2010Prop51ColorRGB
 90
-16777216
102
RTVSPost2010PropOp51
 70
     0
102
RTVSPost2010Prop52
140
1.0
102
RTVSPost2010PropOp52
 70
     0
102
RTVSPost2010Prop53
 90
        2
102
RTVSPost2010PropOp53
 70
     1
102
RTVSPost2010Prop54
  1
strokes_ogs.tif
102
RTVSPost2010PropOp54
 70
     1
102
RTVSPost2010Prop55
280
     0
102
RTVSPost2010PropOp55
 70
     1
102
RTVSPost2010Prop56
140
1.0
102
RTVSPost2010PropOp56
 70
     1
102
RTVSPost2010Prop57
140
1.0
102
RTVSPost2010PropOp57
 70
     1
  0
XRECORD
  5
1C4
102
{ACAD_REACTORS
330
1C3
102
}
330
1C3
100
AcDbXrecord
280
     1
102
RTVSPost2010Prop28
280
     0
102
RTVSPost2010PropOp28
 70
     1
102
RTVSPost2010Prop29
280
     1
102
RTVSPost2010PropOp29
 70
     1
102
RTVSPost2010Prop30
280
     1
102
RTVSPost2010PropOp30
 70
     1
102
RTVSPost2010Prop31
280
     0
102
RTVSPost2010PropOp31
 70
     1
102
RTVSPost2010Prop32
280
     0
102
RTVSPost2010PropOp32
 70
     1
102
RTVSPost2010Prop33
280
     0
102
RTVSPost2010PropOp33
 70
     1
102
RTVSPost2010Prop34
280
     0
102
RTVSPost2010PropOp34
 70
     1
102
RTVSPost2010Prop35
280
     0
102
RTVSPost2010PropOp35
 70
     1
102
RTVSPost2010Prop36
280
     0
102
RTVSPost2010PropOp36
 70
     1
102
RTVSPost2010Prop37
 90
       50
102
RTVSPost2010PropOp37
 70
     1
102
RTVSPost2010Prop38
140
0.0
102
RTVSPost2010PropOp38
 70
     1
102
RTVSPost2010Prop39
140
1.0
102
RTVSPost2010PropOp39
 70
     1
102
RTVSPost2010Prop40
 90
        0
102
RTVSPost2010PropOp40
 70
     1
102
RTVSPost2010Prop41ColorIndex
 90
       18
102
RTVSPost2010Prop41ColorRGB
 90
        0
102
RTVSPost2010PropOp41
 70
     1
102
RTVSPost2010Prop42
 90
       50
102
RTVSPost2010PropOp42
 70
     1
102
RTVSPost2010Prop43
 90
        3
102
RTVSPost2010PropOp43
 70
     1
102
RTVSPost2010Prop44ColorIndex
 90
        5
102
RTVSPost2010Prop44ColorRGB
 90
      255
102
RTVSPost2010PropOp44
 70
     1
102
RTVSPost2010Prop45
280
     0
102
RTVSPost2010PropOp45
 70
     1
102
RTVSPost2010Prop46
 90
       50
102
RTVSPost2010PropOp46
 70
     1
102
RTVSPost2010Prop47
 90
       50
102
RTVSPost2010PropOp47
 70
     1
102
RTVSPost2010Prop48
 90
       50
102
RTVSPost2010PropOp48
 70
     1
102
RTVSPost2010Prop49
280
     0
102
RTVSPost2010PropOp49
 70
     1
102
RTVSPost2010Prop50
 90
       50
102
RTVSPost2010PropOp50
 70
     1
102
RTVSPost2010Prop51ColorIndex
 90
      256
102
RTVSPost2010Prop51ColorRGB
 90
-16777216
102
RTVSPost2010PropOp51
 70
     0
102
RTVSPost2010Prop52
140
1.0
102
RTVSPost2010PropOp52
 70
     0
102
RTVSPost2010Prop53
 90
        2
102
RTVSPost2010PropOp53
 70
     1
102
RTVSPost2010Prop54
  1
strokes_ogs.tif
102
RTVSPost2010PropOp54
 70
     1
102
RTVSPost2010Prop55
280
     0
102
RTVSPost2010PropOp55
 70
     1
102
RTVSPost2010Prop56
140
1.0
102
RTVSPost2010PropOp56
 70
     1
102
RTVSPost2010Prop57
140
1.0
102
RTVSPost2010PropOp57
 70
     1
  0
XRECORD
  5
1BA
102
{ACAD_REACTORS
330
1B9
102
}
330
1B9
100
AcDbXrecord
280
     1
102
RTVSPost2010Prop28
280
     0
102
RTVSPost2010PropOp28
 70
     1
102
RTVSPost2010Prop29
280
     1
102
RTVSPost2010PropOp29
 70
     1
102
RTVSPost2010Prop30
280
     1
102
RTVSPost2010PropOp30
 70
     1
102
RTVSPost2010Prop31
280
     0
102
RTVSPost2010PropOp31
 70
     1
102
RTVSPost2010Prop32
280
     0
102
RTVSPost2010PropOp32
 70
     1
102
RTVSPost2010Prop33
280
     0
102
RTVSPost2010PropOp33
 70
     1
102
RTVSPost2010Prop34
280
     0
102
RTVSPost2010PropOp34
 70
     1
102
RTVSPost2010Prop35
280
     0
102
RTVSPost2010PropOp35
 70
     1
102
RTVSPost2010Prop36
280
     0
102
RTVSPost2010PropOp36
 70
     1
102
RTVSPost2010Prop37
 90
       50
102
RTVSPost2010PropOp37
 70
     1
102
RTVSPost2010Prop38
140
0.0
102
RTVSPost2010PropOp38
 70
     1
102
RTVSPost2010Prop39
140
1.0
102
RTVSPost2010PropOp39
 70
     1
102
RTVSPost2010Prop40
 90
        0
102
RTVSPost2010PropOp40
 70
     1
102
RTVSPost2010Prop41ColorIndex
 90
       18
102
RTVSPost2010Prop41ColorRGB
 90
        0
102
RTVSPost2010PropOp41
 70
     1
102
RTVSPost2010Prop42
 90
       50
102
RTVSPost2010PropOp42
 70
     1
102
RTVSPost2010Prop43
 90
        3
102
RTVSPost2010PropOp43
 70
     1
102
RTVSPost2010Prop44ColorIndex
 90
        5
102
RTVSPost2010Prop44ColorRGB
 90
      255
102
RTVSPost2010PropOp44
 70
     1
102
RTVSPost2010Prop45
280
     0
102
RTVSPost2010PropOp45
 70
     1
102
RTVSPost2010Prop46
 90
       50
102
RTVSPost2010PropOp46
 70
     1
102
RTVSPost2010Prop47
 90
       50
102
RTVSPost2010PropOp47
 70
     1
102
RTVSPost2010Prop48
 90
       50
102
RTVSPost2010PropOp48
 70
     1
102
RTVSPost2010Prop49
280
     0
102
RTVSPost2010PropOp49
 70
     1
102
RTVSPost2010Prop50
 90
       50
102
RTVSPost2010PropOp50
 70
     1
102
RTVSPost2010Prop51ColorIndex
 90
      256
102
RTVSPost2010Prop51ColorRGB
 90
-16777216
102
RTVSPost2010PropOp51
 70
     0
102
RTVSPost2010Prop52
140
1.0
102
RTVSPost2010PropOp52
 70
     0
102
RTVSPost2010Prop53
 90
        2
102
RTVSPost2010PropOp53
 70
     1
102
RTVSPost2010Prop54
  1
strokes_ogs.tif
102
RTVSPost2010PropOp54
 70
     1
102
RTVSPost2010Prop55
280
     0
102
RTVSPost2010PropOp55
 70
     1
102
RTVSPost2010Prop56
140
1.0
102
RTVSPost2010PropOp56
 70
     1
102
RTVSPost2010Prop57
140
1.0
102
RTVSPost2010PropOp57
 70
     1
  0
XRECORD
  5
1AE
102
{ACAD_REACTORS
330
1AD
102
}
330
1AD
100
AcDbXrecord
280
     1
102
RTVSPost2010Prop28
280
     0
102
RTVSPost2010PropOp28
 70
     1
102
RTVSPost2010Prop29
280
     1
102
RTVSPost2010PropOp29
 70
     1
102
RTVSPost2010Prop30
280
     1
102
RTVSPost2010PropOp30
 70
     1
102
RTVSPost2010Prop31
280
     0
102
RTVSPost2010PropOp31
 70
     1
102
RTVSPost2010Prop32
280
     0
102
RTVSPost2010PropOp32
 70
     1
102
RTVSPost2010Prop33
280
     0
102
RTVSPost2010PropOp33
 70
     1
102
RTVSPost2010Prop34
280
     0
102
RTVSPost2010PropOp34
 70
     1
102
RTVSPost2010Prop35
280
     0
102
RTVSPost2010PropOp35
 70
     1
102
RTVSPost2010Prop36
280
     0
102
RTVSPost2010PropOp36
 70
     1
102
RTVSPost2010Prop37
 90
       50
102
RTVSPost2010PropOp37
 70
     1
102
RTVSPost2010Prop38
140
0.0
102
RTVSPost2010PropOp38
 70
     1
102
RTVSPost2010Prop39
140
1.0
102
RTVSPost2010PropOp39
 70
     1
102
RTVSPost2010Prop40
 90
        0
102
RTVSPost2010PropOp40
 70
     1
102
RTVSPost2010Prop41ColorIndex
 90
       18
102
RTVSPost2010Prop41ColorRGB
 90
        0
102
RTVSPost2010PropOp41
 70
     1
102
RTVSPost2010Prop42
 90
       50
102
RTVSPost2010PropOp42
 70
     1
102
RTVSPost2010Prop43
 90
        3
102
RTVSPost2010PropOp43
 70
     1
102
RTVSPost2010Prop44ColorIndex
 90
        5
102
RTVSPost2010Prop44ColorRGB
 90
      255
102
RTVSPost2010PropOp44
 70
     1
102
RTVSPost2010Prop45
280
     0
102
RTVSPost2010PropOp45
 70
     1
102
RTVSPost2010Prop46
 90
       50
102
RTVSPost2010PropOp46
 70
     1
102
RTVSPost2010Prop47
 90
       50
102
RTVSPost2010PropOp47
 70
     1
102
RTVSPost2010Prop48
 90
       50
102
RTVSPost2010PropOp48
 70
     1
102
RTVSPost2010Prop49
280
     0
102
RTVSPost2010PropOp49
 70
     1
102
RTVSPost2010Prop50
 90
       50
102
RTVSPost2010PropOp50
 70
     1
102
RTVSPost2010Prop51ColorIndex
 90
      256
102
RTVSPost2010Prop51ColorRGB
 90
-16777216
102
RTVSPost2010PropOp51
 70
     0
102
RTVSPost2010Prop52
140
1.0
102
RTVSPost2010PropOp52
 70
     0
102
RTVSPost2010Prop53
 90
        2
102
RTVSPost2010PropOp53
 70
     1
102
RTVSPost2010Prop54
  1
strokes_ogs.tif
102
RTVSPost2010PropOp54
 70
     1
102
RTVSPost2010Prop55
280
     0
102
RTVSPost2010PropOp55
 70
     1
102
RTVSPost2010Prop56
140
1.0
102
RTVSPost2010PropOp56
 70
     1
102
RTVSPost2010Prop57
140
1.0
102
RTVSPost2010PropOp57
 70
     1
  0
XRECORD
  5
1C6
102
{ACAD_REACTORS
330
1C5
102
}
330
1C5
100
AcDbXrecord
280
     1
102
RTVSPost2010Prop28
280
     0
102
RTVSPost2010PropOp28
 70
     1
102
RTVSPost2010Prop29
280
     1
102
RTVSPost2010PropOp29
 70
     1
102
RTVSPost2010Prop30
280
     1
102
RTVSPost2010PropOp30
 70
     1
102
RTVSPost2010Prop31
280
     0
102
RTVSPost2010PropOp31
 70
     1
102
RTVSPost2010Prop32
280
     0
102
RTVSPost2010PropOp32
 70
     1
102
RTVSPost2010Prop33
280
     0
102
RTVSPost2010PropOp33
 70
     1
102
RTVSPost2010Prop34
280
     0
102
RTVSPost2010PropOp34
 70
     1
102
RTVSPost2010Prop35
280
     0
102
RTVSPost2010PropOp35
 70
     1
102
RTVSPost2010Prop36
280
     0
102
RTVSPost2010PropOp36
 70
     1
102
RTVSPost2010Prop37
 90
       50
102
RTVSPost2010PropOp37
 70
     1
102
RTVSPost2010Prop38
140
0.0
102
RTVSPost2010PropOp38
 70
     1
102
RTVSPost2010Prop39
140
1.0
102
RTVSPost2010PropOp39
 70
     1
102
RTVSPost2010Prop40
 90
        0
102
RTVSPost2010PropOp40
 70
     1
102
RTVSPost2010Prop41ColorIndex
 90
       18
102
RTVSPost2010Prop41ColorRGB
 90
        0
102
RTVSPost2010PropOp41
 70
     1
102
RTVSPost2010Prop42
 90
       50
102
RTVSPost2010PropOp42
 70
     1
102
RTVSPost2010Prop43
 90
        3
102
RTVSPost2010PropOp43
 70
     1
102
RTVSPost2010Prop44ColorIndex
 90
        5
102
RTVSPost2010Prop44ColorRGB
 90
      255
102
RTVSPost2010PropOp44
 70
     1
102
RTVSPost2010Prop45
280
     0
102
RTVSPost2010PropOp45
 70
     1
102
RTVSPost2010Prop46
 90
       50
102
RTVSPost2010PropOp46
 70
     1
102
RTVSPost2010Prop47
 90
       50
102
RTVSPost2010PropOp47
 70
     1
102
RTVSPost2010Prop48
 90
       50
102
RTVSPost2010PropOp48
 70
     1
102
RTVSPost2010Prop49
280
     0
102
RTVSPost2010PropOp49
 70
     1
102
RTVSPost2010Prop50
 90
       50
102
RTVSPost2010PropOp50
 70
     1
102
RTVSPost2010Prop51ColorIndex
 90
      256
102
RTVSPost2010Prop51ColorRGB
 90
-16777216
102
RTVSPost2010PropOp51
 70
     0
102
RTVSPost2010Prop52
140
1.0
102
RTVSPost2010PropOp52
 70
     0
102
RTVSPost2010Prop53
 90
        2
102
RTVSPost2010PropOp53
 70
     1
102
RTVSPost2010Prop54
  1
strokes_ogs.tif
102
RTVSPost2010PropOp54
 70
     1
102
RTVSPost2010Prop55
280
     0
102
RTVSPost2010PropOp55
 70
     1
102
RTVSPost2010Prop56
140
1.0
102
RTVSPost2010PropOp56
 70
     1
102
RTVSPost2010Prop57
140
1.0
102
RTVSPost2010PropOp57
 70
     1
  0
ENDSEC
  0
EOF
