  0
SECTION
  2
HEADER
  9
$ACADVER
  1
AC1024
  9
$ACADMAINTVER
 70
   205
  9
$DWGCODEPAGE
  3
ANSI_1251
  9
$INSBASE
 10
0.0
 20
0.0
 30
0.0
  9
$EXTMIN
 10
1.000000000000000E+20
 20
1.000000000000000E+20
 30
1.000000000000000E+20
  9
$EXTMAX
 10
-1.000000000000000E+20
 20
-1.000000000000000E+20
 30
-1.000000000000000E+20
  9
$LIMMIN
 10
0.0
 20
0.0
  9
$LIMMAX
 10
12.0
 20
9.0
  9
$ORTHOMODE
 70
     0
  9
$REGENMODE
 70
     1
  9
$FILLMODE
 70
     1
  9
$QTEXTMODE
 70
     0
  9
$MIRRTEXT
 70
     1
  9
$LTSCALE
 40
1.0
  9
$ATTMODE
 70
     1
  9
$TEXTSIZE
 40
0.2
  9
$TRACEWID
 40
0.05
  9
$TEXTSTYLE
  7
Standard
  9
$CLAYER
  8
OracDecor_cornice_mouldings
  9
$CELTYPE
  6
ByLayer
  9
$CECOLOR
 62
   256
  9
$CELTSCALE
 40
1.0
  9
$DISPSILH
 70
     0
  9
$DIMSCALE
 40
1.0
  9
$DIMASZ
 40
0.18
  9
$DIMEXO
 40
0.0625
  9
$DIMDLI
 40
0.38
  9
$DIMRND
 40
0.0
  9
$DIMDLE
 40
0.0
  9
$DIMEXE
 40
0.18
  9
$DIMTP
 40
0.0
  9
$DIMTM
 40
0.0
  9
$DIMTXT
 40
0.18
  9
$DIMCEN
 40
0.09
  9
$DIMTSZ
 40
0.0
  9
$DIMTOL
 70
     0
  9
$DIMLIM
 70
     0
  9
$DIMTIH
 70
     1
  9
$DIMTOH
 70
     1
  9
$DIMSE1
 70
     0
  9
$DIMSE2
 70
     0
  9
$DIMTAD
 70
     0
  9
$DIMZIN
 70
     0
  9
$DIMBLK
  1

  9
$DIMASO
 70
     1
  9
$DIMSHO
 70
     1
  9
$DIMPOST
  1

  9
$DIMAPOST
  1

  9
$DIMALT
 70
     0
  9
$DIMALTD
 70
     2
  9
$DIMALTF
 40
25.4
  9
$DIMLFAC
 40
1.0
  9
$DIMTOFL
 70
     0
  9
$DIMTVP
 40
0.0
  9
$DIMTIX
 70
     0
  9
$DIMSOXD
 70
     0
  9
$DIMSAH
 70
     0
  9
$DIMBLK1
  1

  9
$DIMBLK2
  1

  9
$DIMSTYLE
  2
Standard
  9
$DIMCLRD
 70
     0
  9
$DIMCLRE
 70
     0
  9
$DIMCLRT
 70
     0
  9
$DIMTFAC
 40
1.0
  9
$DIMGAP
 40
0.09
  9
$DIMJUST
 70
     0
  9
$DIMSD1
 70
     0
  9
$DIMSD2
 70
     0
  9
$DIMTOLJ
 70
     1
  9
$DIMTZIN
 70
     0
  9
$DIMALTZ
 70
     0
  9
$DIMALTTZ
 70
     0
  9
$DIMUPT
 70
     0
  9
$DIMDEC
 70
     4
  9
$DIMTDEC
 70
     4
  9
$DIMALTU
 70
     2
  9
$DIMALTTD
 70
     2
  9
$DIMTXSTY
  7
Standard
  9
$DIMAUNIT
 70
     0
  9
$DIMADEC
 70
     0
  9
$DIMALTRND
 40
0.0
  9
$DIMAZIN
 70
     0
  9
$DIMDSEP
 70
    46
  9
$DIMATFIT
 70
     3
  9
$DIMFRAC
 70
     0
  9
$DIMLDRBLK
  1

  9
$DIMLUNIT
 70
     2
  9
$DIMLWD
 70
    -2
  9
$DIMLWE
 70
    -2
  9
$DIMTMOVE
 70
     0
  9
$DIMFXL
 40
1.0
  9
$DIMFXLON
 70
     0
  9
$DIMJOGANG
 40
0.7853981633974483
  9
$DIMTFILL
 70
     0
  9
$DIMTFILLCLR
 70
     0
  9
$DIMARCSYM
 70
     0
  9
$DIMLTYPE
  6

  9
$DIMLTEX1
  6

  9
$DIMLTEX2
  6

  9
$DIMTXTDIRECTION
 70
     0
  9
$LUNITS
 70
     2
  9
$LUPREC
 70
     4
  9
$SKETCHINC
 40
0.1
  9
$FILLETRAD
 40
0.5
  9
$AUNITS
 70
     0
  9
$AUPREC
 70
     0
  9
$MENU
  1
.
  9
$ELEVATION
 40
0.0
  9
$PELEVATION
 40
0.0
  9
$THICKNESS
 40
0.0
  9
$LIMCHECK
 70
     0
  9
$CHAMFERA
 40
0.5
  9
$CHAMFERB
 40
0.5
  9
$CHAMFERC
 40
1.0
  9
$CHAMFERD
 40
0.0
  9
$SKPOLY
 70
     0
  9
$TDCREATE
 40
2451380.930432396
  9
$TDUCREATE
 40
2451380.805432396
  9
$TDUPDATE
 40
2451380.966180555
  9
$TDUUPDATE
 40
2451380.841180556
  9
$TDINDWG
 40
0.0075613426
  9
$TDUSRTIMER
 40
0.0075523032
  9
$USRTIMER
 70
     1
  9
$ANGBASE
 50
0.0
  9
$ANGDIR
 70
     0
  9
$PDMODE
 70
     0
  9
$PDSIZE
 40
0.0
  9
$PLINEWID
 40
0.0
  9
$SPLFRAME
 70
     0
  9
$SPLINETYPE
 70
     6
  9
$SPLINESEGS
 70
     8
  9
$HANDSEED
  5
1A1
  9
$SURFTAB1
 70
     6
  9
$SURFTAB2
 70
     6
  9
$SURFTYPE
 70
     6
  9
$SURFU
 70
     6
  9
$SURFV
 70
     6
  9
$UCSBASE
  2

  9
$UCSNAME
  2

  9
$UCSORG
 10
0.0
 20
0.0
 30
0.0
  9
$UCSXDIR
 10
1.0
 20
0.0
 30
0.0
  9
$UCSYDIR
 10
0.0
 20
1.0
 30
0.0
  9
$UCSORTHOREF
  2

  9
$UCSORTHOVIEW
 70
     0
  9
$UCSORGTOP
 10
0.0
 20
0.0
 30
0.0
  9
$UCSORGBOTTOM
 10
0.0
 20
0.0
 30
0.0
  9
$UCSORGLEFT
 10
0.0
 20
0.0
 30
0.0
  9
$UCSORGRIGHT
 10
0.0
 20
0.0
 30
0.0
  9
$UCSORGFRONT
 10
0.0
 20
0.0
 30
0.0
  9
$UCSORGBACK
 10
0.0
 20
0.0
 30
0.0
  9
$PUCSBASE
  2

  9
$PUCSNAME
  2

  9
$PUCSORG
 10
0.0
 20
0.0
 30
0.0
  9
$PUCSXDIR
 10
1.0
 20
0.0
 30
0.0
  9
$PUCSYDIR
 10
0.0
 20
1.0
 30
0.0
  9
$PUCSORTHOREF
  2

  9
$PUCSORTHOVIEW
 70
     0
  9
$PUCSORGTOP
 10
0.0
 20
0.0
 30
0.0
  9
$PUCSORGBOTTOM
 10
0.0
 20
0.0
 30
0.0
  9
$PUCSORGLEFT
 10
0.0
 20
0.0
 30
0.0
  9
$PUCSORGRIGHT
 10
0.0
 20
0.0
 30
0.0
  9
$PUCSORGFRONT
 10
0.0
 20
0.0
 30
0.0
  9
$PUCSORGBACK
 10
0.0
 20
0.0
 30
0.0
  9
$USERI1
 70
     0
  9
$USERI2
 70
     0
  9
$USERI3
 70
     0
  9
$USERI4
 70
     0
  9
$USERI5
 70
     0
  9
$USERR1
 40
0.0
  9
$USERR2
 40
0.0
  9
$USERR3
 40
0.0
  9
$USERR4
 40
0.0
  9
$USERR5
 40
0.0
  9
$WORLDVIEW
 70
     1
  9
$SHADEDGE
 70
     3
  9
$SHADEDIF
 70
    70
  9
$TILEMODE
 70
     1
  9
$MAXACTVP
 70
    64
  9
$PINSBASE
 10
0.0
 20
0.0
 30
0.0
  9
$PLIMCHECK
 70
     0
  9
$PEXTMIN
 10
1.000000000000000E+20
 20
1.000000000000000E+20
 30
1.000000000000000E+20
  9
$PEXTMAX
 10
-1.000000000000000E+20
 20
-1.000000000000000E+20
 30
-1.000000000000000E+20
  9
$PLIMMIN
 10
0.0
 20
0.0
  9
$PLIMMAX
 10
12.0
 20
9.0
  9
$UNITMODE
 70
     0
  9
$VISRETAIN
 70
     1
  9
$PLINEGEN
 70
     0
  9
$PSLTSCALE
 70
     1
  9
$TREEDEPTH
 70
  3020
  9
$CMLSTYLE
  2
Standard
  9
$CMLJUST
 70
     0
  9
$CMLSCALE
 40
1.0
  9
$PROXYGRAPHICS
 70
     1
  9
$MEASUREMENT
 70
     1
  9
$CELWEIGHT
370
    -1
  9
$ENDCAPS
280
     0
  9
$JOINSTYLE
280
     0
  9
$LWDISPLAY
290
     0
  9
$INSUNITS
 70
     4
  9
$HYPERLINKBASE
  1

  9
$STYLESHEET
  1

  9
$XEDIT
290
     1
  9
$CEPSNTYPE
380
     0
  9
$PSTYLEMODE
290
     1
  9
$FINGERPRINTGUID
  2
{12F50282-3ED8-11D3-A8B7-0060B0F84BC6}
  9
$VERSIONGUID
  2
{12F50293-3ED8-11D3-A8B7-0060B0F84BC6}
  9
$EXTNAMES
290
     1
  9
$PSVPSCALE
 40
0.0
  9
$OLESTARTUP
290
     0
  9
$SORTENTS
280
   127
  9
$INDEXCTL
280
     0
  9
$HIDETEXT
280
     0
  9
$XCLIPFRAME
280
     2
  9
$HALOGAP
280
     0
  9
$OBSCOLOR
 70
   257
  9
$OBSLTYPE
280
     0
  9
$INTERSECTIONDISPLAY
280
     0
  9
$INTERSECTIONCOLOR
 70
   257
  9
$DIMASSOC
280
     1
  9
$PROJECTNAME
  1

  9
$CAMERADISPLAY
290
     0
  9
$LENSLENGTH
 40
50.0
  9
$CAMERAHEIGHT
 40
0.0
  9
$STEPSPERSEC
 40
2.0
  9
$STEPSIZE
 40
6.0
  9
$3DDWFPREC
 40
2.0
  9
$PSOLWIDTH
 40
0.25
  9
$PSOLHEIGHT
 40
4.0
  9
$LOFTANG1
 40
1.570796326794896
  9
$LOFTANG2
 40
1.570796326794896
  9
$LOFTMAG1
 40
0.0
  9
$LOFTMAG2
 40
0.0
  9
$LOFTPARAM
 70
     7
  9
$LOFTNORMALS
280
     1
  9
$LATITUDE
 40
37.795
  9
$LONGITUDE
 40
-122.394
  9
$NORTHDIRECTION
 40
0.0
  9
$TIMEZONE
 70
 -8000
  9
$LIGHTGLYPHDISPLAY
280
     1
  9
$TILEMODELIGHTSYNCH
280
     1
  9
$CMATERIAL
347
AB
  9
$SOLIDHIST
280
     0
  9
$SHOWHIST
280
     1
  9
$DWFFRAME
280
     2
  9
$DGNFRAME
280
     0
  9
$REALWORLDSCALE
290
     1
  9
$INTERFERECOLOR
 62
     1
  9
$INTERFEREOBJVS
345
CD
  9
$INTERFEREVPVS
346
CA
  9
$CSHADOW
280
     0
  9
$SHADOWPLANELOCATION
 40
0.0
  0
ENDSEC
  0
SECTION
  2
CLASSES
  0
CLASS
  1
ACDBDICTIONARYWDFLT
  2
AcDbDictionaryWithDefault
  3
ObjectDBX Classes
 90
        0
 91
        1
280
     0
281
     0
  0
CLASS
  1
ACDBPLACEHOLDER
  2
AcDbPlaceHolder
  3
ObjectDBX Classes
 90
        0
 91
        2
280
     0
281
     0
  0
CLASS
  1
LAYOUT
  2
AcDbLayout
  3
ObjectDBX Classes
 90
        0
 91
        3
280
     0
281
     0
  0
CLASS
  1
MATERIAL
  2
AcDbMaterial
  3
ObjectDBX Classes
 90
     1153
 91
        3
280
     0
281
     0
  0
CLASS
  1
VISUALSTYLE
  2
AcDbVisualStyle
  3
ObjectDBX Classes
 90
     4095
 91
       24
280
     0
281
     0
  0
CLASS
  1
TABLESTYLE
  2
AcDbTableStyle
  3
ObjectDBX Classes
 90
     4095
 91
        1
280
     0
281
     0
  0
CLASS
  1
SCALE
  2
AcDbScale
  3
ObjectDBX Classes
 90
     1153
 91
       17
280
     0
281
     0
  0
CLASS
  1
MLEADERSTYLE
  2
AcDbMLeaderStyle
  3
ACDB_MLEADERSTYLE_CLASS
 90
     4095
 91
        1
280
     0
281
     0
  0
CLASS
  1
ACDBSECTIONVIEWSTYLE
  2
AcDbSectionViewStyle
  3
ObjectDBX Classes
 90
     1025
 91
        1
280
     0
281
     0
  0
CLASS
  1
ACDBDETAILVIEWSTYLE
  2
AcDbDetailViewStyle
  3
ObjectDBX Classes
 90
     1025
 91
        1
280
     0
281
     0
  0
CLASS
  1
MESH
  2
AcDbSubDMesh
  3
ObjectDBX Classes
 90
        0
 91
        1
280
     0
281
     1
  0
CLASS
  1
DICTIONARYVAR
  2
AcDbDictionaryVar
  3
ObjectDBX Classes
 90
        0
 91
        9
280
     0
281
     0
  0
CLASS
  1
CELLSTYLEMAP
  2
AcDbCellStyleMap
  3
ObjectDBX Classes
 90
     1152
 91
        1
280
     0
281
     0
  0
ENDSEC
  0
SECTION
  2
TABLES
  0
TABLE
  2
VPORT
  5
8
330
0
100
AcDbSymbolTable
 70
     1
  0
VPORT
  5
A8
330
8
100
AcDbSymbolTableRecord
100
AcDbViewportTableRecord
  2
*Active
 70
     0
 10
0.0
 20
0.0
 11
1.0
 21
1.0
 12
0.0000593427685089
 22
-41.43716812133789
 13
0.0
 23
0.0
 14
0.5
 24
0.5
 15
0.5
 25
0.5
 16
-1.0
 26
-1.0
 36
1.0
 17
0.0
 27
0.0
 37
0.0
 40
1292.999984710324
 41
1.596085436301842
 42
50.0
 43
0.0
 44
0.0
 50
0.0
 51
0.0
 71
     0
 72
   100
 73
     1
 74
     3
 75
     0
 76
     0
 77
     0
 78
     0
281
     0
 65
     1
110
0.0
120
0.0
130
0.0
111
1.0
121
0.0
131
0.0
112
0.0
122
1.0
132
0.0
 79
     0
146
0.0
348
C9
 60
     3
 61
     5
292
     1
282
     1
141
0.0
142
0.0
 63
   250
421
  3355443
  0
ENDTAB
  0
TABLE
  2
LTYPE
  5
5
330
0
100
AcDbSymbolTable
 70
     1
  0
LTYPE
  5
14
330
5
100
AcDbSymbolTableRecord
100
AcDbLinetypeTableRecord
  2
ByBlock
 70
     0
  3

 72
    65
 73
     0
 40
0.0
  0
LTYPE
  5
15
330
5
100
AcDbSymbolTableRecord
100
AcDbLinetypeTableRecord
  2
ByLayer
 70
     0
  3

 72
    65
 73
     0
 40
0.0
  0
LTYPE
  5
16
330
5
100
AcDbSymbolTableRecord
100
AcDbLinetypeTableRecord
  2
Continuous
 70
     0
  3
Solid line
 72
    65
 73
     0
 40
0.0
  0
ENDTAB
  0
TABLE
  2
LAYER
  5
2
330
0
100
AcDbSymbolTable
 70
     3
  0
LAYER
  5
10
330
2
100
AcDbSymbolTableRecord
100
AcDbLayerTableRecord
  2
0
 70
     0
 62
     7
  6
Continuous
370
    -3
390
F
347
BB
  0
LAYER
  5
2B
330
2
100
AcDbSymbolTableRecord
100
AcDbLayerTableRecord
  2
ASHADE
 70
     4
 62
     7
  6
Continuous
370
    -3
390
2D
347
BB
  0
LAYER
  5
F8
330
2
100
AcDbSymbolTableRecord
100
AcDbLayerTableRecord
  2
OracDecor_cornice_mouldings
 70
     0
 62
   133
420
  5759430
  6
Continuous
370
    -3
390
F
347
BB
  0
ENDTAB
  0
TABLE
  2
STYLE
  5
3
330
0
100
AcDbSymbolTable
 70
     2
  0
STYLE
  5
11
330
3
100
AcDbSymbolTableRecord
100
AcDbTextStyleTableRecord
  2
Standard
 70
     0
 40
0.0
 41
1.0
 50
0.0
 71
     0
 42
0.2
  3
txt
  4

  0
STYLE
  5
2C
330
3
100
AcDbSymbolTableRecord
100
AcDbTextStyleTableRecord
  2
ASHADE
 70
     0
 40
0.2
 41
1.0
 50
0.0
 71
     0
 42
0.2
  3
simplex
  4

  0
ENDTAB
  0
TABLE
  2
VIEW
  5
6
330
0
100
AcDbSymbolTable
 70
     0
  0
ENDTAB
  0
TABLE
  2
UCS
  5
7
330
0
100
AcDbSymbolTable
 70
     0
  0
ENDTAB
  0
TABLE
  2
APPID
  5
9
330
0
100
AcDbSymbolTable
 70
     6
  0
APPID
  5
12
330
9
100
AcDbSymbolTableRecord
100
AcDbRegAppTableRecord
  2
ACAD
 70
     0
  0
APPID
  5
8F
330
9
100
AcDbSymbolTableRecord
100
AcDbRegAppTableRecord
  2
AVE_RENDER
 70
     0
  0
APPID
  5
90
330
9
100
AcDbSymbolTableRecord
100
AcDbRegAppTableRecord
  2
AVE_ENTITY_MATERIAL
 70
     0
  0
APPID
  5
9C
330
9
100
AcDbSymbolTableRecord
100
AcDbRegAppTableRecord
  2
AVE_FINISH
 70
     0
  0
APPID
  5
9D
330
9
100
AcDbSymbolTableRecord
100
AcDbRegAppTableRecord
  2
AVE_MATERIAL
 70
     0
  0
APPID
  5
9E
330
9
100
AcDbSymbolTableRecord
100
AcDbRegAppTableRecord
  2
AVE_GLOBAL
 70
     0
  0
ENDTAB
  0
TABLE
  2
DIMSTYLE
  5
A
330
0
100
AcDbSymbolTable
 70
     1
100
AcDbDimStyleTable
 71
     0
  0
DIMSTYLE
105
27
330
A
100
AcDbSymbolTableRecord
100
AcDbDimStyleTableRecord
  2
Standard
 70
     0
340
11
  0
ENDTAB
  0
TABLE
  2
BLOCK_RECORD
  5
1
330
0
100
AcDbSymbolTable
 70
     6
  0
BLOCK_RECORD
  5
1F
330
1
100
AcDbSymbolTableRecord
100
AcDbBlockTableRecord
  2
*Model_Space
340
22
 70
     0
280
     1
281
     0
  0
BLOCK_RECORD
  5
1B
330
1
100
AcDbSymbolTableRecord
100
AcDbBlockTableRecord
  2
*Paper_Space
340
1E
 70
     0
280
     1
281
     0
  0
BLOCK_RECORD
  5
23
330
1
100
AcDbSymbolTableRecord
100
AcDbBlockTableRecord
  2
*Paper_Space0
340
26
 70
     0
280
     1
281
     0
  0
BLOCK_RECORD
  5
2E
330
1
100
AcDbSymbolTableRecord
100
AcDbBlockTableRecord
  2
direct
340
0
 70
     0
280
     1
281
     0
  0
BLOCK_RECORD
  5
42
330
1
100
AcDbSymbolTableRecord
100
AcDbBlockTableRecord
  2
overhead
340
0
 70
     0
280
     1
281
     0
  0
BLOCK_RECORD
  5
5F
330
1
100
AcDbSymbolTableRecord
100
AcDbBlockTableRecord
  2
sh_spot
340
0
 70
     0
280
     1
281
     0
  0
BLOCK_RECORD
  5
91
330
1
100
AcDbSymbolTableRecord
100
AcDbBlockTableRecord
  2
AVE_RENDER
340
0
102
{BLKREFS
331
94
331
95
331
96
331
97
331
98
331
99
331
9A
331
9B
102
}
 70
     0
280
     1
281
     0
  0
BLOCK_RECORD
  5
9F
330
1
100
AcDbSymbolTableRecord
100
AcDbBlockTableRecord
  2
AVE_GLOBAL
340
0
102
{BLKREFS
331
A2
102
}
 70
     0
280
     1
281
     0
  0
ENDTAB
  0
ENDSEC
  0
SECTION
  2
BLOCKS
  0
BLOCK
  5
20
330
1F
100
AcDbEntity
  8
0
100
AcDbBlockBegin
  2
*Model_Space
 70
     0
 10
0.0
 20
0.0
 30
0.0
  3
*Model_Space
  1

  0
ENDBLK
  5
21
330
1F
100
AcDbEntity
  8
0
100
AcDbBlockEnd
  0
BLOCK
  5
1C
330
1B
100
AcDbEntity
 67
     1
  8
0
100
AcDbBlockBegin
  2
*Paper_Space
 70
     0
 10
0.0
 20
0.0
 30
0.0
  3
*Paper_Space
  1

  0
ENDBLK
  5
1D
330
1B
100
AcDbEntity
 67
     1
  8
0
100
AcDbBlockEnd
  0
BLOCK
  5
24
330
23
100
AcDbEntity
 67
     1
  8
0
100
AcDbBlockBegin
  2
*Paper_Space0
 70
     0
 10
0.0
 20
0.0
 30
0.0
  3
*Paper_Space0
  1

  0
ENDBLK
  5
25
330
23
100
AcDbEntity
 67
     1
  8
0
100
AcDbBlockEnd
  0
BLOCK
  5
40
330
2E
100
AcDbEntity
  8
0
100
AcDbBlockBegin
  2
direct
 70
     2
 10
0.0
 20
0.0
 30
0.0
  3
direct
  1

  0
ATTDEF
  5
2F
330
2E
100
AcDbEntity
  8
ASHADE
  6
Continuous
 62
     1
100
AcDbText
 10
0.0
 20
-0.1
 30
0.0
 40
0.2
  1

  7
ASHADE
 72
     1
 11
0.0
 21
-0.1
 31
0.0
100
AcDbAttributeDefinition
280
     0
  3
Light Name
  2
SNAME
 70
     0
280
     0
  0
ARC
  5
30
330
2E
100
AcDbEntity
  8
ASHADE
  6
Continuous
 62
     7
100
AcDbCircle
 10
0.0
 20
0.0
 30
0.0
 40
0.3
100
AcDbArc
 50
205.6792886194569
 51
334.3207113805431
  0
ARC
  5
31
330
2E
100
AcDbEntity
  8
ASHADE
  6
Continuous
 62
     7
100
AcDbCircle
 10
0.0
 20
0.0
 30
0.0
 40
0.3
100
AcDbArc
 50
25.67928861945685
 51
154.3207113805431
  0
LINE
  5
32
330
2E
100
AcDbEntity
  8
ASHADE
  6
Continuous
 62
     7
100
AcDbLine
 10
-0.21
 20
0.2142428528562855
 30
0.0
 11
-0.21
 21
0.5
 31
0.0
  0
LINE
  5
33
330
2E
100
AcDbEntity
  8
ASHADE
  6
Continuous
 62
     7
100
AcDbLine
 10
-0.11
 20
0.2791057147390572
 30
0.0
 11
-0.11
 21
0.5
 31
0.0
  0
LINE
  5
34
330
2E
100
AcDbEntity
  8
ASHADE
  6
Continuous
 62
     7
100
AcDbLine
 10
0.21
 20
0.2142428528562855
 30
0.0
 11
0.21
 21
0.5
 31
0.0
  0
ATTDEF
  5
35
330
2E
100
AcDbEntity
  8
ASHADE
  6
Continuous
 62
     7
100
AcDbText
 10
0.0
 20
0.25
 30
0.0
 40
0.01
  1

100
AcDbAttributeDefinition
280
     0
  3
Look-at Y
  2
LAY
 70
     1
280
     0
  0
ATTDEF
  5
36
330
2E
100
AcDbEntity
  8
ASHADE
  6
Continuous
 62
     7
100
AcDbText
 10
0.0
 20
0.22
 30
0.0
 40
0.01
  1
1
100
AcDbAttributeDefinition
280
     0
  3
Light Intensity
  2
INTENSITY
 70
     1
280
     0
  0
ATTDEF
  5
37
330
2E
100
AcDbEntity
  8
ASHADE
  6
Continuous
 62
     7
100
AcDbText
 10
0.0
 20
0.16
 30
0.0
 40
0.01
  1
-1
100
AcDbAttributeDefinition
280
     0
  3
*not used*
  2
BEAMD
 70
     1
280
     0
  0
ATTDEF
  5
38
330
2E
100
AcDbEntity
  8
ASHADE
  6
Continuous
 62
     7
100
AcDbText
 10
0.0
 20
0.175
 30
0.0
 40
0.01
  1
-1
100
AcDbAttributeDefinition
280
     0
  3
*not used*
  2
CONED
 70
     1
280
     0
  0
ATTDEF
  5
39
330
2E
100
AcDbEntity
  8
ASHADE
  6
Continuous
 62
     7
100
AcDbText
 10
0.0
 20
0.19
 30
0.0
 40
0.01
  1
0
100
AcDbAttributeDefinition
280
     0
  3
Depth Map Size
  2
CONEA
 70
     1
280
     0
  0
ATTDEF
  5
3A
330
2E
100
AcDbEntity
  8
ASHADE
  6
Continuous
 62
     7
100
AcDbText
 10
0.0
 20
0.2050000000000001
 30
0.0
 40
0.01
  1
1,1,1
100
AcDbAttributeDefinition
280
     0
  3
Light Color (RGB)
  2
COLOR
 70
     1
280
     0
  0
ATTDEF
  5
3B
330
2E
100
AcDbEntity
  8
ASHADE
  6
Continuous
 62
     7
100
AcDbText
 10
0.0
 20
0.235
 30
0.0
 40
0.01
  1

100
AcDbAttributeDefinition
280
     0
  3
Look-at Z
  2
LAZ
 70
     1
280
     0
  0
LINE
  5
3C
330
2E
100
AcDbEntity
  8
ASHADE
  6
Continuous
 62
     7
100
AcDbLine
 10
0.0
 20
0.3
 30
0.0
 11
0.0
 21
0.5
 31
0.0
  0
LINE
  5
3D
330
2E
100
AcDbEntity
  8
ASHADE
  6
Continuous
 62
     7
100
AcDbLine
 10
0.11
 20
0.2791057147390572
 30
0.0
 11
0.11
 21
0.5
 31
0.0
  0
ATTDEF
  5
3E
330
2E
100
AcDbEntity
  8
ASHADE
  6
Continuous
 62
     7
100
AcDbText
 10
0.0
 20
0.265
 30
0.0
 40
0.01
  1

100
AcDbAttributeDefinition
280
     0
  3
Look-at X
  2
LAX
 70
     1
280
     0
  0
ATTDEF
  5
3F
330
2E
100
AcDbEntity
  8
ASHADE
  6
Continuous
 62
     7
100
AcDbText
 10
0.0
 20
0.28
 30
0.0
 40
0.01
  1

100
AcDbAttributeDefinition
280
     0
  3

  2
GNAME
 70
     1
280
     0
  0
ENDBLK
  5
41
330
2E
100
AcDbEntity
  8
0
100
AcDbBlockEnd
  0
BLOCK
  5
5D
330
42
100
AcDbEntity
  8
0
100
AcDbBlockBegin
  2
overhead
 70
     2
 10
0.0
 20
0.0
 30
0.0
  3
overhead
  1

  0
ATTDEF
  5
43
330
42
100
AcDbEntity
  8
ASHADE
  6
Continuous
 62
     1
100
AcDbText
 10
0.0
 20
-0.1
 30
0.0
 40
0.2
  1

  7
ASHADE
 72
     1
 11
0.0
 21
-0.1
 31
0.0
100
AcDbAttributeDefinition
280
     0
  3
Light Name
  2
SNAME
 70
     0
280
     0
  0
ARC
  5
44
330
42
100
AcDbEntity
  8
ASHADE
  6
Continuous
 62
     7
100
AcDbCircle
 10
0.0
 20
0.0
 30
0.0
 40
0.3
100
AcDbArc
 50
205.6792886194569
 51
334.3207113805431
  0
LINE
  5
45
330
42
100
AcDbEntity
  8
ASHADE
  6
Continuous
 62
     7
100
AcDbLine
 10
-0.2041413561583015
 20
-0.2198324514393848
 30
0.0
 11
-0.2721884748777353
 21
-0.2931099352525131
 31
0.0
  0
LINE
  5
46
330
42
100
AcDbEntity
  8
ASHADE
  6
Continuous
 62
     7
100
AcDbLine
 10
-0.1096591641591904
 20
-0.2792398032442862
 30
0.0
 11
-0.1279356915190555
 21
-0.3257797704516673
 31
0.0
  0
LINE
  5
47
330
42
100
AcDbEntity
  8
ASHADE
  6
Continuous
 62
     7
100
AcDbLine
 10
0.0
 20
-0.2999999999999999
 30
0.0
 11
0.0
 21
-0.4
 31
0.0
  0
LINE
  5
48
330
42
100
AcDbEntity
  8
ASHADE
  6
Continuous
 62
     7
100
AcDbLine
 10
0.1096591641591904
 20
-0.2792398032442862
 30
0.0
 11
0.1279356915190555
 21
-0.3257797704516673
 31
0.0
  0
LINE
  5
49
330
42
100
AcDbEntity
  8
ASHADE
  6
Continuous
 62
     7
100
AcDbLine
 10
0.2041413561583015
 20
-0.2198324514393848
 30
0.0
 11
0.2721884748777353
 21
-0.2931099352525131
 31
0.0
  0
ARC
  5
4A
330
42
100
AcDbEntity
  8
ASHADE
  6
Continuous
 62
     7
100
AcDbCircle
 10
0.0
 20
0.0
 30
0.0
 40
0.3
100
AcDbArc
 50
25.67928861945685
 51
154.3207113805431
  0
LINE
  5
4B
330
42
100
AcDbEntity
  8
ASHADE
  6
Continuous
 62
     7
100
AcDbLine
 10
-0.2703701166919155
 20
0.13
 30
0.0
 11
-0.3154318028072347
 21
0.1516666666666666
 31
0.0
  0
LINE
  5
4C
330
42
100
AcDbEntity
  8
ASHADE
  6
Continuous
 62
     7
100
AcDbLine
 10
-0.2703701166919155
 20
-0.13
 30
0.0
 11
-0.3154318028072347
 21
-0.1516666666666666
 31
0.0
  0
LINE
  5
4D
330
42
100
AcDbEntity
  8
ASHADE
  6
Continuous
 62
     7
100
AcDbLine
 10
-0.2041413561583015
 20
0.2198324514393849
 30
0.0
 11
-0.2721884748777353
 21
0.2931099352525131
 31
0.0
  0
LINE
  5
4E
330
42
100
AcDbEntity
  8
ASHADE
  6
Continuous
 62
     7
100
AcDbLine
 10
-0.1096591641591904
 20
0.2792398032442862
 30
0.0
 11
-0.1279356915190555
 21
0.3257797704516674
 31
0.0
  0
LINE
  5
4F
330
42
100
AcDbEntity
  8
ASHADE
  6
Continuous
 62
     7
100
AcDbLine
 10
0.2703701166919155
 20
-0.13
 30
0.0
 11
0.3154318028072347
 21
-0.1516666666666666
 31
0.0
  0
LINE
  5
50
330
42
100
AcDbEntity
  8
ASHADE
  6
Continuous
 62
     7
100
AcDbLine
 10
0.2703701166919155
 20
0.13
 30
0.0
 11
0.3154318028072347
 21
0.1516666666666666
 31
0.0
  0
LINE
  5
51
330
42
100
AcDbEntity
  8
ASHADE
  6
Continuous
 62
     7
100
AcDbLine
 10
0.0
 20
0.3
 30
0.0
 11
0.0
 21
0.4
 31
0.0
  0
ATTDEF
  5
52
330
42
100
AcDbEntity
  8
ASHADE
  6
Continuous
 62
     7
100
AcDbText
 10
0.0
 20
0.22
 30
0.0
 40
0.01
  1
1
100
AcDbAttributeDefinition
280
     0
  3
Light Intensity
  2
INTENSITY
 70
     1
280
     0
  0
ATTDEF
  5
53
330
42
100
AcDbEntity
  8
ASHADE
  6
Continuous
 62
     7
100
AcDbText
 10
0.0
 20
0.16
 30
0.0
 40
0.01
  1
-1
100
AcDbAttributeDefinition
280
     0
  3
*not used*
  2
BEAMD
 70
     1
280
     0
  0
ATTDEF
  5
54
330
42
100
AcDbEntity
  8
ASHADE
  6
Continuous
 62
     7
100
AcDbText
 10
0.0
 20
0.175
 30
0.0
 40
0.01
  1
-1
100
AcDbAttributeDefinition
280
     0
  3
*not used*
  2
CONED
 70
     1
280
     0
  0
ATTDEF
  5
55
330
42
100
AcDbEntity
  8
ASHADE
  6
Continuous
 62
     7
100
AcDbText
 10
0.0
 20
0.19
 30
0.0
 40
0.01
  1
0
100
AcDbAttributeDefinition
280
     0
  3
Depth Map Size
  2
CONEA
 70
     1
280
     0
  0
ATTDEF
  5
56
330
42
100
AcDbEntity
  8
ASHADE
  6
Continuous
 62
     7
100
AcDbText
 10
0.0
 20
0.2050000000000001
 30
0.0
 40
0.01
  1
1,1,1
100
AcDbAttributeDefinition
280
     0
  3
Light Color (RGB)
  2
COLOR
 70
     1
280
     0
  0
ATTDEF
  5
57
330
42
100
AcDbEntity
  8
ASHADE
  6
Continuous
 62
     7
100
AcDbText
 10
0.0
 20
0.235
 30
0.0
 40
0.01
  1

100
AcDbAttributeDefinition
280
     0
  3
Look-at Z
  2
LAZ
 70
     1
280
     0
  0
ATTDEF
  5
58
330
42
100
AcDbEntity
  8
ASHADE
  6
Continuous
 62
     7
100
AcDbText
 10
0.0
 20
0.25
 30
0.0
 40
0.01
  1

100
AcDbAttributeDefinition
280
     0
  3
Look-at Y
  2
LAY
 70
     1
280
     0
  0
ATTDEF
  5
59
330
42
100
AcDbEntity
  8
ASHADE
  6
Continuous
 62
     7
100
AcDbText
 10
0.0
 20
0.265
 30
0.0
 40
0.01
  1

100
AcDbAttributeDefinition
280
     0
  3
Look-at X
  2
LAX
 70
     1
280
     0
  0
ATTDEF
  5
5A
330
42
100
AcDbEntity
  8
ASHADE
  6
Continuous
 62
     7
100
AcDbText
 10
0.0
 20
0.28
 30
0.0
 40
0.01
  1

100
AcDbAttributeDefinition
280
     0
  3

  2
GNAME
 70
     1
280
     0
  0
LINE
  5
5B
330
42
100
AcDbEntity
  8
ASHADE
  6
Continuous
 62
     7
100
AcDbLine
 10
0.1096591641591904
 20
0.2792398032442862
 30
0.0
 11
0.1279356915190555
 21
0.3257797704516674
 31
0.0
  0
LINE
  5
5C
330
42
100
AcDbEntity
  8
ASHADE
  6
Continuous
 62
     7
100
AcDbLine
 10
0.2041413561583015
 20
0.2198324514393849
 30
0.0
 11
0.2721884748777353
 21
0.2931099352525131
 31
0.0
  0
ENDBLK
  5
5E
330
42
100
AcDbEntity
  8
0
100
AcDbBlockEnd
  0
BLOCK
  5
85
330
5F
100
AcDbEntity
  8
0
100
AcDbBlockBegin
  2
sh_spot
 70
     2
 10
0.0
 20
0.0
 30
0.0
  3
sh_spot
  1

  0
LINE
  5
60
330
5F
100
AcDbEntity
  8
ASHADE
  6
Continuous
 62
     7
100
AcDbLine
 10
0.25
 20
0.26
 30
0.0
 11
-0.25
 21
0.26
 31
0.0
  0
LINE
  5
61
330
5F
100
AcDbEntity
  8
ASHADE
  6
Continuous
 62
     7
100
AcDbLine
 10
-0.25
 20
-0.3399999999999999
 30
0.0
 11
0.25
 21
-0.3399999999999999
 31
0.0
  0
ATTDEF
  5
62
330
5F
100
AcDbEntity
  8
ASHADE
  6
Continuous
 62
     1
100
AcDbText
 10
0.0
 20
-0.1
 30
0.0
 40
0.2
  1

  7
ASHADE
 72
     1
 11
0.0
 21
-0.1
 31
0.0
100
AcDbAttributeDefinition
280
     0
  3
Light Name
  2
SNAME
 70
     0
280
     0
  0
LINE
  5
63
330
5F
100
AcDbEntity
  8
ASHADE
  6
Continuous
 62
     7
100
AcDbLine
 10
-0.25
 20
-0.13
 30
0.0
 11
-0.25
 21
-0.3399999999999999
 31
0.0
  0
LINE
  5
64
330
5F
100
AcDbEntity
  8
ASHADE
  6
Continuous
 62
     7
100
AcDbLine
 10
-0.25
 20
-0.18
 30
0.0
 11
-0.29
 21
-0.18
 31
0.0
  0
LINE
  5
65
330
5F
100
AcDbEntity
  8
ASHADE
  6
Continuous
 62
     7
100
AcDbLine
 10
-0.29
 20
-0.22
 30
0.0
 11
-0.25
 21
-0.22
 31
0.0
  0
LINE
  5
66
330
5F
100
AcDbEntity
  8
ASHADE
  6
Continuous
 62
     7
100
AcDbLine
 10
-0.29
 20
-0.18
 30
0.0
 11
-0.29
 21
-0.22
 31
0.0
  0
LINE
  5
67
330
5F
100
AcDbEntity
  8
ASHADE
  6
Continuous
 62
     7
100
AcDbLine
 10
-0.1045454545454545
 20
0.26
 30
0.0
 11
-0.15
 21
0.46
 31
0.0
  0
LINE
  5
68
330
5F
100
AcDbEntity
  8
ASHADE
  6
Continuous
 62
     7
100
AcDbLine
 10
-0.21
 20
0.26
 30
0.0
 11
-0.301304347826087
 21
0.46
 31
0.0
  0
LINE
  5
69
330
5F
100
AcDbEntity
  8
ASHADE
  6
Continuous
 62
     7
100
AcDbLine
 10
-0.25
 20
0.26
 30
0.0
 11
-0.25
 21
0.13
 31
0.0
  0
LINE
  5
6A
330
5F
100
AcDbEntity
  8
ASHADE
  6
Continuous
 62
     7
100
AcDbLine
 10
-0.25
 20
0.22
 30
0.0
 11
-0.29
 21
0.22
 31
0.0
  0
LINE
  5
6B
330
5F
100
AcDbEntity
  8
ASHADE
  6
Continuous
 62
     7
100
AcDbLine
 10
-0.29
 20
0.1799999999999999
 30
0.0
 11
-0.25
 21
0.1799999999999999
 31
0.0
  0
LINE
  5
6C
330
5F
100
AcDbEntity
  8
ASHADE
  6
Continuous
 62
     7
100
AcDbLine
 10
-0.29
 20
0.22
 30
0.0
 11
-0.29
 21
0.1799999999999999
 31
0.0
  0
ATTDEF
  5
6D
330
5F
100
AcDbEntity
  8
ASHADE
  6
Continuous
 62
     7
100
AcDbText
 10
0.0
 20
-0.24
 30
0.0
 40
0.01
  1
0
100
AcDbAttributeDefinition
280
     0
  3
Depth Map Size
  2
ZSIZE
 70
     1
280
     0
  0
ATTDEF
  5
6E
330
5F
100
AcDbEntity
  8
ASHADE
  6
Continuous
 62
     7
100
AcDbText
 10
0.0
 20
-0.3300000000000001
 30
0.0
 40
0.01
  1
0,0,0
100
AcDbAttributeDefinition
280
     0
  3
Look-from XYZ
  2
LFXYZ
 70
     1
280
     0
  0
ATTDEF
  5
6F
330
5F
100
AcDbEntity
  8
ASHADE
  6
Continuous
 62
     7
100
AcDbText
 10
0.0
 20
-0.315
 30
0.0
 40
0.01
  1
0.0
100
AcDbAttributeDefinition
280
     0
  3
Beam Distribution
  2
BEAMDI
 70
     1
280
     0
  0
ATTDEF
  5
70
330
5F
100
AcDbEntity
  8
ASHADE
  6
Continuous
 62
     7
100
AcDbText
 10
0.0
 20
-0.3
 30
0.0
 40
0.01
  1
0.0
100
AcDbAttributeDefinition
280
     0
  3
Cone Delta
  2
CONEDE
 70
     1
280
     0
  0
ATTDEF
  5
71
330
5F
100
AcDbEntity
  8
ASHADE
  6
Continuous
 62
     7
100
AcDbText
 10
0.0
 20
-0.2850000000000001
 30
0.0
 40
0.01
  1
10.0
100
AcDbAttributeDefinition
280
     0
  3
Cone Angle
  2
CONEAN
 70
     1
280
     0
  0
ATTDEF
  5
72
330
5F
100
AcDbEntity
  8
ASHADE
  6
Continuous
 62
     7
100
AcDbText
 10
0.0
 20
-0.27
 30
0.0
 40
0.01
  1
-1
100
AcDbAttributeDefinition
280
     0
  3
*not used*
  2
BIASMAX
 70
     1
280
     0
  0
ATTDEF
  5
73
330
5F
100
AcDbEntity
  8
ASHADE
  6
Continuous
 62
     7
100
AcDbText
 10
0.0
 20
-0.255
 30
0.0
 40
0.01
  1
-1
100
AcDbAttributeDefinition
280
     0
  3
*not used*
  2
BIASMIN
 70
     1
280
     0
  0
ATTDEF
  5
74
330
5F
100
AcDbEntity
  8
ASHADE
  6
Continuous
 62
     7
100
AcDbText
 10
0.0
 20
-0.225
 30
0.0
 40
0.01
  1
1,1,1
100
AcDbAttributeDefinition
280
     0
  3
Light Color (RGB)
  2
COLOR
 70
     1
280
     0
  0
ATTDEF
  5
75
330
5F
100
AcDbEntity
  8
ASHADE
  6
Continuous
 62
     7
100
AcDbText
 10
0.0
 20
-0.21
 30
0.0
 40
0.01
  1
1
100
AcDbAttributeDefinition
280
     0
  3
Light Intensity
  2
INTENSITY
 70
     1
280
     0
  0
ATTDEF
  5
76
330
5F
100
AcDbEntity
  8
ASHADE
  6
Continuous
 62
     7
100
AcDbText
 10
0.0
 20
-0.15
 30
0.0
 40
0.01
  1

100
AcDbAttributeDefinition
280
     0
  3

  2
GNAME
 70
     1
280
     0
  0
ATTDEF
  5
77
330
5F
100
AcDbEntity
  8
ASHADE
  6
Continuous
 62
     7
100
AcDbText
 10
0.0
 20
-0.195
 30
0.0
 40
0.01
  1

100
AcDbAttributeDefinition
280
     0
  3
Look-at Z
  2
LAZ
 70
     1
280
     0
  0
ATTDEF
  5
78
330
5F
100
AcDbEntity
  8
ASHADE
  6
Continuous
 62
     7
100
AcDbText
 10
0.0
 20
-0.18
 30
0.0
 40
0.01
  1

100
AcDbAttributeDefinition
280
     0
  3
Look-at Y
  2
LAY
 70
     1
280
     0
  0
ATTDEF
  5
79
330
5F
100
AcDbEntity
  8
ASHADE
  6
Continuous
 62
     7
100
AcDbText
 10
0.0
 20
-0.165
 30
0.0
 40
0.01
  1

100
AcDbAttributeDefinition
280
     0
  3
Look-at X
  2
LAX
 70
     1
280
     0
  0
LINE
  5
7A
330
5F
100
AcDbEntity
  8
ASHADE
  6
Continuous
 62
     7
100
AcDbLine
 10
0.25
 20
-0.3399999999999999
 30
0.0
 11
0.25
 21
-0.13
 31
0.0
  0
LINE
  5
7B
330
5F
100
AcDbEntity
  8
ASHADE
  6
Continuous
 62
     7
100
AcDbLine
 10
0.25
 20
-0.18
 30
0.0
 11
0.29
 21
-0.18
 31
0.0
  0
LINE
  5
7C
330
5F
100
AcDbEntity
  8
ASHADE
  6
Continuous
 62
     7
100
AcDbLine
 10
0.29
 20
-0.22
 30
0.0
 11
0.25
 21
-0.22
 31
0.0
  0
LINE
  5
7D
330
5F
100
AcDbEntity
  8
ASHADE
  6
Continuous
 62
     7
100
AcDbLine
 10
0.29
 20
-0.18
 30
0.0
 11
0.29
 21
-0.22
 31
0.0
  0
LINE
  5
7E
330
5F
100
AcDbEntity
  8
ASHADE
  6
Continuous
 62
     7
100
AcDbLine
 10
0.21
 20
0.26
 30
0.0
 11
0.301304347826087
 21
0.46
 31
0.0
  0
LINE
  5
7F
330
5F
100
AcDbEntity
  8
ASHADE
  6
Continuous
 62
     7
100
AcDbLine
 10
0.1045454545454545
 20
0.26
 30
0.0
 11
0.15
 21
0.46
 31
0.0
  0
LINE
  5
80
330
5F
100
AcDbEntity
  8
ASHADE
  6
Continuous
 62
     7
100
AcDbLine
 10
0.0
 20
0.26
 30
0.0
 11
0.0
 21
0.46
 31
0.0
  0
LINE
  5
81
330
5F
100
AcDbEntity
  8
ASHADE
  6
Continuous
 62
     7
100
AcDbLine
 10
0.25
 20
0.13
 30
0.0
 11
0.25
 21
0.26
 31
0.0
  0
LINE
  5
82
330
5F
100
AcDbEntity
  8
ASHADE
  6
Continuous
 62
     7
100
AcDbLine
 10
0.25
 20
0.22
 30
0.0
 11
0.29
 21
0.22
 31
0.0
  0
LINE
  5
83
330
5F
100
AcDbEntity
  8
ASHADE
  6
Continuous
 62
     7
100
AcDbLine
 10
0.29
 20
0.1799999999999999
 30
0.0
 11
0.25
 21
0.1799999999999999
 31
0.0
  0
LINE
  5
84
330
5F
100
AcDbEntity
  8
ASHADE
  6
Continuous
 62
     7
100
AcDbLine
 10
0.29
 20
0.22
 30
0.0
 11
0.29
 21
0.1799999999999999
 31
0.0
  0
ENDBLK
  5
86
330
5F
100
AcDbEntity
  8
0
100
AcDbBlockEnd
  0
BLOCK
  5
92
330
91
100
AcDbEntity
  8
ASHADE
100
AcDbBlockBegin
  2
AVE_RENDER
 70
     0
 10
0.0
 20
0.0
 30
0.0
  3
AVE_RENDER
  1
AVE_RENDER
  0
ENDBLK
  5
93
330
91
100
AcDbEntity
  8
0
100
AcDbBlockEnd
  0
BLOCK
  5
A0
330
9F
100
AcDbEntity
  8
ASHADE
100
AcDbBlockBegin
  2
AVE_GLOBAL
 70
     0
 10
0.0
 20
0.0
 30
0.0
  3
AVE_GLOBAL
  1
AVE_GLOBAL
  0
ENDBLK
  5
A1
330
9F
100
AcDbEntity
  8
0
100
AcDbBlockEnd
  0
ENDSEC
  0
SECTION
  2
ENTITIES
  0
INSERT
  5
94
330
1F
100
AcDbEntity
  8
ASHADE
 62
     1
100
AcDbBlockReference
  2
AVE_RENDER
 10
0.0
 20
0.0
 30
0.0
1001
AVE_RENDER
1002
{
1070
     7
1000
Pref
1070
    30
1070
    20
1070
     1
1070
     0
1000

1070
    10
1070
     1
1070
    10
1040
1.0
1070
     1
1040
0.3
1040
0.7
1040
0.0
1040
10.0
1010
-1.0
1020
-1.0
1030
-1.0
1040
0.3
1070
    49
1070
     0
1070
     0
1010
1.0
1020
1.0
1030
1.0
1040
45.0
1070
     1
1070
     0
1000
WCS
1040
0.0
1070
     0
1040
10.0
1002
}
  0
INSERT
  5
95
330
1F
100
AcDbEntity
  8
ASHADE
 62
     3
100
AcDbBlockReference
  2
AVE_RENDER
 10
0.0
 20
0.0
 30
0.0
1001
AVE_RENDER
1002
{
1070
     0
1000
Full Opt
1070
     0
1070
     1
1070
     1
1070
     1
1070
     0
1070
     0
1070
     0
1070
     1
1070
     1
1040
0.0001
1040
0.0001
1002
}
  0
INSERT
  5
96
330
1F
100
AcDbEntity
  8
ASHADE
 62
     4
100
AcDbBlockReference
  2
AVE_RENDER
 10
0.0
 20
0.0
 30
0.0
1001
AVE_RENDER
1002
{
1070
     0
1000
Quick Opt
1070
     0
1070
     1
1070
     1
1070
     1
1070
     0
1070
     0
1070
     1
1002
}
  0
INSERT
  5
97
330
1F
100
AcDbEntity
  8
ASHADE
 62
     5
100
AcDbBlockReference
  2
AVE_RENDER
 10
0.0
 20
0.0
 30
0.0
1001
AVE_RENDER
1002
{
1070
     1
1000
Scanl Opt
1070
     2
1070
     0
1070
     2
1040
2.0
1040
4.0
1070
     0
1070
     1
1070
     0
1040
0.03
1002
}
  0
INSERT
  5
98
330
1F
100
AcDbEntity
  8
ASHADE
 62
     6
100
AcDbBlockReference
  2
AVE_RENDER
 10
0.0
 20
0.0
 30
0.0
1001
AVE_RENDER
1002
{
1070
     2
1000
Raytr Opt
1070
     2
1070
     0
1070
     2
1040
2.0
1040
4.0
1070
     0
1070
     1
1070
     1
1040
0.03
1070
     3
1040
0.03
1002
}
  0
INSERT
  5
99
330
1F
100
AcDbEntity
  8
ASHADE
 62
     7
100
AcDbBlockReference
  2
AVE_RENDER
 10
0.0
 20
0.0
 30
0.0
1001
AVE_RENDER
1002
{
1070
     0
1000
RFile Opt
1070
     1
1070
   640
1070
   480
1070
 10000
1070
     1
1070
     8
1070
     8
1070
     0
1070
     0
1070
     0
1070
     0
1070
     0
1070
     0
1070
     0
1002
}
  0
INSERT
  5
9A
330
1F
100
AcDbEntity
  8
ASHADE
 62
     8
100
AcDbBlockReference
  2
AVE_RENDER
 10
0.0
 20
0.0
 30
0.0
1001
AVE_RENDER
1002
{
1070
     0
1000
Fog Opt
1070
     0
1070
     0
1040
0.0
1040
1.0
1040
0.0
1040
1.0
1010
0.5
1020
0.5
1030
0.5
1002
}
  0
INSERT
  5
9B
330
1F
100
AcDbEntity
  8
ASHADE
 62
     9
100
AcDbBlockReference
  2
AVE_RENDER
 10
0.0
 20
0.0
 30
0.0
1001
AVE_RENDER
1002
{
1070
     0
1000
BG Opt
1070
     0
1070
     1
1010
0.0
1020
0.0
1030
0.0
1010
1.0
1020
0.0
1030
0.0
1010
0.0
1020
1.0
1030
0.0
1010
0.0
1020
0.0
1030
1.0
1040
0.5
1040
0.33
1040
0.0
1000

1070
     1
1000

1070
     1
1070
     1
1040
1.0
1040
1.0
1040
0.0
1040
0.0
1070
     0
1002
}
  0
INSERT
  5
A2
330
1F
100
AcDbEntity
  8
ASHADE
 62
     1
100
AcDbBlockReference
  2
AVE_GLOBAL
 10
0.0
 20
0.0
 30
0.0
1001
AVE_MATERIAL
1002
{
1000
*GLOBAL*
1000
2
1000
Global finish.
1002
{
1002
}
1002
{
1070
    63
1002
{
1002
{
1010
-1.0
1020
-1.0
1030
-1.0
1002
}
1040
0.1000000014901161
1000

1040
0.0
1002
{
1002
}
1040
0.0
1002
{
1002
}
1040
0.0
1002
}
1002
{
1002
{
1010
-1.0
1020
-1.0
1030
-1.0
1002
}
1040
0.6999999880790711
1000

1040
0.0
1002
{
1002
}
1040
0.0
1002
{
1002
}
1040
0.0
1002
}
1002
{
1002
{
1010
-1.0
1020
-1.0
1030
-1.0
1002
}
1040
0.2000000029802322
1000

1040
0.0
1002
{
1002
}
1040
0.0
1002
{
1002
}
1040
0.0
1002
}
1002
{
1070
     0
1002
{
1070
     1
1002
{
1040
1.0
1040
1.0
1000

1040
0.0
1002
{
1002
}
1040
0.0
1002
{
1002
}
1040
0.0
1002
}
1002
}
1040
1.0
1040
0.0
1040
0.0
1002
}
1002
{
1040
1.0
1040
1.0
1000

1040
0.0
1002
{
1002
}
1040
0.0
1002
{
1002
}
1040
0.0
1002
}
1002
{
1040
0.5
1040
1.0
1000

1040
0.0
1002
{
1002
}
1040
0.0
1002
{
1002
}
1040
0.0
1002
}
1002
{
1070
     0
1040
0.0
1002
{
1002
}
1040
1.0
1002
{
1002
}
1040
0.0
1002
}
1002
{
1040
0.0
1002
{
1002
{
1010
0.0
1020
0.0
1030
0.0
1002
}
1040
1.0
1000

1040
0.0
1002
{
1002
}
1040
0.0
1002
{
1002
}
1040
0.0
1002
}
1002
}
1002
{
1002
{
1070
     1
1002
{
1040
0.0
1040
1.0
1000

1040
0.0
1002
{
1002
}
1040
0.0
1002
{
1002
}
1040
0.0
1002
}
1002
}
1040
0.0
1002
{
1002
}
1010
1.0
1020
0.0
1030
0.0
1010
0.0
1020
1.0
1030
0.0
1010
0.0
1020
0.0
1030
1.0
1070
     0
1002
}
1002
{
1002
{
1040
1.0
1040
1.0
1002
{
1070
     1
1002
{
1040
1.0
1040
1.0
1000

1040
0.0
1002
{
1002
}
1040
0.0
1002
{
1002
}
1040
0.0
1002
}
1002
}
1002
}
1070
     0
1040
0.0
1002
{
1002
}
1002
}
1002
{
1002
}
1002
}
1002
{
1071
        3
1070
     3
1070
     0
1002
{
1070
     2
1070
     0
1070
     0
1040
0.0
1002
}
1070
     0
1070
     2
1002
{
1002
}
1002
}
1002
{
1040
8030.0
1040
190.3000030517578
1040
0.3050000071525574
1040
228.0
1040
545.0
1040
14.0
1040
17.39999961853027
1040
0.4560000002384186
1002
}
1002
}
  0
MESH
  5
F9
330
1F
100
AcDbEntity
  8
OracDecor_cornice_mouldings
 62
   121
420
 10937829
160
             29816
310
787400003C0300000C00000013000000020000003C0000000600000002000000000000A0FF3F8FC00000000000F067C0000000001CD41CC00000000000408F400000004000F067C00000000020D41CC00C000000130000000A0000003C00000006000000020000000000000000408F4000000060C8EE67C00000000030101C
310
C00000000000408F400000004000F067C00000000020D41CC00C00000013000000120000003C0000000600000002000000000000A0FF3F8FC000000020C8EE67C0000000002C101CC00000000000408F4000000060C8EE67C00000000030101CC00C000000130000001A0000003C0000000600000002000000000000A0FF3F
310
8FC00000000000F067C0000000001CD41CC0000000A0FF3F8FC000000020C8EE67C0000000002C101CC00C00000013000000220000003C00000006000000020000000000000000408F400000008050EB67C000000000106A1BC00000000000408F4000000060C8EE67C00000000030101CC00C000000130000002A0000003C
310
0000000600000002000000000000A0FF3F8FC00000004050EB67C000000000106A1BC00000000000408F400000008050EB67C000000000106A1BC00C00000013000000320000003C0000000600000002000000000000A0FF3F8FC000000020C8EE67C0000000002C101CC0000000A0FF3F8FC00000004050EB67C000000000
310
106A1BC00C000000130000003A0000003C00000006000000020000000000000000408F4000000040001067C000000000000000BF0000000000408F400000008050EB67C000000000106A1BC00C00000013000000420000003C0000000600000002000000000000A0FF3F8FC000000000001067C000000000000000BF000000
310
0000408F4000000040001067C000000000000000BF0C000000130000004A0000003C0000000600000002000000000000A0FF3F8FC00000004050EB67C000000000106A1BC0000000A0FF3F8FC000000000001067C000000000000000BF0C00000013000000520000003C00000006000000020000000000000000408F400000
310
0040FAE665C000000000000000BF0000000000408F4000000040001067C000000000000000BF0C000000130000005A0000003C0000000600000002000000000000A0FF3F8FC000000000FAE665C000000000000000BF0000000000408F4000000040FAE665C000000000000000BF0C00000013000000620000003C00000006
310
00000002000000000000A0FF3F8FC000000000001067C000000000000000BF000000A0FF3F8FC000000000FAE665C000000000000000BF0C000000130000006A0000003C00000006000000020000000000000000408F4000000080A7D765C000000000000DF5BF0000000000408F4000000040FAE665C000000000000000BF
310
0C00000013000000720000003C0000000600000002000000000000A0FF3F8FC000000040A7D765C000000000000DF5BF0000000000408F4000000080A7D765C000000000000DF5BF0C000000130000007A0000003C0000000600000002000000000000A0FF3F8FC000000000FAE665C000000000000000BF000000A0FF3F8F
310
C000000040A7D765C000000000000DF5BF0C00000013000000820000003C00000006000000020000000000000000408F4000000080A7D765C000000000000DF5BF0000000000408F4000000060A7CB65C000000000A0D7FEBF0C000000130000008A0000003C0000000600000002000000000000A0FF3F8FC000000020A7CB
310
65C00000000090D7FEBF0000000000408F4000000060A7CB65C000000000A0D7FEBF0C00000013000000920000003C0000000600000002000000000000A0FF3F8FC000000040A7D765C000000000000DF5BF000000A0FF3F8FC000000020A7CB65C00000000090D7FEBF0C000000130000009A0000003C0000000600000002
310
0000000000000000408F4000000060A7CB65C000000000A0D7FEBF0000000000408F40000000C0F4B865C00000000060C102C00C00000013000000A20000003C0000000600000002000000000000A0FF3F8FC000000080F4B865C00000000058C102C00000000000408F40000000C0F4B865C00000000060C102C00C000000
310
13000000AA0000003C0000000600000002000000000000A0FF3F8FC000000020A7CB65C00000000090D7FEBF000000A0FF3F8FC000000080F4B865C00000000058C102C00C00000013000000B20000003C00000006000000020000000000000000408F40000000C0F4B865C00000000060C102C00000000000408F40000000
310
8088A265C00000000080FF03C00C00000013000000BA0000003C0000000600000002000000000000A0FF3F8FC00000004088A265C00000000080FF03C00000000000408F400000008088A265C00000000080FF03C00C00000013000000C20000003C0000000600000002000000000000A0FF3F8FC000000080F4B865C00000
310
000058C102C0000000A0FF3F8FC00000004088A265C00000000080FF03C00C00000013000000CA0000003C00000006000000020000000000000000408F400000008088A265C00000000080FF03C00000000000408F4000000060F38B65C000000000A0F302C00C00000013000000D20000003C000000060000000200000000
310
0000A0FF3F8FC000000020F38B65C000000000A0F302C00000000000408F4000000060F38B65C000000000A0F302C00C00000013000000DA0000003C0000000600000002000000000000A0FF3F8FC00000004088A265C00000000080FF03C0000000A0FF3F8FC000000020F38B65C000000000A0F302C00C00000013000000
310
E20000003C00000006000000020000000000000000408F4000000060CC7865C000000000C090FFBF0000000000408F4000000060F38B65C000000000A0F302C00C00000013000000EA0000003C0000000600000002000000000000A0FF3F8FC000000020CC7865C000000000B090FFBF0000000000408F4000000060CC7865
310
C000000000C090FFBF0C00000013000000F20000003C0000000600000002000000000000A0FF3F8FC000000020F38B65C000000000A0F302C0000000A0FF3F8FC000000020CC7865C000000000B090FFBF0C00000013000000FA0000003C00000006000000020000000000000000408F4000000040AB3965C0000000000000
310
00BF0000000000408F4000000060CC7865C000000000C090FFBF0C00000013000000020100003C0000000600000002000000000000A0FF3F8FC000000000AB3965C000000000000000BF0000000000408F4000000040AB3965C000000000000000BF0C000000130000000A0100003C0000000600000002000000000000A0FF
310
3F8FC000000020CC7865C000000000B090FFBF000000A0FF3F8FC000000000AB3965C000000000000000BF0C00000013000000120100003C00000006000000020000000000000000408F400000008066D662C000000000000000BF0000000000408F4000000040AB3965C000000000000000BF0C000000130000001A010000
310
3C0000000600000002000000000000A0FF3F8FC00000004066D662C000000000000000BF0000000000408F400000008066D662C000000000000000BF0C00000013000000220100003C0000000600000002000000000000A0FF3F8FC000000000AB3965C000000000000000BF000000A0FF3F8FC00000004066D662C0000000
310
00000000BF0C000000130000002A0100003C00000006000000020000000000000000408F40000000805FB962C0000000004007EDBF0000000000408F400000008066D662C000000000000000BF0C00000013000000320100003C0000000600000002000000000000A0FF3F8FC0000000405FB962C0000000004007EDBF0000
310
000000408F40000000805FB962C0000000004007EDBF0C000000130000003A0100003C0000000600000002000000000000A0FF3F8FC00000004066D662C000000000000000BF000000A0FF3F8FC0000000405FB962C0000000004007EDBF0C00000013000000420100003C00000006000000020000000000000000408F4000
310
0000805FB962C0000000004007EDBF0000000000408F40000000C0FDAE62C00000000080FBF1BF0C000000130000004A0100003C0000000600000002000000000000A0FF3F8FC000000080FDAE62C00000000080FBF1BF0000000000408F40000000C0FDAE62C00000000080FBF1BF0C00000013000000520100003C000000
310
0600000002000000000000A0FF3F8FC0000000405FB962C0000000004007EDBF000000A0FF3F8FC000000080FDAE62C00000000080FBF1BF0C000000130000005A0100003C00000006000000020000000000000000408F40000000C0FDAE62C00000000080FBF1BF0000000000408F4000000000BFA262C0000000006033F3
310
BF0C00000013000000620100003C0000000600000002000000000000A0FF3F8FC0000000C0BEA262C0000000005033F3BF0000000000408F4000000000BFA262C0000000006033F3BF0C000000130000006A0100003C0000000600000002000000000000A0FF3F8FC000000080FDAE62C00000000080FBF1BF000000A0FF3F
310
8FC0000000C0BEA262C0000000005033F3BF0C00000013000000720100003C00000006000000020000000000000000408F4000000000BFA262C0000000006033F3BF0000000000408F40000000A04F275DC0000000006033F3BF0C000000130000007A0100003C0000000600000002000000000000A0FF3F8FC0000000204F
310
275DC0000000005033F3BF0000000000408F40000000A04F275DC0000000006033F3BF0C00000013000000820100003C0000000600000002000000000000A0FF3F8FC0000000C0BEA262C0000000005033F3BF000000A0FF3F8FC0000000204F275DC0000000005033F3BF0C000000130000008A0100003C00000006000000
310
020000000000000000408F40000000A04F275DC0000000006033F3BF0000000000408F40000000E0D10E5DC00000000090FBF1BF0C00000013000000920100003C0000000600000002000000000000A0FF3F8FC000000060D10E5DC00000000080FBF1BF0000000000408F40000000E0D10E5DC00000000090FBF1BF0C0000
310
00130000009A0100003C0000000600000002000000000000A0FF3F8FC0000000204F275DC0000000005033F3BF000000A0FF3F8FC000000060D10E5DC00000000080FBF1BF0C00000013000000A20100003C00000006000000020000000000000000408F40000000600EFA5CC0000000006007EDBF0000000000408F400000
310
00E0D10E5DC00000000090FBF1BF0C00000013000000AA0100003C0000000600000002000000000000A0FF3F8FC0000000E00DFA5CC0000000004007EDBF0000000000408F40000000600EFA5CC0000000006007EDBF0C00000013000000B20100003C0000000600000002000000000000A0FF3F8FC000000060D10E5DC000
310
00000080FBF1BF000000A0FF3F8FC0000000E00DFA5CC0000000004007EDBF0C00000013000000BA0100003C00000006000000020000000000000000408F400000006000C05CC000000000000008BF0000000000408F40000000600EFA5CC0000000006007EDBF0C00000013000000C20100003C0000000600000002000000
310
000000A0FF3F8FC0000000E0FFBF5CC000000000000000BF0000000000408F400000006000C05CC000000000000008BF0C00000013000000CA0100003C0000000600000002000000000000A0FF3F8FC0000000E00DFA5CC0000000004007EDBF000000A0FF3F8FC0000000E0FFBF5CC000000000000000BF0C000000130000
310
00D20100003C00000006000000020000000000000000408F40000000209E7A5AC000000000000008BF0000000000408F400000006000C05CC000000000000008BF0C00000013000000DA0100003C0000000600000002000000000000A0FF3F8FC0000000E09D7A5AC000000000000000BF0000000000408F40000000209E7A
310
5AC000000000000008BF0C00000013000000E20100003C0000000600000002000000000000A0FF3F8FC0000000E0FFBF5CC000000000000000BF000000A0FF3F8FC0000000E09D7A5AC000000000000000BF0C00000013000000EA0100003C00000006000000020000000000000000408F40000000A0F85B5AC00000000010
310
0DF5BF0000000000408F40000000209E7A5AC000000000000008BF0C00000013000000F20100003C0000000600000002000000000000A0FF3F8FC000000060F85B5AC000000000000DF5BF0000000000408F40000000A0F85B5AC000000000100DF5BF0C00000013000000FA0100003C0000000600000002000000000000A0
310
FF3F8FC0000000E09D7A5AC000000000000000BF000000A0FF3F8FC000000060F85B5AC000000000000DF5BF0C00000013000000020200003C00000006000000020000000000000000408F40000000A0F85B5AC000000000100DF5BF0000000000408F4000000060F8435AC000000000A0D7FEBF0C000000130000000A0200
310
003C0000000600000002000000000000A0FF3F8FC000000020F8435AC00000000090D7FEBF0000000000408F4000000060F8435AC000000000A0D7FEBF0C00000013000000120200003C0000000600000002000000000000A0FF3F8FC000000060F85B5AC000000000000DF5BF000000A0FF3F8FC000000020F8435AC00000
310
000090D7FEBF0C000000130000001A0200003C00000006000000020000000000000000408F4000000060F8435AC000000000A0D7FEBF0000000000408F4000000020931E5AC00000000060C102C00C00000013000000220200003C0000000600000002000000000000A0FF3F8FC0000000E0921E5AC00000000058C102C000
310
00000000408F4000000020931E5AC00000000060C102C00C000000130000002A0200003C0000000600000002000000000000A0FF3F8FC000000020F8435AC00000000090D7FEBF000000A0FF3F8FC0000000E0921E5AC00000000058C102C00C00000013000000320200003C00000006000000020000000000000000408F40
310
000000A0BAF159C00000000070FF03C00000000000408F4000000020931E5AC00000000060C102C00C000000130000003A0200003C0000000600000002000000000000A0FF3F8FC000000060BAF159C00000000068FF03C00000000000408F40000000A0BAF159C00000000070FF03C00C00000013000000420200003C0000
310
000600000002000000000000A0FF3F8FC0000000E0921E5AC00000000058C102C0000000A0FF3F8FC000000060BAF159C00000000068FF03C00C000000130000004A0200003C00000006000000020000000000000000408F400000006090C459C00000000090F302C00000000000408F40000000A0BAF159C00000000070FF
310
03C00C00000013000000520200003C0000000600000002000000000000A0FF3F8FC00000002090C459C00000000088F302C00000000000408F400000006090C459C00000000090F302C00C000000130000005A0200003C0000000600000002000000000000A0FF3F8FC000000060BAF159C00000000068FF03C0000000A0FF
310
3F8FC00000002090C459C00000000088F302C00C00000013000000620200003C00000006000000020000000000000000408F4000000080429E59C0000000008090FFBF0000000000408F400000006090C459C00000000090F302C00C000000130000006A0200003C0000000600000002000000000000A0FF3F8FC000000040
310
429E59C0000000008090FFBF0000000000408F4000000080429E59C0000000008090FFBF0C00000013000000720200003C0000000600000002000000000000A0FF3F8FC00000002090C459C00000000088F302C0000000A0FF3F8FC000000040429E59C0000000008090FFBF0C000000130000007A0200003C000000060000
310
00020000000000000000408F4000000040002059C000000000000000000000000000408F4000000080429E59C0000000008090FFBF0C00000013000000820200003C0000000600000002000000000000A0FF3F8FC000000000002059C0000000000000F03E0000000000408F4000000040002059C000000000000000000C00
310
0000130000008A0200003C0000000600000002000000000000A0FF3F8FC000000040429E59C0000000008090FFBF000000A0FF3F8FC000000000002059C0000000000000F03E0C00000013000000920200003C00000006000000020000000000000000408F40000000A066E656C0000000000000F0BE0000000000408F4000
310
000040002059C000000000000000000C000000130000009A0200003C0000000600000002000000000000A0FF3F8FC00000006066E656C0000000000000F0BE0000000000408F40000000A066E656C0000000000000F0BE0C00000013000000A20200003C0000000600000002000000000000A0FF3F8FC000000000002059C0
310
000000000000F03E000000A0FF3F8FC00000006066E656C0000000000000F0BE0C00000013000000AA0200003C00000006000000020000000000000000408F40000000E061AF56C000000000E036ECBF0000000000408F40000000A066E656C0000000000000F0BE0C00000013000000B20200003C00000006000000020000
310
00000000A0FF3F8FC0000000A061AF56C000000000E036ECBF0000000000408F40000000E061AF56C000000000E036ECBF0C00000013000000BA0200003C0000000600000002000000000000A0FF3F8FC00000006066E656C0000000000000F0BE000000A0FF3F8FC0000000A061AF56C000000000E036ECBF0C0000001300
310
0000C20200003C00000006000000020000000000000000408F40000000C0228C56C000000000D0BAFFBF0000000000408F40000000E061AF56C000000000E036ECBF0C00000013000000CA0200003C0000000600000002000000000000A0FF3F8FC000000080228C56C000000000D0BAFFBF0000000000408F40000000C022
310
8C56C000000000D0BAFFBF0C00000013000000D20200003C0000000600000002000000000000A0FF3F8FC0000000A061AF56C000000000E036ECBF000000A0FF3F8FC000000080228C56C000000000D0BAFFBF0C00000013000000DA0200003C00000006000000020000000000000000408F4000000060008056C000000000
310
909909C00000000000408F40000000C0228C56C000000000D0BAFFBF0C00000013000000E20200003C0000000600000002000000000000A0FF3F8FC000000000008056C000000000909909C00000000000408F4000000060008056C000000000909909C00C00000013000000EA0200003C0000000600000002000000000000
310
A0FF3F8FC000000080228C56C000000000D0BAFFBF000000A0FF3F8FC000000000008056C000000000909909C00C00000013000000F20200003C00000006000000020000000000000000408F4000000060008056C000000000909909C00000000000408F4000000060008056C000000000000032C00C00000013000000FA02
310
00003C0000000600000002000000000000A0FF3F8FC000000020008056C000000000FFFF31C00000000000408F4000000060008056C000000000000032C00C00000013000000020300003C0000000600000002000000000000A0FF3F8FC000000000008056C000000000909909C0000000A0FF3F8FC000000020008056C000
310
000000FFFF31C00C000000130000000A0300003C00000006000000020000000000000000408F4000000060008056C000000000000032C00000000000408F4000000020427656C000000000EEC332C00C00000013000000120300003C0000000600000002000000000000A0FF3F8FC0000000C0417656C000000000EEC332C0
310
0000000000408F4000000020427656C000000000EEC332C00C000000130000001A0300003C0000000600000002000000000000A0FF3F8FC000000020008056C000000000FFFF31C0000000A0FF3F8FC0000000C0417656C000000000EEC332C00C00000013000000220300003C00000006000000020000000000000000408F
310
4000000020427656C000000000EEC332C00000000000408F40000000E0825A56C000000000086A33C00C000000130000002A0300003C0000000600000002000000000000A0FF3F8FC0000000A0825A56C000000000096A33C00000000000408F40000000E0825A56C000000000086A33C00C00000013000000320300003C00
310
00000600000002000000000000A0FF3F8FC0000000C0417656C000000000EEC332C0000000A0FF3F8FC0000000A0825A56C000000000096A33C00C000000130000003A0300003C00000006000000020000000000000000408F4000000020FC3056C00000000006D933C00000000000408F40000000E0825A56C00000000008
310
6A33C00C00000013000000420300003C0000000600000002000000000000A0FF3F8FC0000000E0FB3056C00000000006D933C00000000000408F4000000020FC3056C00000000006D933C00C000000130000004A0300003C0000000600000002000000000000A0FF3F8FC0000000A0825A56C000000000096A33C0000000A0
310
FF3F8FC0000000E0FB3056C00000000006D933C00C00000013000000520300003C00000006000000020000000000000000408F4000000060000056C000000000FEFF33C00000000000408F4000000020FC3056C00000000006D933C00C000000130000005A0300003C0000000600000002000000000000A0FF3F8FC0000000
310
20000056C000000000FFFF33C00000000000408F4000000060000056C000000000FEFF33C00C00000013000000620300003C0000000600000002000000000000A0FF3F8FC0000000E0FB3056C00000000006D933C0000000A0FF3F8FC000000020000056C000000000FFFF33C00C000000130000006A0300003C0000000600
310
0000020000000000000000408F4000000060000056C000000000FEFF33C00000000000408F4000000080008042C000000000050034C00C00000013000000720300003C0000000600000002000000000000A0FF3F8FC000000080FF7F42C000000000010034C00000000000408F4000000080008042C000000000050034C00C
310
000000130000007A0300003C0000000600000002000000000000A0FF3F8FC000000020000056C000000000FFFF33C0000000A0FF3F8FC000000080FF7F42C000000000010034C00C00000013000000820300003C00000006000000020000000000000000408F4000000080008042C000000000050034C00000000000408F40
310
00000080206B41C000000000BA5734C00C000000130000008A0300003C0000000600000002000000000000A0FF3F8FC000000080206B41C000000000B65734C00000000000408F4000000080206B41C000000000BA5734C00C00000013000000920300003C0000000600000002000000000000A0FF3F8FC000000080FF7F42
310
C000000000010034C0000000A0FF3F8FC000000080206B41C000000000B65734C00C000000130000009A0300003C00000006000000020000000000000000408F4000000080206B41C000000000BA5734C00000000000408F4000000080567140C000000000475635C00C00000013000000A20300003C000000060000000200
310
0000000000A0FF3F8FC000000080557140C000000000435635C00000000000408F4000000080567140C000000000475635C00C00000013000000AA0300003C0000000600000002000000000000A0FF3F8FC000000080206B41C000000000B65734C0000000A0FF3F8FC000000080557140C000000000435635C00C00000013
310
000000B20300003C00000006000000020000000000000000408F4000000080567140C000000000475635C00000000000408F400000000043563FC000000000B1E236C00C00000013000000BA0300003C0000000600000002000000000000A0FF3F8FC00000000041563FC000000000ADE236C00000000000408F4000000000
310
43563FC000000000B1E236C00C00000013000000C20300003C0000000600000002000000000000A0FF3F8FC000000080557140C000000000435635C0000000A0FF3F8FC00000000041563FC000000000ADE236C00C00000013000000CA0300003C00000006000000020000000000000000408F4000000000B5573EC0000000
310
0042D638C00000000000408F400000000043563FC000000000B1E236C00C00000013000000D20300003C0000000600000002000000000000A0FF3F8FC000000000B5573EC00000000042D638C00000000000408F4000000000B5573EC00000000042D638C00C00000013000000DA0300003C00000006000000020000000000
310
00A0FF3F8FC00000000041563FC000000000ADE236C0000000A0FF3F8FC000000000B5573EC00000000042D638C00C00000013000000E20300003C00000006000000020000000000000000408F400000000001003EC00000000001003BC00000000000408F4000000000B5573EC00000000042D638C00C00000013000000EA
310
0300003C0000000600000002000000000000A0FF3F8FC000000000FFFF3DC00000000001003BC00000000000408F400000000001003EC00000000001003BC00C00000013000000F20300003C0000000600000002000000000000A0FF3F8FC000000000B5573EC00000000042D638C0000000A0FF3F8FC000000000FFFF3DC0
310
0000000001003BC00C00000013000000FA0300003C00000006000000020000000000000000408F400000000001003EC00000000001003BC00000000000408F400000000001003EC000000080000048C00C00000013000000020400003C0000000600000002000000000000A0FF3F8FC000000000FFFF3DC000000080000048
310
C00000000000408F400000000001003EC000000080000048C00C000000130000000A0400003C0000000600000002000000000000A0FF3F8FC000000000FFFF3DC00000000001003BC0000000A0FF3F8FC000000000FFFF3DC000000080000048C00C00000013000000120400003C0000000600000002000000000000000040
310
8F400000000001003EC000000080000048C00000000000408F400000000007D93DC000000000F86148C00C000000130000001A0400003C0000000600000002000000000000A0FF3F8FC00000000007D93DC000000000F86148C00000000000408F400000000007D93DC000000000F86148C00C00000013000000220400003C
310
0000000600000002000000000000A0FF3F8FC000000000FFFF3DC000000080000048C0000000A0FF3F8FC00000000007D93DC000000000F86148C00C000000130000002A0400003C00000006000000020000000000000000408F40000000000B6A3DC00000008005B548C00000000000408F400000000007D93DC000000000
310
F86148C00C00000013000000320400003C0000000600000002000000000000A0FF3F8FC000000000096A3DC00000008005B548C00000000000408F40000000000B6A3DC00000008005B548C00C000000130000003A0400003C0000000600000002000000000000A0FF3F8FC00000000007D93DC000000000F86148C0000000
310
A0FF3F8FC000000000096A3DC00000008005B548C00C00000013000000420400003C00000006000000020000000000000000408F4000000000EFC33CC00000008083EC48C00000000000408F40000000000B6A3DC00000008005B548C00C000000130000004A0400003C0000000600000002000000000000A0FF3F8FC00000
310
0000EFC33CC00000008083EC48C00000000000408F4000000000EFC33CC00000008083EC48C00C00000013000000520400003C0000000600000002000000000000A0FF3F8FC000000000096A3DC00000008005B548C0000000A0FF3F8FC000000000EFC33CC00000008083EC48C00C000000130000005A0400003C00000006
310
000000020000000000000000408F400000000001003CC000000080000049C00000000000408F4000000000EFC33CC00000008083EC48C00C00000013000000620400003C0000000600000002000000000000A0FF3F8FC000000000FFFF3BC000000080000049C00000000000408F400000000001003CC000000080000049C0
310
0C000000130000006A0400003C0000000600000002000000000000A0FF3F8FC000000000EFC33CC00000008083EC48C0000000A0FF3F8FC000000000FFFF3BC000000080000049C00C00000013000000720400003C00000006000000020000000000000000408F400000000001003CC000000080000049C00000000000408F
310
4000000000CCCC14C0000000C0000049C00C000000130000007A0400003C0000000600000002000000000000A0FF3F8FC000000000CCCC14C000000080000049C00000000000408F4000000000CCCC14C0000000C0000049C00C00000013000000820400003C0000000600000002000000000000A0FF3F8FC000000000FFFF
310
3BC000000080000049C0000000A0FF3F8FC000000000CCCC14C000000080000049C00C000000130000008A0400003C00000006000000020000000000000000408F4000000000CCCC14C0000000C0000049C00000000000408F4000000000F8B50FC000000000111949C00C00000013000000920400003C0000000600000002
310
000000000000A0FF3F8FC000000000F8B50FC0000000C0101949C00000000000408F4000000000F8B50FC000000000111949C00C000000130000009A0400003C0000000600000002000000000000A0FF3F8FC000000000CCCC14C000000080000049C0000000A0FF3F8FC000000000F8B50FC0000000C0101949C00C000000
310
13000000A20400003C00000006000000020000000000000000408F400000000068CA06C000000080CA6149C00000000000408F4000000000F8B50FC000000000111949C00C00000013000000AA0400003C0000000600000002000000000000A0FF3F8FC00000000068CA06C000000040CA6149C00000000000408F40000000
310
0068CA06C000000080CA6149C00C00000013000000B20400003C0000000600000002000000000000A0FF3F8FC000000000F8B50FC0000000C0101949C0000000A0FF3F8FC00000000068CA06C000000040CA6149C00C00000013000000BA0400003C00000006000000020000000000000000408F4000000000706CFFBF0000
310
00800DD349C00000000000408F400000000068CA06C000000080CA6149C00C00000013000000C20400003C0000000600000002000000000000A0FF3F8FC000000000706CFFBF000000400DD349C00000000000408F4000000000706CFFBF000000800DD349C00C00000013000000CA0400003C000000060000000200000000
310
0000A0FF3F8FC00000000068CA06C000000040CA6149C0000000A0FF3F8FC000000000706CFFBF000000400DD349C00C00000013000000D20400003C00000006000000020000000000000000408F40000000005055F6BF00000080C6614AC00000000000408F4000000000706CFFBF000000800DD349C00C00000013000000
310
DA0400003C0000000600000002000000000000A0FF3F8FC0000000003055F6BF00000040C6614AC00000000000408F40000000005055F6BF00000080C6614AC00C00000013000000E20400003C0000000600000002000000000000A0FF3F8FC000000000706CFFBF000000400DD349C0000000A0FF3F8FC0000000003055F6
310
BF00000040C6614AC00C00000013000000EA0400003C00000006000000020000000000000000408F40000000003033F3BF000000C000004BC00000000000408F40000000005055F6BF00000080C6614AC00C00000013000000F20400003C0000000600000002000000000000A0FF3F8FC0000000003033F3BF000000800000
310
4BC00000000000408F40000000003033F3BF000000C000004BC00C00000013000000FA0400003C0000000600000002000000000000A0FF3F8FC0000000003055F6BF00000040C6614AC0000000A0FF3F8FC0000000003033F3BF0000008000004BC00C00000013000000020500003C00000006000000020000000000000000
310
408F40000000003033F3BF000000C000004BC00000000000408F40000000000033F3BF000000E07DE550C00C000000130000000A0500003C0000000600000002000000000000A0FF3F8FC0000000000033F3BF000000C07DE550C00000000000408F40000000000033F3BF000000E07DE550C00C0000001300000012050000
310
3C0000000600000002000000000000A0FF3F8FC0000000003033F3BF0000008000004BC0000000A0FF3F8FC0000000000033F3BF000000C07DE550C00C000000130000001A0500003C00000006000000020000000000000000408F40000000000033F3BF000000E07DE550C00000000000408F400000000020FBF1BF000000
310
C0FBFD50C00C00000013000000220500003C0000000600000002000000000000A0FF3F8FC00000000020FBF1BF000000A0FBFD50C00000000000408F400000000020FBF1BF000000C0FBFD50C00C000000130000002A0500003C0000000600000002000000000000A0FF3F8FC0000000000033F3BF000000C07DE550C00000
310
00A0FF3F8FC00000000020FBF1BF000000A0FBFD50C00C00000013000000320500003C00000006000000020000000000000000408F40000000008006EDBF00000020BF1251C00000000000408F400000000020FBF1BF000000C0FBFD50C00C000000130000003A0500003C0000000600000002000000000000A0FF3F8FC000
310
0000008006EDBF00000000BF1251C00000000000408F40000000008006EDBF00000020BF1251C00C00000013000000420500003C0000000600000002000000000000A0FF3F8FC00000000020FBF1BF000000A0FBFD50C0000000A0FF3F8FC0000000008006EDBF00000000BF1251C00C000000130000004A0500003C000000
310
06000000020000000000000000408F40000000000000103F00000020CD4C51C00000000000408F40000000008006EDBF00000020BF1251C00C00000013000000520500003C0000000600000002000000000000A0FF3F8FC0000000000000103F00000000CD4C51C00000000000408F40000000000000103F00000020CD4C51
310
C00C000000130000005A0500003C0000000600000002000000000000A0FF3F8FC0000000008006EDBF00000000BF1251C0000000A0FF3F8FC0000000000000103F00000000CD4C51C00C00000013000000620500003C00000006000000020000000000000000408F40000000000000103F00000020B37453C0000000000040
310
8F40000000000000103F00000020CD4C51C00C000000130000006A0500003C0000000600000002000000000000A0FF3F8FC0000000000000103F00000000B37453C00000000000408F40000000000000103F00000020B37453C00C00000013000000720500003C0000000600000002000000000000A0FF3F8FC00000000000
310
00103F00000000CD4C51C0000000A0FF3F8FC0000000000000103F00000000B37453C00C000000130000007A0500003C00000006000000020000000000000000408F40000000008090FFBF00000060F5F253C00000000000408F40000000000000103F00000020B37453C00C00000013000000820500003C00000006000000
310
02000000000000A0FF3F8FC0000000007090FFBF00000040F5F253C00000000000408F40000000008090FFBF00000060F5F253C00C000000130000008A0500003C0000000600000002000000000000A0FF3F8FC0000000000000103F00000000B37453C0000000A0FF3F8FC0000000007090FFBF00000040F5F253C00C0000
310
0013000000920500003C00000006000000020000000000000000408F40000000008090FFBF00000060F5F253C00000000000408F400000000080F302C000000020431954C00C000000130000009A0500003C0000000600000002000000000000A0FF3F8FC00000000078F302C000000000431954C00000000000408F400000
310
000080F302C000000020431954C00C00000013000000A20500003C0000000600000002000000000000A0FF3F8FC0000000007090FFBF00000040F5F253C0000000A0FF3F8FC00000000078F302C000000000431954C00C00000013000000AA0500003C00000006000000020000000000000000408F400000000060FF03C000
310
0000806D4654C00000000000408F400000000080F302C000000020431954C00C00000013000000B20500003C0000000600000002000000000000A0FF3F8FC00000000058FF03C0000000606D4654C00000000000408F400000000060FF03C0000000806D4654C00C00000013000000BA0500003C0000000600000002000000
310
000000A0FF3F8FC00000000078F302C000000000431954C0000000A0FF3F8FC00000000058FF03C0000000606D4654C00C00000013000000C20500003C00000006000000020000000000000000408F400000000040C102C0000000E0457354C00000000000408F400000000060FF03C0000000806D4654C00C000000130000
310
00CA0500003C0000000600000002000000000000A0FF3F8FC00000000038C102C0000000C0457354C00000000000408F400000000040C102C0000000E0457354C00C00000013000000D20500003C0000000600000002000000000000A0FF3F8FC00000000058FF03C0000000606D4654C0000000A0FF3F8FC00000000038C1
310
02C0000000C0457354C00C00000013000000DA0500003C00000006000000020000000000000000408F400000000060D7FEBF00000040AB9854C00000000000408F400000000040C102C0000000E0457354C00C00000013000000E20500003C0000000600000002000000000000A0FF3F8FC00000000050D7FEBF00000020AB
310
9854C00000000000408F400000000060D7FEBF00000040AB9854C00C00000013000000EA0500003C0000000600000002000000000000A0FF3F8FC00000000038C102C0000000C0457354C0000000A0FF3F8FC00000000050D7FEBF00000020AB9854C00C00000013000000F20500003C000000060000000200000000000000
310
00408F4000000000C00CF5BF00000060ABB054C00000000000408F400000000060D7FEBF00000040AB9854C00C00000013000000FA0500003C0000000600000002000000000000A0FF3F8FC000000000B00CF5BF00000040ABB054C00000000000408F4000000000C00CF5BF00000060ABB054C00C00000013000000020600
310
003C0000000600000002000000000000A0FF3F8FC00000000050D7FEBF00000020AB9854C0000000A0FF3F8FC000000000B00CF5BF00000040ABB054C00C000000130000000A0600003C00000006000000020000000000000000408F40000000000000003F000000E050CF54C00000000000408F4000000000C00CF5BF0000
310
0060ABB054C00C00000013000000120600003C0000000600000002000000000000A0FF3F8FC0000000000000083F000000C050CF54C00000000000408F40000000000000003F000000E050CF54C00C000000130000001A0600003C0000000600000002000000000000A0FF3F8FC000000000B00CF5BF00000040ABB054C000
310
0000A0FF3F8FC0000000000000083F000000C050CF54C00C00000013000000220600003C00000006000000020000000000000000408F40000000000000003F000000A000A057C00000000000408F40000000000000003F000000E050CF54C00C000000130000002A0600003C0000000600000002000000000000A0FF3F8FC0
310
000000000000083F0000004000A057C00000000000408F40000000000000003F000000A000A057C00C00000013000000320600003C0000000600000002000000000000A0FF3F8FC0000000000000083F0000004000A057C0000000A0FF3F8FC0000000000000083F000000C050CF54C00C000000130000003A0600003C0000
310
0006000000020000000000000000408F40000000000000003F000000A000A057C00000000000408F4000000000006A1BC000000000A15659C00C00000013000000420600003C0000000600000002000000000000A0FF3F8FC000000000FC691BC0000000E0A05659C00000000000408F4000000000006A1BC000000000A156
310
59C00C000000130000004A0600003C0000000600000002000000000000A0FF3F8FC0000000000000083F0000004000A057C0000000A0FF3F8FC000000000FC691BC0000000E0A05659C00C00000013000000520600003C00000006000000020000000000000000408F4000000000006A1BC000000000A15659C00000000000
310
408F400000000020101CC0000000C0905D59C00C000000130000005A0600003C0000000600000002000000000000A0FF3F8FC0000000001C101CC0000000A0905D59C00000000000408F400000000020101CC0000000C0905D59C00C00000013000000620600003C0000000600000002000000000000A0FF3F8FC000000000
310
FC691BC0000000E0A05659C0000000A0FF3F8FC0000000001C101CC0000000A0905D59C00C000000130000006A0600003C00000006000000020000000000000000408F400000000020101CC0000000C0905D59C00000000000408F400000000010D41CC000000060006059C00C00000013000000720600003C000000060000
310
0002000000000000A0FF3F8FC0000000000CD41CC000000040006059C00000000000408F400000000010D41CC000000060006059C00C000000130000007A0600003C0000000600000002000000000000A0FF3F8FC0000000001C101CC0000000A0905D59C0000000A0FF3F8FC0000000000CD41CC000000040006059C00C00
310
000013000000820600003C00000006000000020000000000000000408F4000000000686628C000000060006059C00000000000408F400000000010D41CC000000060006059C00C000000130000008A0600003C0000000600000002000000000000A0FF3F8FC000000000626628C000000040006059C00000000000408F4000
310
000000686628C000000060006059C00C00000013000000920600003C0000000600000002000000000000A0FF3F8FC0000000000CD41CC000000040006059C0000000A0FF3F8FC000000000626628C000000040006059C00C000000130000009A0600003C00000006000000020000000000000000408F400000000068E628C0
310
000000E0B65B59C00000000000408F4000000000686628C000000060006059C00C00000013000000A20600003C0000000600000002000000000000A0FF3F8FC00000000062E628C0000000C0B65B59C00000000000408F400000000068E628C0000000E0B65B59C00C00000013000000AA0600003C00000006000000020000
310
00000000A0FF3F8FC000000000626628C000000040006059C0000000A0FF3F8FC00000000062E628C0000000C0B65B59C00C00000013000000B20600003C00000006000000020000000000000000408F400000000068E628C0000000E0B65B59C00000000000408F40000000001C4429C000000060005059C00C0000001300
310
0000BA0600003C0000000600000002000000000000A0FF3F8FC000000000164429C000000040005059C00000000000408F40000000001C4429C000000060005059C00C00000013000000C20600003C0000000600000002000000000000A0FF3F8FC00000000062E628C0000000C0B65B59C0000000A0FF3F8FC00000000016
310
4429C000000040005059C00C00000013000000CA0600003C00000006000000020000000000000000408F4000000000686629C000000060004059C00000000000408F40000000001C4429C000000060005059C00C00000013000000D20600003C0000000600000002000000000000A0FF3F8FC000000000626629C000000040
310
004059C00000000000408F4000000000686629C000000060004059C00C00000013000000DA0600003C0000000600000002000000000000A0FF3F8FC000000000164429C000000040005059C0000000A0FF3F8FC000000000626629C000000040004059C00C00000013000000E20600003C0000000600000002000000000000
310
0000408F4000000000686629C0000000C000004FC00000000000408F4000000000686629C000000060004059C00C00000013000000EA0600003C0000000600000002000000000000A0FF3F8FC000000000666629C00000008000004FC00000000000408F4000000000686629C0000000C000004FC00C00000013000000F206
310
00003C0000000600000002000000000000A0FF3F8FC000000000626629C000000040004059C0000000A0FF3F8FC000000000666629C00000008000004FC00C00000013000000FA0600003C00000006000000020000000000000000408F4000000000B48829C0000000C000E04EC00000000000408F4000000000686629C000
310
0000C000004FC00C00000013000000020700003C0000000600000002000000000000A0FF3F8FC000000000B28829C00000008000E04EC00000000000408F4000000000B48829C0000000C000E04EC00C000000130000000A0700003C0000000600000002000000000000A0FF3F8FC000000000666629C00000008000004FC0
310
000000A0FF3F8FC000000000B28829C00000008000E04EC00C00000013000000120700003C00000006000000020000000000000000408F4000000000B48829C0000000C000E04EC00000000000408F400000000068E629C0000000C093C84EC00C000000130000001A0700003C0000000600000002000000000000A0FF3F8F
310
C00000000066E629C00000008093C84EC00000000000408F400000000068E629C0000000C093C84EC00C00000013000000220700003C0000000600000002000000000000A0FF3F8FC000000000B28829C00000008000E04EC0000000A0FF3F8FC00000000066E629C00000008093C84EC00C000000130000002A0700003C00
310
000006000000020000000000000000408F400000000068662AC0000000C000C04EC00000000000408F400000000068E629C0000000C093C84EC00C00000013000000320700003C0000000600000002000000000000A0FF3F8FC00000000066662AC00000008000C04EC00000000000408F400000000068662AC0000000C000
310
C04EC00C000000130000003A0700003C0000000600000002000000000000A0FF3F8FC00000000066E629C00000008093C84EC0000000A0FF3F8FC00000000066662AC00000008000C04EC00C00000013000000420700003C00000006000000020000000000000000408F4000000080008044C00000008000C04EC000000000
310
00408F400000000068662AC0000000C000C04EC00C000000130000004A0700003C0000000600000002000000000000A0FF3F8FC000000000008044C00000008000C04EC00000000000408F4000000080008044C00000008000C04EC00C00000013000000520700003C0000000600000002000000000000A0FF3F8FC0000000
310
0066662AC00000008000C04EC0000000A0FF3F8FC000000000008044C00000008000C04EC00C000000130000005A0700003C00000006000000020000000000000000408F400000008000A044C0000000806DB74EC00000000000408F4000000080008044C00000008000C04EC00C00000013000000620700003C0000000600
310
000002000000000000A0FF3F8FC00000000000A044C0000000806DB74EC00000000000408F400000008000A044C0000000806DB74EC00C000000130000006A0700003C0000000600000002000000000000A0FF3F8FC000000000008044C00000008000C04EC0000000A0FF3F8FC00000000000A044C0000000806DB74EC00C
310
00000013000000720700003C00000006000000020000000000000000408F400000008000A044C0000000806DB74EC00000000000408F40000000806DB744C00000004000A04EC00C000000130000007A0700003C0000000600000002000000000000A0FF3F8FC0000000006DB744C00000004000A04EC00000000000408F40
310
000000806DB744C00000004000A04EC00C00000013000000820700003C0000000600000002000000000000A0FF3F8FC00000000000A044C0000000806DB74EC0000000A0FF3F8FC0000000006DB744C00000004000A04EC00C000000130000008A0700003C00000006000000020000000000000000408F400000008000C044
310
C00000004000804EC00000000000408F40000000806DB744C00000004000A04EC00C00000013000000920700003C0000000600000002000000000000A0FF3F8FC00000000000C044C00000004000804EC00000000000408F400000008000C044C00000004000804EC00C000000130000009A0700003C000000060000000200
310
0000000000A0FF3F8FC0000000006DB744C00000004000A04EC0000000A0FF3F8FC00000000000C044C00000004000804EC00C00000013000000A20700003C00000006000000020000000000000000408F400000008000C044C000000000000040C00000000000408F400000008000C044C00000004000804EC00C00000013
310
000000AA0700003C0000000600000002000000000000A0FF3F8FC000000080FFBF44C000000000000040C00000000000408F400000008000C044C000000000000040C00C00000013000000B20700003C0000000600000002000000000000A0FF3F8FC00000000000C044C00000004000804EC0000000A0FF3F8FC000000080
310
FFBF44C000000000000040C00C00000013000000BA0700003C00000006000000020000000000000000408F400000008093C844C00000000000C03FC00000000000408F400000008000C044C000000000000040C00C00000013000000C20700003C0000000600000002000000000000A0FF3F8FC00000008092C844C0000000
310
0000C03FC00000000000408F400000008093C844C00000000000C03FC00C00000013000000CA0700003C0000000600000002000000000000A0FF3F8FC000000080FFBF44C000000000000040C0000000A0FF3F8FC00000008092C844C00000000000C03FC00C00000013000000D20700003C00000006000000020000000000
310
000000408F400000008093C844C00000000000C03FC00000000000408F400000008000E044C00000000026913FC00C00000013000000DA0700003C0000000600000002000000000000A0FF3F8FC000000080FFDF44C00000000026913FC00000000000408F400000008000E044C00000000026913FC00C00000013000000E2
310
0700003C0000000600000002000000000000A0FF3F8FC00000008092C844C00000000000C03FC0000000A0FF3F8FC000000080FFDF44C00000000026913FC00C00000013000000EA0700003C00000006000000020000000000000000408F4000000080000045C00000000000803FC00000000000408F400000008000E044C0
310
0000000026913FC00C00000013000000F20700003C0000000600000002000000000000A0FF3F8FC000000080FFFF44C00000000000803FC00000000000408F4000000080000045C00000000000803FC00C00000013000000FA0700003C0000000600000002000000000000A0FF3F8FC000000080FFDF44C00000000026913F
310
C0000000A0FF3F8FC000000080FFFF44C00000000000803FC00C00000013000000020800003C00000006000000020000000000000000408F40000000E0FF3F59C00000000002803FC00000000000408F4000000080000045C00000000000803FC00C000000130000000A0800003C0000000600000002000000000000A0FF3F
310
8FC0000000C0FF3F59C00000008001803FC00000000000408F40000000E0FF3F59C00000000002803FC00C00000013000000120800003C0000000600000002000000000000A0FF3F8FC000000080FFFF44C00000000000803FC0000000A0FF3F8FC0000000C0FF3F59C00000008001803FC00C000000130000001A0800003C
310
00000006000000020000000000000000408F40000000E0FF4F59C000000000DC6E3FC00000000000408F40000000E0FF3F59C00000000002803FC00C00000013000000220800003C0000000600000002000000000000A0FF3F8FC0000000C0FF4F59C000000080DB6E3FC00000000000408F40000000E0FF4F59C000000000
310
DC6E3FC00C000000130000002A0800003C0000000600000002000000000000A0FF3F8FC0000000C0FF3F59C00000008001803FC0000000A0FF3F8FC0000000C0FF4F59C000000080DB6E3FC00C00000013000000320800003C00000006000000020000000000000000408F4000000060B65B59C00000000002403FC0000000
310
0000408F40000000E0FF4F59C000000000DC6E3FC00C000000130000003A0800003C0000000600000002000000000000A0FF3F8FC000000040B65B59C00000008001403FC00000000000408F4000000060B65B59C00000000002403FC00C00000013000000420800003C0000000600000002000000000000A0FF3F8FC00000
310
00C0FF4F59C000000080DB6E3FC0000000A0FF3F8FC000000040B65B59C00000008001403FC00C000000130000004A0800003C00000006000000020000000000000000408F40000000E0FF5F59C00000000002003FC00000000000408F4000000060B65B59C00000000002403FC00C00000013000000520800003C00000006
310
00000002000000000000A0FF3F8FC0000000C0FF5F59C00000008001003FC00000000000408F40000000E0FF5F59C00000000002003FC00C000000130000005A0800003C0000000600000002000000000000A0FF3F8FC000000040B65B59C00000008001403FC0000000A0FF3F8FC0000000C0FF5F59C00000008001003FC0
310
0C00000013000000620800003C00000006000000020000000000000000408F4000000060006059C00000000064662AC00000000000408F40000000E0FF5F59C00000000002003FC00C000000130000006A0800003C0000000600000002000000000000A0FF3F8FC000000020006059C00000000064662AC00000000000408F
310
4000000060006059C00000000064662AC00C00000013000000720800003C0000000600000002000000000000A0FF3F8FC0000000C0FF5F59C00000008001003FC0000000A0FF3F8FC000000020006059C00000000064662AC00C000000130000007A0800003C00000006000000020000000000000000408F40000000E04964
310
59C00000000064E629C00000000000408F4000000060006059C00000000064662AC00C00000013000000820800003C0000000600000002000000000000A0FF3F8FC0000000A0496459C00000000064E629C00000000000408F40000000E0496459C00000000064E629C00C000000130000008A0800003C0000000600000002
310
000000000000A0FF3F8FC000000020006059C00000000064662AC0000000A0FF3F8FC0000000A0496459C00000000064E629C00C00000013000000920800003C00000006000000020000000000000000408F40000000E0496459C00000000064E629C00000000000408F4000000060007059C000000000B08829C00C000000
310
130000009A0800003C0000000600000002000000000000A0FF3F8FC000000020007059C000000000B08829C00000000000408F4000000060007059C000000000B08829C00C00000013000000A20800003C0000000600000002000000000000A0FF3F8FC0000000A0496459C00000000064E629C0000000A0FF3F8FC0000000
310
20007059C000000000B08829C00C00000013000000AA0800003C00000006000000020000000000000000408F4000000060008059C000000000646629C00000000000408F4000000060007059C000000000B08829C00C00000013000000B20800003C0000000600000002000000000000A0FF3F8FC000000020008059C00000
310
0000646629C00000000000408F4000000060008059C000000000646629C00C00000013000000BA0800003C0000000600000002000000000000A0FF3F8FC000000020007059C000000000B08829C0000000A0FF3F8FC000000020008059C000000000646629C00C00000013000000C20800003C000000060000000200000000
310
00000000408F400000002000E067C0000000006C6629C00000000000408F4000000060008059C000000000646629C00C00000013000000CA0800003C0000000600000002000000000000A0FF3F8FC00000000000E067C0000000006A6629C00000000000408F400000002000E067C0000000006C6629C00C00000013000000
310
D20800003C0000000600000002000000000000A0FF3F8FC000000020008059C000000000646629C0000000A0FF3F8FC00000000000E067C0000000006A6629C00C00000013000000DA0800003C00000006000000020000000000000000408F400000002000E867C000000000204429C00000000000408F400000002000E067
310
C0000000006C6629C00C00000013000000E20800003C0000000600000002000000000000A0FF3F8FC00000000000E867C0000000001E4429C00000000000408F400000002000E867C000000000204429C00C00000013000000EA0800003C0000000600000002000000000000A0FF3F8FC00000000000E067C0000000006A66
310
29C0000000A0FF3F8FC00000000000E867C0000000001E4429C00C00000013000000F20800003C00000006000000020000000000000000408F4000000060DBED67C0000000006CE628C00000000000408F400000002000E867C000000000204429C00C00000013000000FA0800003C0000000600000002000000000000A0FF
310
3F8FC000000040DBED67C0000000006AE628C00000000000408F4000000060DBED67C0000000006CE628C00C00000013000000020900003C0000000600000002000000000000A0FF3F8FC00000000000E867C0000000001E4429C0000000A0FF3F8FC000000040DBED67C0000000006AE628C00C000000130000000A090000
310
3C00000006000000020000000000000000408F400000002000F067C0000000006C6628C00000000000408F4000000060DBED67C0000000006CE628C00C00000013000000120900003C0000000600000002000000000000A0FF3F8FC00000000000F067C0000000006A6628C00000000000408F400000002000F067C0000000
310
006C6628C00C000000130000001A0900003C0000000600000002000000000000A0FF3F8FC000000040DBED67C0000000006AE628C0000000A0FF3F8FC00000000000F067C0000000006A6628C00C00000013000000220900003C00000006000000020000000000000000408F400000004000F067C00000000020D41CC00000
310
000000408F400000002000F067C0000000006C6628C00C000000130000002A0900003C0000000600000002000000000000A0FF3F8FC00000000000F067C0000000006A6628C0000000A0FF3F8FC00000000000F067C0000000001CD41CC00C00000013000000320900003C0000000600000002000000000000A0FF3F8FC000
310
000000FC691BC0000000E0A05659C0000000A0FF3F8FC000000000B00CF5BF00000040ABB054C00C000000130000003A0900003C0000000600000002000000000000A0FF3F8FC00000004050EB67C000000000106A1BC0000000A0FF3F8FC000000040A7D765C000000000000DF5BF0C00000013000000420900003C000000
310
0600000002000000000000A0FF3F8FC000000020C8EE67C0000000002C101CC0000000A0FF3F8FC000000040A7D765C000000000000DF5BF0C000000130000004A0900003C0000000600000002000000000000A0FF3F8FC00000000000F067C0000000001CD41CC0000000A0FF3F8FC000000040A7D765C000000000000DF5
310
BF0C00000013000000520900003C0000000600000002000000000000A0FF3F8FC00000000000F067C0000000006A6628C0000000A0FF3F8FC000000020A7CB65C00000000090D7FEBF0C000000130000005A0900003C0000000600000002000000000000A0FF3F8FC000000040DBED67C0000000006AE628C0000000A0FF3F
310
8FC000000020A7CB65C00000000090D7FEBF0C00000013000000620900003C0000000600000002000000000000A0FF3F8FC00000000000E867C0000000001E4429C0000000A0FF3F8FC000000080F4B865C00000000058C102C00C000000130000006A0900003C0000000600000002000000000000A0FF3F8FC00000000000
310
E067C0000000006A6629C0000000A0FF3F8FC000000080F4B865C00000000058C102C00C00000013000000720900003C0000000600000002000000000000A0FF3F8FC000000020CC7865C000000000B090FFBF000000A0FF3F8FC0000000405FB962C0000000004007EDBF0C000000130000007A0900003C00000006000000
310
02000000000000A0FF3F8FC00000000000E067C0000000006A6629C0000000A0FF3F8FC00000004088A265C00000000080FF03C00C00000013000000820900003C0000000600000002000000000000A0FF3F8FC000000020008059C000000000646629C0000000A0FF3F8FC000000020F38B65C000000000A0F302C00C0000
310
00130000008A0900003C0000000600000002000000000000A0FF3F8FC000000020F38B65C000000000A0F302C0000000A0FF3F8FC000000080FDAE62C00000000080FBF1BF0C00000013000000920900003C0000000600000002000000000000A0FF3F8FC000000020008059C000000000646629C0000000A0FF3F8FC00000
310
00C0BEA262C0000000005033F3BF0C000000130000009A0900003C0000000600000002000000000000A0FF3F8FC000000020008059C000000000646629C0000000A0FF3F8FC0000000204F275DC0000000005033F3BF0C00000013000000A20900003C0000000600000002000000000000A0FF3F8FC0000000E00DFA5CC000
310
0000004007EDBF000000A0FF3F8FC000000060F85B5AC000000000000DF5BF0C00000013000000AA0900003C0000000600000002000000000000A0FF3F8FC000000060D10E5DC00000000080FBF1BF000000A0FF3F8FC000000020F8435AC00000000090D7FEBF0C00000013000000B20900003C0000000600000002000000
310
000000A0FF3F8FC000000020008059C000000000646629C0000000A0FF3F8FC000000020F8435AC00000000090D7FEBF0C00000013000000BA0900003C0000000600000002000000000000A0FF3F8FC000000020006059C00000000064662AC0000000A0FF3F8FC000000000008056C000000000909909C00C000000130000
310
00C20900003C0000000600000002000000000000A0FF3F8FC0000000A0496459C00000000064E629C0000000A0FF3F8FC000000080228C56C000000000D0BAFFBF0C00000013000000CA0900003C0000000600000002000000000000A0FF3F8FC000000020007059C000000000B08829C0000000A0FF3F8FC0000000A061AF
310
56C000000000E036ECBF0C00000013000000D20900003C0000000600000002000000000000A0FF3F8FC000000020007059C000000000B08829C0000000A0FF3F8FC00000006066E656C0000000000000F0BE0C00000013000000DA0900003C0000000600000002000000000000A0FF3F8FC000000020007059C000000000B0
310
8829C0000000A0FF3F8FC000000040429E59C0000000008090FFBF0C00000013000000E20900003C0000000600000002000000000000A0FF3F8FC000000020007059C000000000B08829C0000000A0FF3F8FC00000002090C459C00000000088F302C00C00000013000000EA0900003C0000000600000002000000000000A0
310
FF3F8FC000000020008059C000000000646629C0000000A0FF3F8FC000000060BAF159C00000000068FF03C00C00000013000000F20900003C0000000600000002000000000000A0FF3F8FC000000020008059C000000000646629C0000000A0FF3F8FC0000000E0921E5AC00000000058C102C00C00000013000000FA0900
310
003C0000000600000002000000000000A0FF3F8FC0000000C0FF5F59C00000008001003FC0000000A0FF3F8FC000000020008056C000000000FFFF31C00C00000013000000020A00003C0000000600000002000000000000A0FF3F8FC000000040B65B59C00000008001403FC0000000A0FF3F8FC0000000C0417656C00000
310
0000EEC332C00C000000130000000A0A00003C0000000600000002000000000000A0FF3F8FC0000000C0FF3F59C00000008001803FC0000000A0FF3F8FC000000020000056C000000000FFFF33C00C00000013000000120A00003C0000000600000002000000000000A0FF3F8FC0000000C0FF4F59C000000080DB6E3FC000
310
0000A0FF3F8FC0000000E0FB3056C00000000006D933C00C000000130000001A0A00003C0000000600000002000000000000A0FF3F8FC0000000C0FF4F59C000000080DB6E3FC0000000A0FF3F8FC0000000A0825A56C000000000096A33C00C00000013000000220A00003C0000000600000002000000000000A0FF3F8FC0
310
00000040B65B59C00000008001403FC0000000A0FF3F8FC0000000A0825A56C000000000096A33C00C000000130000002A0A00003C0000000600000002000000000000A0FF3F8FC000000080FFFF44C00000000000803FC0000000A0FF3F8FC000000080FF7F42C000000000010034C00C00000013000000320A00003C0000
310
000600000002000000000000A0FF3F8FC000000080FFBF44C000000000000040C0000000A0FF3F8FC000000000FFFF3DC00000000001003BC00C000000130000003A0A00003C0000000600000002000000000000A0FF3F8FC00000008092C844C00000000000C03FC0000000A0FF3F8FC000000000B5573EC00000000042D6
310
38C00C00000013000000420A00003C0000000600000002000000000000A0FF3F8FC000000080FFDF44C00000000026913FC0000000A0FF3F8FC000000080206B41C000000000B65734C00C000000130000004A0A00003C0000000600000002000000000000A0FF3F8FC000000080FFDF44C00000000026913FC0000000A0FF
310
3F8FC000000080557140C000000000435635C00C00000013000000520A00003C0000000600000002000000000000A0FF3F8FC00000008092C844C00000000000C03FC0000000A0FF3F8FC00000000041563FC000000000ADE236C00C000000130000005A0A00003C0000000600000002000000000000A0FF3F8FC000000000
310
00C044C00000004000804EC0000000A0FF3F8FC000000000FFFF3DC000000080000048C00C00000013000000620A00003C0000000600000002000000000000A0FF3F8FC000000000008044C00000008000C04EC0000000A0FF3F8FC000000000FFFF3BC000000080000049C00C000000130000006A0A00003C000000060000
310
0002000000000000A0FF3F8FC00000000000A044C0000000806DB74EC0000000A0FF3F8FC000000000EFC33CC00000008083EC48C00C00000013000000720A00003C0000000600000002000000000000A0FF3F8FC00000000000A044C0000000806DB74EC0000000A0FF3F8FC000000000096A3DC00000008005B548C00C00
310
0000130000007A0A00003C0000000600000002000000000000A0FF3F8FC00000000000A044C0000000806DB74EC0000000A0FF3F8FC00000000007D93DC000000000F86148C00C00000013000000820A00003C0000000600000002000000000000A0FF3F8FC0000000006DB744C00000004000A04EC0000000A0FF3F8FC000
310
00000007D93DC000000000F86148C00C000000130000008A0A00003C0000000600000002000000000000A0FF3F8FC00000000066662AC00000008000C04EC0000000A0FF3F8FC000000000CCCC14C000000080000049C00C00000013000000920A00003C0000000600000002000000000000A0FF3F8FC000000000666629C0
310
0000008000004FC0000000A0FF3F8FC0000000003033F3BF0000008000004BC00C000000130000009A0A00003C0000000600000002000000000000A0FF3F8FC000000000B28829C00000008000E04EC0000000A0FF3F8FC0000000003055F6BF00000040C6614AC00C00000013000000A20A00003C00000006000000020000
310
00000000A0FF3F8FC000000000B28829C00000008000E04EC0000000A0FF3F8FC000000000706CFFBF000000400DD349C00C00000013000000AA0A00003C0000000600000002000000000000A0FF3F8FC00000000066E629C00000008093C84EC0000000A0FF3F8FC00000000068CA06C000000040CA6149C00C0000001300
310
0000B20A00003C0000000600000002000000000000A0FF3F8FC00000000066E629C00000008093C84EC0000000A0FF3F8FC000000000F8B50FC0000000C0101949C00C00000013000000BA0A00003C0000000600000002000000000000A0FF3F8FC0000000001C101CC0000000A0905D59C0000000A0FF3F8FC000000000B0
310
0CF5BF00000040ABB054C00C00000013000000C20A00003C0000000600000002000000000000A0FF3F8FC000000000626628C000000040006059C0000000A0FF3F8FC00000000050D7FEBF00000020AB9854C00C00000013000000CA0A00003C0000000600000002000000000000A0FF3F8FC00000000062E628C0000000C0
310
B65B59C0000000A0FF3F8FC00000000038C102C0000000C0457354C00C00000013000000D20A00003C0000000600000002000000000000A0FF3F8FC000000000626629C000000040004059C0000000A0FF3F8FC00000000058FF03C0000000606D4654C00C00000013000000DA0A00003C0000000600000002000000000000
310
A0FF3F8FC000000000666629C00000008000004FC0000000A0FF3F8FC00000000058FF03C0000000606D4654C00C00000013000000E20A00003C0000000600000002000000000000A0FF3F8FC000000000164429C000000040005059C0000000A0FF3F8FC00000000038C102C0000000C0457354C00C00000013000000EA0A
310
00003C0000000600000002000000000000A0FF3F8FC0000000000CD41CC000000040006059C0000000A0FF3F8FC000000000B00CF5BF00000040ABB054C00C00000013000000F20A00003C0000000600000002000000000000A0FF3F8FC0000000008006EDBF00000000BF1251C0000000A0FF3F8FC0000000007090FFBF00
310
000040F5F253C00C00000013000000FA0A00003C0000000600000002000000000000A0FF3F8FC000000000666629C00000008000004FC0000000A0FF3F8FC0000000000033F3BF000000C07DE550C00C00000013000000020B00003C0000000600000002000000000000A0FF3F8FC00000000020FBF1BF000000A0FBFD50C0
310
000000A0FF3F8FC00000000078F302C000000000431954C00C000000130000000A0B00003C0000000600000002000000000000A0FF3F8FC000000000666629C00000008000004FC0000000A0FF3F8FC00000000078F302C000000000431954C00C00000013000000120B00003C00000006000000020000000000000000408F
310
4000000000C00CF5BF00000060ABB054C00000000000408F4000000000006A1BC000000000A15659C00C000000130000001A0B00003C00000006000000020000000000000000408F4000000080A7D765C000000000000DF5BF0000000000408F400000008050EB67C000000000106A1BC00C00000013000000220B00003C00
310
000006000000020000000000000000408F4000000080A7D765C000000000000DF5BF0000000000408F4000000060C8EE67C00000000030101CC00C000000130000002A0B00003C00000006000000020000000000000000408F4000000080A7D765C000000000000DF5BF0000000000408F400000004000F067C00000000020
310
D41CC00C00000013000000320B00003C00000006000000020000000000000000408F4000000060A7CB65C000000000A0D7FEBF0000000000408F400000002000F067C0000000006C6628C00C000000130000003A0B00003C00000006000000020000000000000000408F4000000060A7CB65C000000000A0D7FEBF00000000
310
00408F4000000060DBED67C0000000006CE628C00C00000013000000420B00003C00000006000000020000000000000000408F40000000C0F4B865C00000000060C102C00000000000408F400000002000E867C000000000204429C00C000000130000004A0B00003C00000006000000020000000000000000408F40000000
310
C0F4B865C00000000060C102C00000000000408F400000002000E067C0000000006C6629C00C00000013000000520B00003C00000006000000020000000000000000408F40000000805FB962C0000000004007EDBF0000000000408F4000000060CC7865C000000000C090FFBF0C000000130000005A0B00003C0000000600
310
0000020000000000000000408F400000002000E067C0000000006C6629C00000000000408F400000008088A265C00000000080FF03C00C00000013000000620B00003C00000006000000020000000000000000408F4000000060F38B65C000000000A0F302C00000000000408F4000000060008059C000000000646629C00C
310
000000130000006A0B00003C00000006000000020000000000000000408F4000000060F38B65C000000000A0F302C00000000000408F40000000C0FDAE62C00000000080FBF1BF0C00000013000000720B00003C00000006000000020000000000000000408F4000000060008059C000000000646629C00000000000408F40
310
00000000BFA262C0000000006033F3BF0C000000130000007A0B00003C00000006000000020000000000000000408F4000000060008059C000000000646629C00000000000408F40000000A04F275DC0000000006033F3BF0C00000013000000820B00003C00000006000000020000000000000000408F40000000A0F85B5A
310
C000000000100DF5BF0000000000408F40000000600EFA5CC0000000006007EDBF0C000000130000008A0B00003C00000006000000020000000000000000408F4000000060F8435AC000000000A0D7FEBF0000000000408F40000000E0D10E5DC00000000090FBF1BF0C00000013000000920B00003C000000060000000200
310
00000000000000408F4000000060008059C000000000646629C00000000000408F4000000060F8435AC000000000A0D7FEBF0C000000130000009A0B00003C00000006000000020000000000000000408F40000000C0228C56C000000000D0BAFFBF0000000000408F40000000E0496459C00000000064E629C00C00000013
310
000000A20B00003C00000006000000020000000000000000408F4000000060008056C000000000909909C00000000000408F4000000060006059C00000000064662AC00C00000013000000AA0B00003C00000006000000020000000000000000408F40000000E061AF56C000000000E036ECBF0000000000408F4000000060
310
007059C000000000B08829C00C00000013000000B20B00003C00000006000000020000000000000000408F4000000060007059C000000000B08829C00000000000408F40000000A066E656C0000000000000F0BE0C00000013000000BA0B00003C00000006000000020000000000000000408F4000000060007059C0000000
310
00B08829C00000000000408F4000000080429E59C0000000008090FFBF0C00000013000000C20B00003C00000006000000020000000000000000408F4000000060008059C000000000646629C00000000000408F40000000A0BAF159C00000000070FF03C00C00000013000000CA0B00003C00000006000000020000000000
310
000000408F4000000060007059C000000000B08829C00000000000408F400000006090C459C00000000090F302C00C00000013000000D20B00003C00000006000000020000000000000000408F4000000060008059C000000000646629C00000000000408F4000000020931E5AC00000000060C102C00C00000013000000DA
310
0B00003C00000006000000020000000000000000408F4000000060008056C000000000000032C00000000000408F40000000E0FF5F59C00000000002003FC00C00000013000000E20B00003C00000006000000020000000000000000408F4000000020427656C000000000EEC332C00000000000408F4000000060B65B59C0
310
0000000002403FC00C00000013000000EA0B00003C00000006000000020000000000000000408F4000000020FC3056C00000000006D933C00000000000408F40000000E0FF4F59C000000000DC6E3FC00C00000013000000F20B00003C00000006000000020000000000000000408F4000000060000056C000000000FEFF33
310
C00000000000408F40000000E0FF3F59C00000000002803FC00C00000013000000FA0B00003C00000006000000020000000000000000408F40000000E0FF4F59C000000000DC6E3FC00000000000408F40000000E0825A56C000000000086A33C00C00000013000000020C00003C0000000600000002000000000000000040
310
8F4000000060B65B59C00000000002403FC00000000000408F40000000E0825A56C000000000086A33C00C000000130000000A0C00003C00000006000000020000000000000000408F4000000080008042C000000000050034C00000000000408F4000000080000045C00000000000803FC00C00000013000000120C00003C
310
00000006000000020000000000000000408F4000000000B5573EC00000000042D638C00000000000408F400000008093C844C00000000000C03FC00C000000130000001A0C00003C00000006000000020000000000000000408F400000000001003EC00000000001003BC00000000000408F400000008000C044C000000000
310
000040C00C00000013000000220C00003C00000006000000020000000000000000408F4000000080206B41C000000000BA5734C00000000000408F400000008000E044C00000000026913FC00C000000130000002A0C00003C00000006000000020000000000000000408F400000008000E044C00000000026913FC0000000
310
0000408F4000000080567140C000000000475635C00C00000013000000320C00003C00000006000000020000000000000000408F400000008093C844C00000000000C03FC00000000000408F400000000043563FC000000000B1E236C00C000000130000003A0C00003C00000006000000020000000000000000408F400000
310
000001003EC000000080000048C00000000000408F400000008000C044C00000004000804EC00C00000013000000420C00003C00000006000000020000000000000000408F4000000000EFC33CC00000008083EC48C00000000000408F400000008000A044C0000000806DB74EC00C000000130000004A0C00003C00000006
310
000000020000000000000000408F400000000001003CC000000080000049C00000000000408F4000000080008044C00000008000C04EC00C00000013000000520C00003C00000006000000020000000000000000408F400000008000A044C0000000806DB74EC00000000000408F40000000000B6A3DC00000008005B548C0
310
0C000000130000005A0C00003C00000006000000020000000000000000408F400000008000A044C0000000806DB74EC00000000000408F400000000007D93DC000000000F86148C00C00000013000000620C00003C00000006000000020000000000000000408F400000000007D93DC000000000F86148C00000000000408F
310
40000000806DB744C00000004000A04EC00C000000130000006A0C00003C00000006000000020000000000000000408F4000000000CCCC14C0000000C0000049C00000000000408F400000000068662AC0000000C000C04EC00C00000013000000720C00003C00000006000000020000000000000000408F40000000005055
310
F6BF00000080C6614AC00000000000408F4000000000B48829C0000000C000E04EC00C000000130000007A0C00003C00000006000000020000000000000000408F40000000003033F3BF000000C000004BC00000000000408F4000000000686629C0000000C000004FC00C00000013000000820C00003C0000000600000002
310
0000000000000000408F4000000000B48829C0000000C000E04EC00000000000408F4000000000706CFFBF000000800DD349C00C000000130000008A0C00003C00000006000000020000000000000000408F400000000068CA06C000000080CA6149C00000000000408F400000000068E629C0000000C093C84EC00C000000
310
13000000920C00003C00000006000000020000000000000000408F400000000068E629C0000000C093C84EC00000000000408F4000000000F8B50FC000000000111949C00C000000130000009A0C00003C00000006000000020000000000000000408F4000000000C00CF5BF00000060ABB054C00000000000408F40000000
310
0020101CC0000000C0905D59C00C00000013000000A20C00003C00000006000000020000000000000000408F400000000040C102C0000000E0457354C00000000000408F400000000068E628C0000000E0B65B59C00C00000013000000AA0C00003C00000006000000020000000000000000408F400000000060D7FEBF0000
310
0040AB9854C00000000000408F4000000000686628C000000060006059C00C00000013000000B20C00003C00000006000000020000000000000000408F4000000000686629C0000000C000004FC00000000000408F400000000060FF03C0000000806D4654C00C00000013000000BA0C00003C000000060000000200000000
310
00000000408F400000000060FF03C0000000806D4654C00000000000408F4000000000686629C000000060004059C00C00000013000000C20C00003C00000006000000020000000000000000408F400000000040C102C0000000E0457354C00000000000408F40000000001C4429C000000060005059C00C00000013000000
310
CA0C00003C00000006000000020000000000000000408F4000000000C00CF5BF00000060ABB054C00000000000408F400000000010D41CC000000060006059C00C00000013000000D20C00003C00000006000000020000000000000000408F40000000008090FFBF00000060F5F253C00000000000408F40000000008006ED
310
BF00000020BF1251C00C00000013000000DA0C00003C00000006000000020000000000000000408F4000000000686629C0000000C000004FC00000000000408F40000000000033F3BF000000E07DE550C00C00000013000000E20C00003C00000006000000020000000000000000408F400000000080F302C0000000204319
310
54C00000000000408F400000000020FBF1BF000000C0FBFD50C00C00000013000000EA0C00003C00000006000000020000000000000000408F4000000000686629C0000000C000004FC00000000000408F400000000080F302C000000020431954C0
100
AcDbSubDMesh
 71
     2
 72
     0
 91
        0
 92
      196
 10
-999.9998168945312
 20
0.0000457763671875
 30
-94.50001525878906
 10
-999.9998168945312
 20
-6.853500366210937
 30
-101.3535690307617
 10
-999.9998168945312
 20
-7.015731811523437
 30
-101.4619522094726
 10
-999.9998168945312
 20
-7.207077026367187
 30
-101.500015258789
 10
-999.9998168945312
 20
-12.19996643066406
 30
-101.500015258789
 10
-999.9998168945312
 20
-12.44996643066406
 30
-101.4330291748047
 10
-999.9998168945312
 20
-12.63298034667968
 30
-101.250015258789
 10
-999.9998168945312
 20
-12.69996643066406
 30
-101.000015258789
 10
-999.9998168945312
 20
-12.69999694824219
 30
-62.00001525878906
 10
-999.9998168945312
 20
-12.76698303222656
 30
-61.75001525878906
 10
-999.9998168945312
 20
-12.94999694824219
 30
-61.56700134277343
 10
-999.9998168945312
 20
-13.19999694824218
 30
-61.50001525878906
 10
-999.9998168945312
 20
-41.0
 30
-61.50001525878906
 10
-999.9998168945312
 20
-41.25
 30
-61.43302917480468
 10
-999.9998168945312
 20
-41.43301391601562
 30
-61.25000762939453
 10
-999.9998168945312
 20
-41.5
 30
-61.00000762939453
 10
-999.9998168945312
 20
-41.49998474121093
 30
-32.0
 10
-999.9998168945312
 20
-41.56697082519531
 30
-31.75
 10
-999.9998168945312
 20
-41.74998474121093
 30
-31.56698608398438
 10
-999.9998168945312
 20
-41.99998474121094
 30
-31.5
 10
-999.9998168945312
 20
-100.9999847412109
 30
-31.5000228881836
 10
-999.9998168945312
 20
-101.2499847412109
 30
-31.43303680419922
 10
-999.9998168945312
 20
-101.4329986572265
 30
-31.2500228881836
 10
-999.9998168945312
 20
-101.4999847412109
 30
-31.00002288818359
 10
-999.9998168945312
 20
-101.5000076293945
 30
-13.19998168945312
 10
-999.9998168945312
 20
-101.5669937133789
 30
-12.94998168945312
 10
-999.9998168945312
 20
-101.7500076293945
 30
-12.7669677734375
 10
-999.9998168945312
 20
-102.0000076293945
 30
-12.69998168945312
 10
-999.9998168945312
 20
-191.0
 30
-12.70002746582031
 10
-999.9998168945312
 20
-191.25
 30
-12.63304138183594
 10
-999.9998168945312
 20
-191.4330139160156
 30
-12.45002746582031
 10
-999.9998168945312
 20
-191.5
 30
-12.20002746582031
 10
-999.9998168945312
 20
-191.5
 30
-7.207138061523437
 10
-999.9998168945312
 20
-191.461929321289
 30
-7.015792846679687
 10
-999.9998168945312
 20
-191.3535461425781
 30
-6.85357666015625
 10
-999.9998168945312
 20
-184.5
 30
-0.000030517578125
 10
-999.9998168945312
 20
-175.218017578125
 30
-0.000030517578125
 10
-999.9998168945312
 20
-174.7391662597656
 30
-1.315673828125
 10
-999.9998168945312
 20
-174.3641510009766
 30
-1.927627563476562
 10
-999.9998168945312
 20
-173.7798461914062
 30
-2.344406127929687
 10
-999.9998168945312
 20
-173.0791320800781
 30
-2.499755859375
 10
-999.9998168945312
 20
-172.3734283447265
 30
-2.36895751953125
 10
-999.9998168945312
 20
-171.774917602539
 30
-1.972824096679687
 10
-999.9998168945312
 20
-169.8021240234375
 30
-0.000030517578125
 10
-999.9998168945312
 20
-150.6999816894531
 30
-0.000030517578125
 10
-999.9998168945312
 20
-149.7928771972656
 30
-0.907135009765625
 10
-999.9998168945312
 20
-149.4684448242187
 30
-1.1239013671875
 10
-999.9998168945312
 20
-149.0857849121093
 30
-1.200027465820312
 10
-999.9998168945312
 20
-116.6142044067383
 30
-1.200027465820312
 10
-999.9998168945312
 20
-116.2315292358398
 30
-1.1239013671875
 10
-999.9998168945312
 20
-115.9070968627929
 30
-0.907135009765625
 10
-999.9998168945312
 20
-114.9999923706054
 30
-0.000030517578125
 10
-999.9998168945312
 20
-105.9158859252929
 30
-0.000030517578125
 10
-999.9998168945312
 20
-105.4370346069336
 30
-1.315673828125
 10
-999.9998168945312
 20
-105.0620193481445
 30
-1.927627563476562
 10
-999.9998168945312
 20
-104.4777145385742
 30
-2.344406127929687
 10
-999.9998168945312
 20
-103.7770004272461
 30
-2.499710083007812
 10
-999.9998168945312
 20
-103.0712966918945
 30
-2.368911743164062
 10
-999.9998168945312
 20
-102.4727935791015
 30
-1.9727783203125
 10
-999.9998168945312
 20
-100.5
 30
0.0000152587890625
 10
-999.9998168945312
 20
-91.59999847412109
 30
-0.0000152587890625
 10
-999.9998168945312
 20
-90.7403335571289
 30
-0.8816986083984375
 10
-999.9998168945312
 20
-90.18960571289062
 30
-1.983108520507812
 10
-999.9998168945312
 20
-90.0
 30
-3.199981689453125
 10
-999.9998168945312
 20
-90.00000762939453
 30
-17.99998474121094
 10
-999.9998168945312
 20
-89.84776306152344
 30
-18.76535034179687
 10
-999.9998168945312
 20
-89.41422271728516
 30
-19.41419982910156
 10
-999.9998168945312
 20
-88.76537322998046
 30
-19.84774780273437
 10
-999.9998168945312
 20
-88.00000762939452
 30
-19.99998474121094
 10
-999.9998168945312
 20
-36.99998474121094
 30
-20.00001525878906
 10
-999.9998168945312
 20
-34.83692932128906
 30
-20.34262084960937
 10
-999.9998168945312
 20
-32.88542175292969
 30
-21.33695983886719
 10
-999.9998168945312
 20
-31.33692932128906
 30
-22.88545227050781
 10
-999.9998168945312
 20
-30.34260559082031
 30
-24.83694458007813
 10
-999.9998168945312
 20
-29.99998474121094
 30
-27.00001525878906
 10
-999.9998168945312
 20
-29.99998474121094
 30
-48.00001525878906
 10
-999.9998168945312
 20
-29.84776306152344
 30
-48.765380859375
 10
-999.9998168945312
 20
-29.41419982910156
 30
-49.41423034667969
 10
-999.9998168945312
 20
-28.76536560058594
 30
-49.84776306152344
 10
-999.9998168945312
 20
-27.99998474121094
 30
-50.00001525878906
 10
-999.9998168945312
 20
-5.199996948242187
 30
-50.00001525878906
 10
-999.9998168945312
 20
-3.963851928710937
 30
-50.19582366943359
 10
-999.9998168945312
 20
-2.848831176757812
 30
-50.76398468017578
 10
-999.9998168945312
 20
-1.963973999023437
 30
-51.64884185791016
 10
-999.9998168945312
 20
-1.395797729492187
 30
-52.76386260986328
 10
-999.9998168945312
 20
-1.199996948242187
 30
-54.00001525878906
 10
-999.9998168945312
 20
-1.199951171875
 30
-67.58580017089844
 10
-999.9998168945312
 20
-1.123809814453125
 30
-67.9684829711914
 10
-999.9998168945312
 20
-0.90704345703125
 30
-68.29290771484375
 10
-999.9998168945312
 20
0.00006103515625
 30
-69.20001220703125
 10
-999.9998168945312
 20
0.00006103515625
 30
-77.82342529296875
 10
-999.9998168945312
 20
-1.972763061523437
 30
-79.79621887207031
 10
-999.9998168945312
 20
-2.368881225585937
 30
-80.39471435546875
 10
-999.9998168945312
 20
-2.499679565429687
 30
-81.10042572021484
 10
-999.9998168945312
 20
-2.344345092773437
 30
-81.80113220214844
 10
-999.9998168945312
 20
-1.927566528320312
 30
-82.38544464111328
 10
-999.9998168945312
 20
-1.315597534179687
 30
-82.76045227050781
 10
-999.9998168945312
 20
0.0000457763671875
 30
-83.23930358886718
 10
1000.0
 20
0.000030517578125
 30
-94.50003814697266
 10
1000.0
 20
0.000030517578125
 30
-83.23931121826172
 10
1000.0
 20
-1.31561279296875
 30
-82.76045989990235
 10
1000.0
 20
-6.853515625
 30
-101.3535766601562
 10
1000.0
 20
-174.7391967773437
 30
-1.315673828125
 10
1000.0
 20
-175.2180480957031
 30
-0.000030517578125
 10
1000.0
 20
-184.5000305175781
 30
-0.000030517578125
 10
1000.0
 20
-191.3535766601562
 30
-6.85357666015625
 10
1000.0
 20
-191.4619598388672
 30
-7.01580810546875
 10
1000.0
 20
-191.5000305175781
 30
-7.2071533203125
 10
1000.0
 20
-174.3641815185547
 30
-1.927642822265625
 10
1000.0
 20
-191.500015258789
 30
-12.20004272460937
 10
1000.0
 20
-191.4330291748047
 30
-12.45004272460937
 10
1000.0
 20
-173.7798767089843
 30
-2.34442138671875
 10
1000.0
 20
-191.250015258789
 30
-12.633056640625
 10
1000.0
 20
-191.000015258789
 30
-12.70004272460937
 10
1000.0
 20
-149.7929077148437
 30
-0.907135009765625
 10
1000.0
 20
-150.7000122070312
 30
-0.000030517578125
 10
1000.0
 20
-169.8021545410156
 30
-0.000030517578125
 10
1000.0
 20
-171.7749481201172
 30
-1.97283935546875
 10
1000.0
 20
-173.0791625976562
 30
-2.499755859375
 10
1000.0
 20
-172.3734588623047
 30
-2.36895751953125
 10
1000.0
 20
-102.0000228881836
 30
-12.69998168945312
 10
1000.0
 20
-149.4684753417969
 30
-1.1239013671875
 10
1000.0
 20
-149.0858154296875
 30
-1.200042724609375
 10
1000.0
 20
-116.6142349243164
 30
-1.200042724609375
 10
1000.0
 20
-105.4370498657226
 30
-1.315689086914062
 10
1000.0
 20
-105.915901184082
 30
-0.0000457763671875
 10
1000.0
 20
-115.0000228881836
 30
-0.0000457763671875
 10
1000.0
 20
-115.9071273803711
 30
-0.9071502685546875
 10
1000.0
 20
-105.0620346069336
 30
-1.927642822265625
 10
1000.0
 20
-116.2315597534179
 30
-1.123916625976562
 10
1000.0
 20
-90.00002288818359
 30
-3.199981689453125
 10
1000.0
 20
-90.18962097167969
 30
-1.983108520507812
 10
1000.0
 20
-101.5670089721679
 30
-12.94998168945312
 10
1000.0
 20
-101.5000228881836
 30
-13.19998168945312
 10
1000.0
 20
-90.74034881591797
 30
-0.8816986083984375
 10
1000.0
 20
-101.7500228881836
 30
-12.7669677734375
 10
1000.0
 20
-91.60001373291015
 30
-0.0000152587890625
 10
1000.0
 20
-100.500015258789
 30
0.0
 10
1000.0
 20
-102.4728088378906
 30
-1.9727783203125
 10
1000.0
 20
-103.0713119506836
 30
-2.368927001953125
 10
1000.0
 20
-103.7770156860351
 30
-2.499725341796875
 10
1000.0
 20
-104.4777297973632
 30
-2.34442138671875
 10
1000.0
 20
-90.00002288818359
 30
-18.0
 10
1000.0
 20
-101.4999923706054
 30
-31.00003051757813
 10
1000.0
 20
-89.84778594970704
 30
-18.76535034179687
 10
1000.0
 20
-101.4330062866211
 30
-31.25003051757813
 10
1000.0
 20
-88.0000228881836
 30
-19.99996948242187
 10
1000.0
 20
-88.76538848876952
 30
-19.84774780273437
 10
1000.0
 20
-101.2499923706055
 30
-31.43304443359375
 10
1000.0
 20
-100.9999923706054
 30
-31.50003051757813
 10
1000.0
 20
-89.41423797607422
 30
-19.4141845703125
 10
1000.0
 20
-37.00001525878906
 30
-20.00007629394531
 10
1000.0
 20
-42.00001525878906
 30
-31.5
 10
1000.0
 20
-30.00001525878906
 30
-27.00001525878906
 10
1000.0
 20
-30.34260559082031
 30
-24.83694458007813
 10
1000.0
 20
-41.56700134277343
 30
-31.75
 10
1000.0
 20
-41.50001525878906
 30
-32.0
 10
1000.0
 20
-34.83692932128906
 30
-20.34268188476563
 10
1000.0
 20
-41.75001525878906
 30
-31.56698608398438
 10
1000.0
 20
-32.88545227050781
 30
-21.33702087402344
 10
1000.0
 20
-31.33695983886719
 30
-22.88551330566406
 10
1000.0
 20
-30.00001525878906
 30
-48.00001525878906
 10
1000.0
 20
-41.50001525878906
 30
-61.00000762939453
 10
1000.0
 20
-28.00001525878906
 30
-50.00001525878906
 10
1000.0
 20
-28.76536560058594
 30
-49.84776306152344
 10
1000.0
 20
-41.25001525878906
 30
-61.43302917480468
 10
1000.0
 20
-41.00001525878906
 30
-61.50001525878906
 10
1000.0
 20
-29.41423034667969
 30
-49.41423034667969
 10
1000.0
 20
-29.84776306152344
 30
-48.765380859375
 10
1000.0
 20
-41.43302917480468
 30
-61.25000762939453
 10
1000.0
 20
-5.199996948242187
 30
-50.00002288818359
 10
1000.0
 20
-13.20001220703125
 30
-61.5000228881836
 10
1000.0
 20
-1.199996948242187
 30
-54.0000228881836
 10
1000.0
 20
-1.395828247070312
 30
-52.76387023925781
 10
1000.0
 20
-12.76699829101562
 30
-61.75002288818359
 10
1000.0
 20
-12.70001220703125
 30
-62.00002288818359
 10
1000.0
 20
-1.963973999023437
 30
-51.64884948730469
 10
1000.0
 20
-2.848831176757812
 30
-50.76399230957031
 10
1000.0
 20
-12.95001220703125
 30
-61.56700897216797
 10
1000.0
 20
-3.963851928710937
 30
-50.19583129882812
 10
1000.0
 20
-7.0157470703125
 30
-101.4619598388672
 10
1000.0
 20
-1.927581787109375
 30
-82.38545227050781
 10
1000.0
 20
-2.3443603515625
 30
-81.80113983154297
 10
1000.0
 20
-12.45001220703125
 30
-101.4330368041992
 10
1000.0
 20
-12.20001220703125
 30
-101.5000228881836
 10
1000.0
 20
-2.49969482421875
 30
-81.10043334960938
 10
1000.0
 20
-12.70001220703125
 30
-101.0000228881836
 10
1000.0
 20
-12.63302612304687
 30
-101.2500228881836
 10
1000.0
 20
-7.20709228515625
 30
-101.5000228881836
 10
1000.0
 20
-1.9727783203125
 30
-79.79622650146485
 10
1000.0
 20
0.00006103515625
 30
-77.82343292236328
 10
1000.0
 20
0.00006103515625
 30
-69.20001983642578
 10
1000.0
 20
-0.90704345703125
 30
-68.29291534423828
 10
1000.0
 20
-1.199951171875
 30
-67.58580780029297
 10
1000.0
 20
-2.368896484375
 30
-80.39472198486327
 10
1000.0
 20
-1.123809814453125
 30
-67.96849060058594
 93
     1048
 90
        4
 90
       32
 90
      107
 90
      106
 90
       33
 90
        4
 90
       33
 90
      106
 90
      105
 90
       34
 90
        4
 90
       34
 90
      105
 90
      104
 90
       35
 90
        4
 90
       35
 90
      104
 90
      103
 90
       36
 90
        4
 90
       36
 90
      103
 90
      102
 90
       37
 90
        4
 90
       37
 90
      102
 90
      108
 90
       38
 90
        4
 90
       38
 90
      108
 90
      111
 90
       39
 90
        4
 90
       39
 90
      111
 90
      118
 90
       40
 90
        4
 90
       40
 90
      118
 90
      119
 90
       41
 90
        4
 90
       41
 90
      119
 90
      117
 90
       42
 90
        4
 90
       42
 90
      117
 90
      116
 90
       43
 90
        4
 90
       43
 90
      116
 90
      115
 90
       44
 90
        4
 90
       44
 90
      115
 90
      114
 90
       45
 90
        4
 90
       45
 90
      114
 90
      121
 90
       46
 90
        4
 90
       46
 90
      121
 90
      122
 90
       47
 90
        4
 90
       47
 90
      122
 90
      123
 90
       48
 90
        4
 90
       48
 90
      123
 90
      129
 90
       49
 90
        4
 90
       49
 90
      129
 90
      127
 90
       50
 90
        4
 90
       50
 90
      127
 90
      126
 90
       51
 90
        4
 90
       51
 90
      126
 90
      125
 90
       52
 90
        4
 90
       52
 90
      125
 90
      124
 90
       53
 90
        4
 90
       53
 90
      124
 90
      128
 90
       54
 90
        4
 90
       54
 90
      128
 90
      141
 90
       55
 90
        4
 90
       55
 90
      141
 90
      140
 90
       56
 90
        4
 90
       56
 90
      140
 90
      139
 90
       57
 90
        4
 90
       57
 90
      139
 90
      138
 90
       58
 90
        4
 90
       58
 90
      138
 90
      137
 90
       59
 90
        4
 90
       59
 90
      137
 90
      136
 90
       60
 90
        4
 90
       60
 90
      136
 90
      134
 90
       61
 90
        4
 90
       61
 90
      134
 90
      131
 90
       62
 90
        4
 90
       62
 90
      131
 90
      130
 90
       63
 90
        4
 90
       63
 90
      130
 90
      142
 90
       64
 90
        4
 90
       64
 90
      142
 90
      144
 90
       65
 90
        4
 90
       65
 90
      144
 90
      150
 90
       66
 90
        4
 90
       66
 90
      150
 90
      147
 90
       67
 90
        4
 90
       67
 90
      147
 90
      146
 90
       68
 90
        4
 90
       68
 90
      146
 90
      151
 90
       69
 90
        4
 90
       69
 90
      151
 90
      157
 90
       70
 90
        4
 90
       70
 90
      157
 90
      159
 90
       71
 90
        4
 90
       71
 90
      159
 90
      160
 90
       72
 90
        4
 90
       72
 90
      160
 90
      154
 90
       73
 90
        4
 90
       73
 90
      154
 90
      153
 90
       74
 90
        4
 90
       74
 90
      153
 90
      161
 90
       75
 90
        4
 90
       75
 90
      161
 90
      168
 90
       76
 90
        4
 90
       76
 90
      168
 90
      167
 90
       77
 90
        4
 90
       77
 90
      167
 90
      164
 90
       78
 90
        4
 90
       78
 90
      164
 90
      163
 90
       79
 90
        4
 90
       79
 90
      163
 90
      170
 90
       80
 90
        4
 90
       80
 90
      170
 90
      179
 90
       81
 90
        4
 90
       81
 90
      179
 90
      177
 90
       82
 90
        4
 90
       82
 90
      177
 90
      176
 90
       83
 90
        4
 90
       83
 90
      176
 90
      173
 90
       84
 90
        4
 90
       84
 90
      173
 90
      172
 90
       85
 90
        4
 90
       85
 90
      172
 90
      193
 90
       86
 90
        4
 90
       86
 90
      193
 90
      195
 90
       87
 90
        4
 90
       87
 90
      195
 90
      192
 90
       88
 90
        4
 90
       88
 90
      192
 90
      191
 90
       89
 90
        4
 90
       89
 90
      191
 90
      190
 90
       90
 90
        4
 90
       90
 90
      190
 90
      189
 90
       91
 90
        4
 90
       91
 90
      189
 90
      194
 90
       92
 90
        4
 90
       92
 90
      194
 90
      185
 90
       93
 90
        4
 90
       93
 90
      185
 90
      182
 90
       94
 90
        4
 90
       94
 90
      182
 90
      181
 90
       95
 90
        4
 90
       95
 90
      181
 90
      100
 90
       96
 90
        4
 90
       96
 90
      100
 90
       99
 90
       97
 90
        4
 90
       97
 90
       99
 90
       98
 90
        0
 90
        4
 90
        0
 90
       98
 90
      101
 90
        1
 90
        4
 90
        1
 90
      101
 90
      180
 90
        2
 90
        4
 90
        2
 90
      180
 90
      188
 90
        3
 90
        4
 90
        3
 90
      188
 90
      184
 90
        4
 90
        4
 90
        4
 90
      184
 90
      183
 90
        5
 90
        4
 90
        5
 90
      183
 90
      187
 90
        6
 90
        4
 90
        6
 90
      187
 90
      186
 90
        7
 90
        4
 90
        7
 90
      186
 90
      175
 90
        8
 90
        4
 90
        8
 90
      175
 90
      174
 90
        9
 90
        4
 90
        9
 90
      174
 90
      178
 90
       10
 90
        4
 90
       10
 90
      178
 90
      171
 90
       11
 90
        4
 90
       11
 90
      171
 90
      166
 90
       12
 90
        4
 90
       12
 90
      166
 90
      165
 90
       13
 90
        4
 90
       13
 90
      165
 90
      169
 90
       14
 90
        4
 90
       14
 90
      169
 90
      162
 90
       15
 90
        4
 90
       15
 90
      162
 90
      156
 90
       16
 90
        4
 90
       16
 90
      156
 90
      155
 90
       17
 90
        4
 90
       17
 90
      155
 90
      158
 90
       18
 90
        4
 90
       18
 90
      158
 90
      152
 90
       19
 90
        4
 90
       19
 90
      152
 90
      149
 90
       20
 90
        4
 90
       20
 90
      149
 90
      148
 90
       21
 90
        4
 90
       21
 90
      148
 90
      145
 90
       22
 90
        4
 90
       22
 90
      145
 90
      143
 90
       23
 90
        4
 90
       23
 90
      143
 90
      133
 90
       24
 90
        4
 90
       24
 90
      133
 90
      132
 90
       25
 90
        4
 90
       25
 90
      132
 90
      135
 90
       26
 90
        4
 90
       26
 90
      135
 90
      120
 90
       27
 90
        4
 90
       27
 90
      120
 90
      113
 90
       28
 90
        4
 90
       28
 90
      113
 90
      112
 90
       29
 90
        4
 90
       29
 90
      112
 90
      110
 90
       30
 90
        4
 90
       30
 90
      110
 90
      109
 90
       31
 90
        4
 90
       31
 90
      109
 90
      107
 90
       32
 90
        4
 90
        0
 90
        1
 90
       96
 90
       97
 90
        4
 90
       37
 90
       34
 90
       35
 90
       36
 90
        3
 90
       37
 90
       33
 90
       34
 90
        3
 90
       37
 90
       32
 90
       33
 90
        4
 90
       38
 90
       31
 90
       32
 90
       37
 90
        3
 90
       38
 90
       30
 90
       31
 90
        4
 90
       39
 90
       29
 90
       30
 90
       38
 90
        3
 90
       39
 90
       28
 90
       29
 90
        4
 90
       45
 90
       42
 90
       43
 90
       44
 90
        3
 90
       40
 90
       28
 90
       39
 90
        4
 90
       41
 90
       27
 90
       28
 90
       40
 90
        4
 90
       46
 90
       41
 90
       42
 90
       45
 90
        4
 90
       47
 90
       27
 90
       41
 90
       46
 90
        3
 90
       48
 90
       27
 90
       47
 90
        4
 90
       53
 90
       50
 90
       51
 90
       52
 90
        4
 90
       54
 90
       49
 90
       50
 90
       53
 90
        4
 90
       54
 90
       27
 90
       48
 90
       49
 90
        4
 90
       63
 90
       24
 90
       25
 90
       62
 90
        4
 90
       62
 90
       25
 90
       26
 90
       61
 90
        3
 90
       61
 90
       26
 90
       60
 90
        4
 90
       60
 90
       26
 90
       58
 90
       59
 90
        4
 90
       57
 90
       26
 90
       27
 90
       56
 90
        3
 90
       58
 90
       26
 90
       57
 90
        3
 90
       55
 90
       27
 90
       54
 90
        3
 90
       56
 90
       27
 90
       55
 90
        4
 90
       64
 90
       23
 90
       24
 90
       63
 90
        4
 90
       65
 90
       22
 90
       23
 90
       64
 90
        4
 90
       68
 90
       20
 90
       21
 90
       67
 90
        3
 90
       67
 90
       21
 90
       66
 90
        3
 90
       66
 90
       22
 90
       65
 90
        3
 90
       66
 90
       21
 90
       22
 90
        4
 90
       69
 90
       19
 90
       20
 90
       68
 90
        4
 90
       74
 90
       16
 90
       17
 90
       73
 90
        4
 90
       70
 90
       18
 90
       19
 90
       69
 90
        3
 90
       71
 90
       18
 90
       70
 90
        3
 90
       73
 90
       17
 90
       72
 90
        4
 90
       72
 90
       17
 90
       18
 90
       71
 90
        4
 90
       75
 90
       15
 90
       16
 90
       74
 90
        4
 90
       79
 90
       12
 90
       13
 90
       78
 90
        3
 90
       78
 90
       13
 90
       77
 90
        3
 90
       77
 90
       13
 90
       76
 90
        4
 90
       76
 90
       14
 90
       15
 90
       75
 90
        3
 90
       76
 90
       13
 90
       14
 90
        4
 90
       80
 90
       11
 90
       12
 90
       79
 90
        4
 90
       85
 90
        8
 90
        9
 90
       84
 90
        3
 90
       84
 90
        9
 90
       83
 90
        4
 90
       83
 90
        9
 90
       10
 90
       82
 90
        3
 90
       82
 90
       10
 90
       81
 90
        4
 90
       81
 90
       10
 90
       11
 90
       80
 90
        3
 90
       96
 90
        1
 90
        2
 90
        4
 90
       95
 90
        4
 90
        5
 90
       94
 90
        3
 90
       93
 90
        7
 90
        8
 90
        3
 90
       94
 90
        5
 90
        6
 90
        4
 90
       94
 90
        6
 90
        7
 90
       93
 90
        3
 90
       96
 90
        2
 90
        3
 90
        4
 90
       96
 90
        3
 90
        4
 90
       95
 90
        4
 90
       91
 90
       88
 90
       89
 90
       90
 90
        3
 90
       86
 90
        8
 90
       85
 90
        4
 90
       92
 90
       87
 90
       88
 90
       91
 90
        4
 90
       92
 90
        8
 90
       86
 90
       87
 90
        3
 90
       93
 90
        8
 90
       92
 90
        4
 90
       98
 90
       99
 90
      100
 90
      101
 90
        4
 90
      102
 90
      103
 90
      104
 90
      105
 90
        3
 90
      102
 90
      105
 90
      106
 90
        3
 90
      102
 90
      106
 90
      107
 90
        4
 90
      108
 90
      102
 90
      107
 90
      109
 90
        3
 90
      108
 90
      109
 90
      110
 90
        4
 90
      111
 90
      108
 90
      110
 90
      112
 90
        3
 90
      111
 90
      112
 90
      113
 90
        4
 90
      114
 90
      115
 90
      116
 90
      117
 90
        3
 90
      118
 90
      111
 90
      113
 90
        4
 90
      119
 90
      118
 90
      113
 90
      120
 90
        4
 90
      121
 90
      114
 90
      117
 90
      119
 90
        4
 90
      122
 90
      121
 90
      119
 90
      120
 90
        3
 90
      123
 90
      122
 90
      120
 90
        4
 90
      124
 90
      125
 90
      126
 90
      127
 90
        4
 90
      128
 90
      124
 90
      127
 90
      129
 90
        4
 90
      128
 90
      129
 90
      123
 90
      120
 90
        4
 90
      130
 90
      131
 90
      132
 90
      133
 90
        4
 90
      131
 90
      134
 90
      135
 90
      132
 90
        3
 90
      134
 90
      136
 90
      135
 90
        4
 90
      136
 90
      137
 90
      138
 90
      135
 90
        4
 90
      139
 90
      140
 90
      120
 90
      135
 90
        3
 90
      138
 90
      139
 90
      135
 90
        3
 90
      141
 90
      128
 90
      120
 90
        3
 90
      140
 90
      141
 90
      120
 90
        4
 90
      142
 90
      130
 90
      133
 90
      143
 90
        4
 90
      144
 90
      142
 90
      143
 90
      145
 90
        4
 90
      146
 90
      147
 90
      148
 90
      149
 90
        3
 90
      147
 90
      150
 90
      148
 90
        3
 90
      150
 90
      144
 90
      145
 90
        3
 90
      150
 90
      145
 90
      148
 90
        4
 90
      151
 90
      146
 90
      149
 90
      152
 90
        4
 90
      153
 90
      154
 90
      155
 90
      156
 90
        4
 90
      157
 90
      151
 90
      152
 90
      158
 90
        3
 90
      159
 90
      157
 90
      158
 90
        3
 90
      154
 90
      160
 90
      155
 90
        4
 90
      160
 90
      159
 90
      158
 90
      155
 90
        4
 90
      161
 90
      153
 90
      156
 90
      162
 90
        4
 90
      163
 90
      164
 90
      165
 90
      166
 90
        3
 90
      164
 90
      167
 90
      165
 90
        3
 90
      167
 90
      168
 90
      165
 90
        4
 90
      168
 90
      161
 90
      162
 90
      169
 90
        3
 90
      168
 90
      169
 90
      165
 90
        4
 90
      170
 90
      163
 90
      166
 90
      171
 90
        4
 90
      172
 90
      173
 90
      174
 90
      175
 90
        3
 90
      173
 90
      176
 90
      174
 90
        4
 90
      176
 90
      177
 90
      178
 90
      174
 90
        3
 90
      177
 90
      179
 90
      178
 90
        4
 90
      179
 90
      170
 90
      171
 90
      178
 90
        3
 90
      100
 90
      180
 90
      101
 90
        4
 90
      181
 90
      182
 90
      183
 90
      184
 90
        3
 90
      185
 90
      175
 90
      186
 90
        3
 90
      182
 90
      187
 90
      183
 90
        4
 90
      182
 90
      185
 90
      186
 90
      187
 90
        3
 90
      100
 90
      188
 90
      180
 90
        4
 90
      100
 90
      181
 90
      184
 90
      188
 90
        4
 90
      189
 90
      190
 90
      191
 90
      192
 90
        3
 90
      193
 90
      172
 90
      175
 90
        4
 90
      194
 90
      189
 90
      192
 90
      195
 90
        4
 90
      194
 90
      195
 90
      193
 90
      175
 90
        3
 90
      185
 90
      194
 90
      175
 94
      414
 90
       32
 90
      107
 90
      106
 90
      107
 90
       33
 90
      106
 90
       32
 90
       33
 90
      105
 90
      106
 90
       34
 90
      105
 90
       33
 90
       34
 90
      104
 90
      105
 90
       35
 90
      104
 90
       34
 90
       35
 90
      103
 90
      104
 90
       36
 90
      103
 90
       35
 90
       36
 90
      102
 90
      103
 90
       37
 90
      102
 90
       36
 90
       37
 90
      102
 90
      108
 90
       38
 90
      108
 90
       37
 90
       38
 90
      108
 90
      111
 90
       39
 90
      111
 90
       38
 90
       39
 90
      111
 90
      118
 90
       40
 90
      118
 90
       39
 90
       40
 90
      118
 90
      119
 90
       41
 90
      119
 90
       40
 90
       41
 90
      117
 90
      119
 90
       42
 90
      117
 90
       41
 90
       42
 90
      116
 90
      117
 90
       43
 90
      116
 90
       42
 90
       43
 90
      115
 90
      116
 90
       44
 90
      115
 90
       43
 90
       44
 90
      114
 90
      115
 90
       45
 90
      114
 90
       44
 90
       45
 90
      114
 90
      121
 90
       46
 90
      121
 90
       45
 90
       46
 90
      121
 90
      122
 90
       47
 90
      122
 90
       46
 90
       47
 90
      122
 90
      123
 90
       48
 90
      123
 90
       47
 90
       48
 90
      123
 90
      129
 90
       49
 90
      129
 90
       48
 90
       49
 90
      127
 90
      129
 90
       50
 90
      127
 90
       49
 90
       50
 90
      126
 90
      127
 90
       51
 90
      126
 90
       50
 90
       51
 90
      125
 90
      126
 90
       52
 90
      125
 90
       51
 90
       52
 90
      124
 90
      125
 90
       53
 90
      124
 90
       52
 90
       53
 90
      124
 90
      128
 90
       54
 90
      128
 90
       53
 90
       54
 90
      128
 90
      141
 90
       55
 90
      141
 90
       54
 90
       55
 90
      140
 90
      141
 90
       56
 90
      140
 90
       55
 90
       56
 90
      139
 90
      140
 90
       57
 90
      139
 90
       56
 90
       57
 90
      138
 90
      139
 90
       58
 90
      138
 90
       57
 90
       58
 90
      137
 90
      138
 90
       59
 90
      137
 90
       58
 90
       59
 90
      136
 90
      137
 90
       60
 90
      136
 90
       59
 90
       60
 90
      134
 90
      136
 90
       61
 90
      134
 90
       60
 90
       61
 90
      131
 90
      134
 90
       62
 90
      131
 90
       61
 90
       62
 90
      130
 90
      131
 90
       63
 90
      130
 90
       62
 90
       63
 90
      130
 90
      142
 90
       64
 90
      142
 90
       63
 90
       64
 90
      142
 90
      144
 90
       65
 90
      144
 90
       64
 90
       65
 90
      144
 90
      150
 90
       66
 90
      150
 90
       65
 90
       66
 90
      147
 90
      150
 90
       67
 90
      147
 90
       66
 90
       67
 90
      146
 90
      147
 90
       68
 90
      146
 90
       67
 90
       68
 90
      146
 90
      151
 90
       69
 90
      151
 90
       68
 90
       69
 90
      151
 90
      157
 90
       70
 90
      157
 90
       69
 90
       70
 90
      157
 90
      159
 90
       71
 90
      159
 90
       70
 90
       71
 90
      159
 90
      160
 90
       72
 90
      160
 90
       71
 90
       72
 90
      154
 90
      160
 90
       73
 90
      154
 90
       72
 90
       73
 90
      153
 90
      154
 90
       74
 90
      153
 90
       73
 90
       74
 90
      153
 90
      161
 90
       75
 90
      161
 90
       74
 90
       75
 90
      161
 90
      168
 90
       76
 90
      168
 90
       75
 90
       76
 90
      167
 90
      168
 90
       77
 90
      167
 90
       76
 90
       77
 90
      164
 90
      167
 90
       78
 90
      164
 90
       77
 90
       78
 90
      163
 90
      164
 90
       79
 90
      163
 90
       78
 90
       79
 90
      163
 90
      170
 90
       80
 90
      170
 90
       79
 90
       80
 90
      170
 90
      179
 90
       81
 90
      179
 90
       80
 90
       81
 90
      177
 90
      179
 90
       82
 90
      177
 90
       81
 90
       82
 90
      176
 90
      177
 90
       83
 90
      176
 90
       82
 90
       83
 90
      173
 90
      176
 90
       84
 90
      173
 90
       83
 90
       84
 90
      172
 90
      173
 90
       85
 90
      172
 90
       84
 90
       85
 90
      172
 90
      193
 90
       86
 90
      193
 90
       85
 90
       86
 90
      193
 90
      195
 90
       87
 90
      195
 90
       86
 90
       87
 90
      192
 90
      195
 90
       88
 90
      192
 90
       87
 90
       88
 90
      191
 90
      192
 90
       89
 90
      191
 90
       88
 90
       89
 90
      190
 90
      191
 90
       90
 90
      190
 90
       89
 90
       90
 90
      189
 90
      190
 90
       91
 90
      189
 90
       90
 90
       91
 90
      189
 90
      194
 90
       92
 90
      194
 90
       91
 90
       92
 90
      185
 90
      194
 90
       93
 90
      185
 90
       92
 90
       93
 90
      182
 90
      185
 90
       94
 90
      182
 90
       93
 90
       94
 90
      181
 90
      182
 90
       95
 90
      181
 90
       94
 90
       95
 90
      100
 90
      181
 90
       96
 90
      100
 90
       95
 90
       96
 90
       99
 90
      100
 90
       97
 90
       99
 90
       96
 90
       97
 90
       98
 90
       99
 90
        0
 90
       98
 90
        0
 90
       97
 90
       98
 90
      101
 90
        1
 90
      101
 90
        0
 90
        1
 90
      101
 90
      180
 90
        2
 90
      180
 90
        1
 90
        2
 90
      180
 90
      188
 90
        3
 90
      188
 90
        2
 90
        3
 90
      184
 90
      188
 90
        4
 90
      184
 90
        3
 90
        4
 90
      183
 90
      184
 90
        5
 90
      183
 90
        4
 90
        5
 90
      183
 90
      187
 90
        6
 90
      187
 90
        5
 90
        6
 90
      186
 90
      187
 90
        7
 90
      186
 90
        6
 90
        7
 90
      175
 90
      186
 90
        8
 90
      175
 90
        7
 90
        8
 90
      174
 90
      175
 90
        9
 90
      174
 90
        8
 90
        9
 90
      174
 90
      178
 90
       10
 90
      178
 90
        9
 90
       10
 90
      171
 90
      178
 90
       11
 90
      171
 90
       10
 90
       11
 90
      166
 90
      171
 90
       12
 90
      166
 90
       11
 90
       12
 90
      165
 90
      166
 90
       13
 90
      165
 90
       12
 90
       13
 90
      165
 90
      169
 90
       14
 90
      169
 90
       13
 90
       14
 90
      162
 90
      169
 90
       15
 90
      162
 90
       14
 90
       15
 90
      156
 90
      162
 90
       16
 90
      156
 90
       15
 90
       16
 90
      155
 90
      156
 90
       17
 90
      155
 90
       16
 90
       17
 90
      155
 90
      158
 90
       18
 90
      158
 90
       17
 90
       18
 90
      152
 90
      158
 90
       19
 90
      152
 90
       18
 90
       19
 90
      149
 90
      152
 90
       20
 90
      149
 90
       19
 90
       20
 90
      148
 90
      149
 90
       21
 90
      148
 90
       20
 90
       21
 90
      145
 90
      148
 90
       22
 90
      145
 90
       21
 90
       22
 90
      143
 90
      145
 90
       23
 90
      143
 90
       22
 90
       23
 90
      133
 90
      143
 90
       24
 90
      133
 90
       23
 90
       24
 90
      132
 90
      133
 90
       25
 90
      132
 90
       24
 90
       25
 90
      132
 90
      135
 90
       26
 90
      135
 90
       25
 90
       26
 90
      120
 90
      135
 90
       27
 90
      120
 90
       26
 90
       27
 90
      113
 90
      120
 90
       28
 90
      113
 90
       27
 90
       28
 90
      112
 90
      113
 90
       29
 90
      112
 90
       28
 90
       29
 90
      110
 90
      112
 90
       30
 90
      110
 90
       29
 90
       30
 90
      109
 90
      110
 90
       31
 90
      109
 90
       30
 90
       31
 90
      107
 90
      109
 90
       31
 90
       32
 90
        1
 90
       96
 90
       34
 90
       37
 90
       33
 90
       37
 90
       32
 90
       37
 90
       31
 90
       38
 90
       30
 90
       38
 90
       29
 90
       39
 90
       28
 90
       39
 90
       42
 90
       45
 90
       28
 90
       40
 90
       27
 90
       41
 90
       41
 90
       46
 90
       27
 90
       47
 90
       27
 90
       48
 90
       50
 90
       53
 90
       49
 90
       54
 90
       27
 90
       54
 90
       24
 90
       63
 90
       25
 90
       62
 90
       26
 90
       61
 90
       26
 90
       60
 90
       26
 90
       58
 90
       26
 90
       57
 90
       27
 90
       56
 90
       27
 90
       55
 90
       23
 90
       64
 90
       22
 90
       65
 90
       20
 90
       68
 90
       21
 90
       67
 90
       21
 90
       66
 90
       22
 90
       66
 90
       19
 90
       69
 90
       16
 90
       74
 90
       17
 90
       73
 90
       18
 90
       70
 90
       18
 90
       71
 90
       17
 90
       72
 90
       15
 90
       75
 90
       12
 90
       79
 90
       13
 90
       78
 90
       13
 90
       77
 90
       13
 90
       76
 90
       14
 90
       76
 90
       11
 90
       80
 90
        8
 90
       85
 90
        9
 90
       84
 90
        9
 90
       83
 90
       10
 90
       82
 90
       10
 90
       81
 90
        2
 90
       96
 90
        4
 90
       95
 90
        5
 90
       94
 90
        7
 90
       93
 90
        8
 90
       93
 90
        6
 90
       94
 90
        3
 90
       96
 90
       88
 90
       91
 90
        8
 90
       86
 90
       87
 90
       92
 90
        8
 90
       92
 90
      100
 90
      101
 90
      102
 90
      105
 90
      102
 90
      106
 90
      102
 90
      107
 90
      108
 90
      109
 90
      108
 90
      110
 90
      111
 90
      112
 90
      111
 90
      113
 90
      114
 90
      117
 90
      113
 90
      118
 90
      119
 90
      120
 90
      119
 90
      121
 90
      120
 90
      122
 90
      120
 90
      123
 90
      124
 90
      127
 90
      128
 90
      129
 90
      120
 90
      128
 90
      131
 90
      132
 90
      130
 90
      133
 90
      134
 90
      135
 90
      135
 90
      136
 90
      135
 90
      138
 90
      120
 90
      140
 90
      135
 90
      139
 90
      120
 90
      141
 90
      142
 90
      143
 90
      144
 90
      145
 90
      147
 90
      148
 90
      146
 90
      149
 90
      148
 90
      150
 90
      145
 90
      150
 90
      151
 90
      152
 90
      154
 90
      155
 90
      153
 90
      156
 90
      157
 90
      158
 90
      158
 90
      159
 90
      155
 90
      160
 90
      161
 90
      162
 90
      164
 90
      165
 90
      163
 90
      166
 90
      165
 90
      167
 90
      165
 90
      168
 90
      168
 90
      169
 90
      170
 90
      171
 90
      173
 90
      174
 90
      172
 90
      175
 90
      174
 90
      176
 90
      177
 90
      178
 90
      178
 90
      179
 90
      100
 90
      180
 90
      182
 90
      183
 90
      181
 90
      184
 90
      175
 90
      185
 90
      185
 90
      186
 90
      182
 90
      187
 90
      100
 90
      188
 90
      189
 90
      192
 90
      175
 90
      193
 90
      194
 90
      195
 90
      175
 90
      194
 95
      414
140
0.0
140
0.0
140
0.0
140
0.0
140
0.0
140
0.0
140
0.0
140
0.0
140
0.0
140
0.0
140
0.0
140
0.0
140
0.0
140
0.0
140
0.0
140
0.0
140
0.0
140
0.0
140
0.0
140
0.0
140
0.0
140
0.0
140
0.0
140
0.0
140
0.0
140
0.0
140
0.0
140
0.0
140
0.0
140
0.0
140
0.0
140
0.0
140
0.0
140
0.0
140
0.0
140
0.0
140
0.0
140
0.0
140
0.0
140
0.0
140
0.0
140
0.0
140
0.0
140
0.0
140
0.0
140
0.0
140
0.0
140
0.0
140
0.0
140
0.0
140
0.0
140
0.0
140
0.0
140
0.0
140
0.0
140
0.0
140
0.0
140
0.0
140
0.0
140
0.0
140
0.0
140
0.0
140
0.0
140
0.0
140
0.0
140
0.0
140
0.0
140
0.0
140
0.0
140
0.0
140
0.0
140
0.0
140
0.0
140
0.0
140
0.0
140
0.0
140
0.0
140
0.0
140
0.0
140
0.0
140
0.0
140
0.0
140
0.0
140
0.0
140
0.0
140
0.0
140
0.0
140
0.0
140
0.0
140
0.0
140
0.0
140
0.0
140
0.0
140
0.0
140
0.0
140
0.0
140
0.0
140
0.0
140
0.0
140
0.0
140
0.0
140
0.0
140
0.0
140
0.0
140
0.0
140
0.0
140
0.0
140
0.0
140
0.0
140
0.0
140
0.0
140
0.0
140
0.0
140
0.0
140
0.0
140
0.0
140
0.0
140
0.0
140
0.0
140
0.0
140
0.0
140
0.0
140
0.0
140
0.0
140
0.0
140
0.0
140
0.0
140
0.0
140
0.0
140
0.0
140
0.0
140
0.0
140
0.0
140
0.0
140
0.0
140
0.0
140
0.0
140
0.0
140
0.0
140
0.0
140
0.0
140
0.0
140
0.0
140
0.0
140
0.0
140
0.0
140
0.0
140
0.0
140
0.0
140
0.0
140
0.0
140
0.0
140
0.0
140
0.0
140
0.0
140
0.0
140
0.0
140
0.0
140
0.0
140
0.0
140
0.0
140
0.0
140
0.0
140
0.0
140
0.0
140
0.0
140
0.0
140
0.0
140
0.0
140
0.0
140
0.0
140
0.0
140
0.0
140
0.0
140
0.0
140
0.0
140
0.0
140
0.0
140
0.0
140
0.0
140
0.0
140
0.0
140
0.0
140
0.0
140
0.0
140
0.0
140
0.0
140
0.0
140
0.0
140
0.0
140
0.0
140
0.0
140
0.0
140
0.0
140
0.0
140
0.0
140
0.0
140
0.0
140
0.0
140
0.0
140
0.0
140
0.0
140
0.0
140
0.0
140
0.0
140
0.0
140
0.0
140
0.0
140
0.0
140
0.0
140
0.0
140
0.0
140
0.0
140
0.0
140
0.0
140
0.0
140
0.0
140
0.0
140
0.0
140
0.0
140
0.0
140
0.0
140
0.0
140
0.0
140
0.0
140
0.0
140
0.0
140
0.0
140
0.0
140
0.0
140
0.0
140
0.0
140
0.0
140
0.0
140
0.0
140
0.0
140
0.0
140
0.0
140
0.0
140
0.0
140
0.0
140
0.0
140
0.0
140
0.0
140
0.0
140
0.0
140
0.0
140
0.0
140
0.0
140
0.0
140
0.0
140
0.0
140
0.0
140
0.0
140
0.0
140
0.0
140
0.0
140
0.0
140
0.0
140
0.0
140
0.0
140
0.0
140
0.0
140
0.0
140
0.0
140
0.0
140
0.0
140
0.0
140
0.0
140
0.0
140
0.0
140
0.0
140
0.0
140
0.0
140
0.0
140
0.0
140
0.0
140
0.0
140
0.0
140
0.0
140
0.0
140
0.0
140
0.0
140
0.0
140
0.0
140
0.0
140
0.0
140
0.0
140
0.0
140
0.0
140
0.0
140
0.0
140
0.0
140
0.0
140
0.0
140
0.0
140
0.0
140
0.0
140
0.0
140
0.0
140
0.0
140
0.0
140
0.0
140
0.0
140
0.0
140
0.0
140
0.0
140
0.0
140
0.0
140
0.0
140
0.0
140
0.0
140
0.0
140
0.0
140
0.0
140
0.0
140
0.0
140
0.0
140
0.0
140
0.0
140
0.0
140
0.0
140
0.0
140
0.0
140
0.0
140
0.0
140
0.0
140
0.0
140
0.0
140
0.0
140
0.0
140
0.0
140
0.0
140
0.0
140
0.0
140
0.0
140
0.0
140
0.0
140
0.0
140
0.0
140
0.0
140
0.0
140
0.0
140
0.0
140
0.0
140
0.0
140
0.0
140
0.0
140
0.0
140
0.0
140
0.0
140
0.0
140
0.0
140
0.0
140
0.0
140
0.0
140
0.0
140
0.0
140
0.0
140
0.0
140
0.0
140
0.0
140
0.0
140
0.0
140
0.0
140
0.0
140
0.0
140
0.0
140
0.0
140
0.0
140
0.0
140
0.0
140
0.0
140
0.0
140
0.0
140
0.0
140
0.0
140
0.0
140
0.0
140
0.0
140
0.0
140
0.0
140
0.0
140
0.0
140
0.0
140
0.0
140
0.0
140
0.0
140
0.0
140
0.0
140
0.0
140
0.0
140
0.0
140
0.0
140
0.0
140
0.0
140
0.0
140
0.0
140
0.0
140
0.0
140
0.0
140
0.0
140
0.0
140
0.0
140
0.0
140
0.0
140
0.0
140
0.0
140
0.0
140
0.0
140
0.0
140
0.0
140
0.0
140
0.0
 90
        0
  0
POLYLINE
  5
FA
330
1F
100
AcDbEntity
  8
OracDecor_cornice_mouldings
 62
    61
420
 14083225
100
AcDb2dPolyline
 66
     1
 10
0.0
 20
0.0
 30
0.0000022216272555
 70
     1
210
-0.9999999999999769
220
0.0000001788139343
230
-0.0000001192092896
  0
VERTEX
  5
FB
330
FA
100
AcDbEntity
  8
OracDecor_cornice_mouldings
 62
    61
420
 14083225
100
AcDbVertex
100
AcDb2dVertex
 10
-0.0000457763671875
 20
-94.50000000000001
 30
0.0000022216272555
  0
VERTEX
  5
FC
330
FA
100
AcDbEntity
  8
OracDecor_cornice_mouldings
 62
    61
420
 14083225
100
AcDbVertex
100
AcDb2dVertex
 10
-0.0000457763671875
 20
-83.23928833007812
 30
0.0000022216272555
  0
VERTEX
  5
FD
330
FA
100
AcDbEntity
  8
OracDecor_cornice_mouldings
 62
    61
420
 14083225
100
AcDbVertex
100
AcDb2dVertex
 10
-1.315689086914062
 20
-82.76043701171875
 30
0.0000022216272555
  0
VERTEX
  5
FE
330
FA
100
AcDbEntity
  8
OracDecor_cornice_mouldings
 62
    61
420
 14083225
100
AcDbVertex
100
AcDb2dVertex
 10
-1.927642822265625
 20
-82.38542938232422
 30
0.0000022216272555
  0
VERTEX
  5
FF
330
FA
100
AcDbEntity
  8
OracDecor_cornice_mouldings
 62
    61
420
 14083225
100
AcDbVertex
100
AcDb2dVertex
 10
-2.34442138671875
 20
-81.80111694335938
 30
0.0000022216272555
  0
VERTEX
  5
100
330
FA
100
AcDbEntity
  8
OracDecor_cornice_mouldings
 62
    61
420
 14083225
100
AcDbVertex
100
AcDb2dVertex
 10
-2.499771118164062
 20
-81.10041046142578
 30
0.0000022216272555
  0
VERTEX
  5
101
330
FA
100
AcDbEntity
  8
OracDecor_cornice_mouldings
 62
    61
420
 14083225
100
AcDbVertex
100
AcDb2dVertex
 10
-2.368972778320312
 20
-80.39469909667969
 30
0.0000022216272555
  0
VERTEX
  5
102
330
FA
100
AcDbEntity
  8
OracDecor_cornice_mouldings
 62
    61
420
 14083225
100
AcDbVertex
100
AcDb2dVertex
 10
-1.97283935546875
 20
-79.79620361328125
 30
0.0000022216272555
  0
VERTEX
  5
103
330
FA
100
AcDbEntity
  8
OracDecor_cornice_mouldings
 62
    61
420
 14083225
100
AcDbVertex
100
AcDb2dVertex
 10
-0.000030517578125
 20
-77.82341003417968
 30
0.0000022216272555
  0
VERTEX
  5
104
330
FA
100
AcDbEntity
  8
OracDecor_cornice_mouldings
 62
    61
420
 14083225
100
AcDbVertex
100
AcDb2dVertex
 10
-0.000030517578125
 20
-69.19999694824219
 30
0.0000022216272555
  0
VERTEX
  5
105
330
FA
100
AcDbEntity
  8
OracDecor_cornice_mouldings
 62
    61
420
 14083225
100
AcDbVertex
100
AcDb2dVertex
 10
-0.907135009765625
 20
-68.29289245605469
 30
0.0000022216272555
  0
VERTEX
  5
106
330
FA
100
AcDbEntity
  8
OracDecor_cornice_mouldings
 62
    61
420
 14083225
100
AcDbVertex
100
AcDb2dVertex
 10
-1.1239013671875
 20
-67.96846771240234
 30
0.0000022216272555
  0
VERTEX
  5
107
330
FA
100
AcDbEntity
  8
OracDecor_cornice_mouldings
 62
    61
420
 14083225
100
AcDbVertex
100
AcDb2dVertex
 10
-1.200042724609375
 20
-67.58578491210937
 30
0.0000022216272555
  0
VERTEX
  5
108
330
FA
100
AcDbEntity
  8
OracDecor_cornice_mouldings
 62
    61
420
 14083225
100
AcDbVertex
100
AcDb2dVertex
 10
-1.200042724609375
 20
-54.0
 30
0.0000022216272555
  0
VERTEX
  5
109
330
FA
100
AcDbEntity
  8
OracDecor_cornice_mouldings
 62
    61
420
 14083225
100
AcDbVertex
100
AcDb2dVertex
 10
-1.3958740234375
 20
-52.76384735107422
 30
0.0000022216272555
  0
VERTEX
  5
10A
330
FA
100
AcDbEntity
  8
OracDecor_cornice_mouldings
 62
    61
420
 14083225
100
AcDbVertex
100
AcDb2dVertex
 10
-1.964019775390625
 20
-51.64882659912109
 30
0.0000022216272555
  0
VERTEX
  5
10B
330
FA
100
AcDbEntity
  8
OracDecor_cornice_mouldings
 62
    61
420
 14083225
100
AcDbVertex
100
AcDb2dVertex
 10
-2.848876953125
 20
-50.76396942138671
 30
0.0000022216272555
  0
VERTEX
  5
10C
330
FA
100
AcDbEntity
  8
OracDecor_cornice_mouldings
 62
    61
420
 14083225
100
AcDbVertex
100
AcDb2dVertex
 10
-3.963897705078125
 20
-50.19580841064453
 30
0.0000022216272555
  0
VERTEX
  5
10D
330
FA
100
AcDbEntity
  8
OracDecor_cornice_mouldings
 62
    61
420
 14083225
100
AcDbVertex
100
AcDb2dVertex
 10
-5.200042724609375
 20
-50.0
 30
0.0000022216272555
  0
VERTEX
  5
10E
330
FA
100
AcDbEntity
  8
OracDecor_cornice_mouldings
 62
    61
420
 14083225
100
AcDbVertex
100
AcDb2dVertex
 10
-28.00006103515625
 20
-50.00000762939453
 30
0.0000022216272555
  0
VERTEX
  5
10F
330
FA
100
AcDbEntity
  8
OracDecor_cornice_mouldings
 62
    61
420
 14083225
100
AcDbVertex
100
AcDb2dVertex
 10
-28.76541137695312
 20
-49.8477554321289
 30
0.0000022216272555
  0
VERTEX
  5
110
330
FA
100
AcDbEntity
  8
OracDecor_cornice_mouldings
 62
    61
420
 14083225
100
AcDbVertex
100
AcDb2dVertex
 10
-29.41427612304688
 20
-49.41422271728516
 30
0.0000022216272555
  0
VERTEX
  5
111
330
FA
100
AcDbEntity
  8
OracDecor_cornice_mouldings
 62
    61
420
 14083225
100
AcDbVertex
100
AcDb2dVertex
 10
-29.84780883789063
 20
-48.76537322998046
 30
0.0000022216272555
  0
VERTEX
  5
112
330
FA
100
AcDbEntity
  8
OracDecor_cornice_mouldings
 62
    61
420
 14083225
100
AcDbVertex
100
AcDb2dVertex
 10
-30.00006103515625
 20
-48.00000762939453
 30
0.0000022216272555
  0
VERTEX
  5
113
330
FA
100
AcDbEntity
  8
OracDecor_cornice_mouldings
 62
    61
420
 14083225
100
AcDbVertex
100
AcDb2dVertex
 10
-30.00006103515625
 20
-27.00000953674317
 30
0.0000022216272555
  0
VERTEX
  5
114
330
FA
100
AcDbEntity
  8
OracDecor_cornice_mouldings
 62
    61
420
 14083225
100
AcDbVertex
100
AcDb2dVertex
 10
-30.3426513671875
 20
-24.83693885803223
 30
0.0000022216272555
  0
VERTEX
  5
115
330
FA
100
AcDbEntity
  8
OracDecor_cornice_mouldings
 62
    61
420
 14083225
100
AcDbVertex
100
AcDb2dVertex
 10
-31.33700561523438
 20
-22.88543891906738
 30
0.0000022216272555
  0
VERTEX
  5
116
330
FA
100
AcDbEntity
  8
OracDecor_cornice_mouldings
 62
    61
420
 14083225
100
AcDbVertex
100
AcDb2dVertex
 10
-32.885498046875
 20
-21.33694648742676
 30
0.0000022216272555
  0
VERTEX
  5
117
330
FA
100
AcDbEntity
  8
OracDecor_cornice_mouldings
 62
    61
420
 14083225
100
AcDbVertex
100
AcDb2dVertex
 10
-34.83697509765625
 20
-20.34260749816894
 30
0.0000022216272555
  0
VERTEX
  5
118
330
FA
100
AcDbEntity
  8
OracDecor_cornice_mouldings
 62
    61
420
 14083225
100
AcDbVertex
100
AcDb2dVertex
 10
-37.00006103515625
 20
-20.00000190734863
 30
0.0000022216272555
  0
VERTEX
  5
119
330
FA
100
AcDbEntity
  8
OracDecor_cornice_mouldings
 62
    61
420
 14083225
100
AcDbVertex
100
AcDb2dVertex
 10
-88.00005340576172
 20
-20.0000057220459
 30
0.0000022216272555
  0
VERTEX
  5
11A
330
FA
100
AcDbEntity
  8
OracDecor_cornice_mouldings
 62
    61
420
 14083225
100
AcDbVertex
100
AcDb2dVertex
 10
-88.76541900634766
 20
-19.84776878356933
 30
0.0000022216272555
  0
VERTEX
  5
11B
330
FA
100
AcDbEntity
  8
OracDecor_cornice_mouldings
 62
    61
420
 14083225
100
AcDbVertex
100
AcDb2dVertex
 10
-89.41426849365234
 20
-19.41422080993652
 30
0.0000022216272555
  0
VERTEX
  5
11C
330
FA
100
AcDbEntity
  8
OracDecor_cornice_mouldings
 62
    61
420
 14083225
100
AcDbVertex
100
AcDb2dVertex
 10
-89.84780883789062
 20
-18.76537132263183
 30
0.0000022216272555
  0
VERTEX
  5
11D
330
FA
100
AcDbEntity
  8
OracDecor_cornice_mouldings
 62
    61
420
 14083225
100
AcDbVertex
100
AcDb2dVertex
 10
-90.00005340576171
 20
-18.0000057220459
 30
0.0000022216272555
  0
VERTEX
  5
11E
330
FA
100
AcDbEntity
  8
OracDecor_cornice_mouldings
 62
    61
420
 14083225
100
AcDbVertex
100
AcDb2dVertex
 10
-90.00005340576171
 20
-3.200002431869506
 30
0.0000022216272555
  0
VERTEX
  5
11F
330
FA
100
AcDbEntity
  8
OracDecor_cornice_mouldings
 62
    61
420
 14083225
100
AcDbVertex
100
AcDb2dVertex
 10
-90.18965911865235
 20
-1.983113884925842
 30
0.0000022216272555
  0
VERTEX
  5
120
330
FA
100
AcDbEntity
  8
OracDecor_cornice_mouldings
 62
    61
420
 14083225
100
AcDbVertex
100
AcDb2dVertex
 10
-90.74038696289063
 20
-0.881704032421112
 30
0.0000022216272555
  0
VERTEX
  5
121
330
FA
100
AcDbEntity
  8
OracDecor_cornice_mouldings
 62
    61
420
 14083225
100
AcDbVertex
100
AcDb2dVertex
 10
-91.6000518798828
 20
-0.0000207185785257
 30
0.0000022216272555
  0
VERTEX
  5
122
330
FA
100
AcDbEntity
  8
OracDecor_cornice_mouldings
 62
    61
420
 14083225
100
AcDbVertex
100
AcDb2dVertex
 10
-100.5000534057617
 20
-0.0000059902708927
 30
0.0000022216272555
  0
VERTEX
  5
123
330
FA
100
AcDbEntity
  8
OracDecor_cornice_mouldings
 62
    61
420
 14083225
100
AcDbVertex
100
AcDb2dVertex
 10
-102.4728469848632
 20
-1.972799658775329
 30
0.0000022216272555
  0
VERTEX
  5
124
330
FA
100
AcDbEntity
  8
OracDecor_cornice_mouldings
 62
    61
420
 14083225
100
AcDbVertex
100
AcDb2dVertex
 10
-103.0713500976562
 20
-2.368933200836181
 30
0.0000022216272555
  0
VERTEX
  5
125
330
FA
100
AcDbEntity
  8
OracDecor_cornice_mouldings
 62
    61
420
 14083225
100
AcDbVertex
100
AcDb2dVertex
 10
-103.7770538330078
 20
-2.499731540679931
 30
0.0000022216272555
  0
VERTEX
  5
126
330
FA
100
AcDbEntity
  8
OracDecor_cornice_mouldings
 62
    61
420
 14083225
100
AcDbVertex
100
AcDb2dVertex
 10
-104.4777603149414
 20
-2.344397068023681
 30
0.0000022216272555
  0
VERTEX
  5
127
330
FA
100
AcDbEntity
  8
OracDecor_cornice_mouldings
 62
    61
420
 14083225
100
AcDbVertex
100
AcDb2dVertex
 10
-105.0620727539062
 20
-1.927618622779846
 30
0.0000022216272555
  0
VERTEX
  5
128
330
FA
100
AcDbEntity
  8
OracDecor_cornice_mouldings
 62
    61
420
 14083225
100
AcDbVertex
100
AcDb2dVertex
 10
-105.4370880126953
 20
-1.315664887428283
 30
0.0000022216272555
  0
VERTEX
  5
129
330
FA
100
AcDbEntity
  8
OracDecor_cornice_mouldings
 62
    61
420
 14083225
100
AcDbVertex
100
AcDb2dVertex
 10
-105.9159393310547
 20
-0.0000215718719119
 30
0.0000022216272555
  0
VERTEX
  5
12A
330
FA
100
AcDbEntity
  8
OracDecor_cornice_mouldings
 62
    61
420
 14083225
100
AcDbVertex
100
AcDb2dVertex
 10
-115.0000534057617
 20
-0.0000221133268496
 30
0.0000022216272555
  0
VERTEX
  5
12B
330
FA
100
AcDbEntity
  8
OracDecor_cornice_mouldings
 62
    61
420
 14083225
100
AcDbVertex
100
AcDb2dVertex
 10
-115.9071578979492
 20
-0.9071266651153564
 30
0.0000022216272555
  0
VERTEX
  5
12C
330
FA
100
AcDbEntity
  8
OracDecor_cornice_mouldings
 62
    61
420
 14083225
100
AcDbVertex
100
AcDb2dVertex
 10
-116.2315902709961
 20
-1.123893022537231
 30
0.0000022216272555
  0
VERTEX
  5
12D
330
FA
100
AcDbEntity
  8
OracDecor_cornice_mouldings
 62
    61
420
 14083225
100
AcDbVertex
100
AcDb2dVertex
 10
-116.6142654418945
 20
-1.200019121170043
 30
0.0000022216272555
  0
VERTEX
  5
12E
330
FA
100
AcDbEntity
  8
OracDecor_cornice_mouldings
 62
    61
420
 14083225
100
AcDbVertex
100
AcDb2dVertex
 10
-149.0858459472656
 20
-1.200036406517028
 30
0.0000022216272555
  0
VERTEX
  5
12F
330
FA
100
AcDbEntity
  8
OracDecor_cornice_mouldings
 62
    61
420
 14083225
100
AcDbVertex
100
AcDb2dVertex
 10
-149.468521118164
 20
-1.123910307884216
 30
0.0000022216272555
  0
VERTEX
  5
130
330
FA
100
AcDbEntity
  8
OracDecor_cornice_mouldings
 62
    61
420
 14083225
100
AcDbVertex
100
AcDb2dVertex
 10
-149.7929382324219
 20
-0.9071439504623413
 30
0.0000022216272555
  0
VERTEX
  5
131
330
FA
100
AcDbEntity
  8
OracDecor_cornice_mouldings
 62
    61
420
 14083225
100
AcDbVertex
100
AcDb2dVertex
 10
-150.7000579833984
 20
-0.0000395000024582
 30
0.0000022216272555
  0
VERTEX
  5
132
330
FA
100
AcDbEntity
  8
OracDecor_cornice_mouldings
 62
    61
420
 14083225
100
AcDbVertex
100
AcDb2dVertex
 10
-169.8021850585937
 20
-0.0000406385770475
 30
0.0000022216272555
  0
VERTEX
  5
133
330
FA
100
AcDbEntity
  8
OracDecor_cornice_mouldings
 62
    61
420
 14083225
100
AcDbVertex
100
AcDb2dVertex
 10
-171.7749786376953
 20
-1.972834348678588
 30
0.0000022216272555
  0
VERTEX
  5
134
330
FA
100
AcDbEntity
  8
OracDecor_cornice_mouldings
 62
    61
420
 14083225
100
AcDbVertex
100
AcDb2dVertex
 10
-172.3734741210937
 20
-2.368967771530151
 30
0.0000022216272555
  0
VERTEX
  5
135
330
FA
100
AcDbEntity
  8
OracDecor_cornice_mouldings
 62
    61
420
 14083225
100
AcDbVertex
100
AcDb2dVertex
 10
-173.0791931152344
 20
-2.499766111373901
 30
0.0000022216272555
  0
VERTEX
  5
136
330
FA
100
AcDbEntity
  8
OracDecor_cornice_mouldings
 62
    61
420
 14083225
100
AcDbVertex
100
AcDb2dVertex
 10
-173.7799072265625
 20
-2.344416379928588
 30
0.0000022216272555
  0
VERTEX
  5
137
330
FA
100
AcDbEntity
  8
OracDecor_cornice_mouldings
 62
    61
420
 14083225
100
AcDbVertex
100
AcDb2dVertex
 10
-174.3642120361328
 20
-1.927637934684753
 30
0.0000022216272555
  0
VERTEX
  5
138
330
FA
100
AcDbEntity
  8
OracDecor_cornice_mouldings
 62
    61
420
 14083225
100
AcDbVertex
100
AcDb2dVertex
 10
-174.7392272949219
 20
-1.31568419933319
 30
0.0000022216272555
  0
VERTEX
  5
139
330
FA
100
AcDbEntity
  8
OracDecor_cornice_mouldings
 62
    61
420
 14083225
100
AcDbVertex
100
AcDb2dVertex
 10
-175.2180786132812
 20
-0.000040961389459
 30
0.0000022216272555
  0
VERTEX
  5
13A
330
FA
100
AcDbEntity
  8
OracDecor_cornice_mouldings
 62
    61
420
 14083225
100
AcDbVertex
100
AcDb2dVertex
 10
-184.5000457763672
 20
-0.000041514638724
 30
0.0000022216272555
  0
VERTEX
  5
13B
330
FA
100
AcDbEntity
  8
OracDecor_cornice_mouldings
 62
    61
420
 14083225
100
AcDbVertex
100
AcDb2dVertex
 10
-191.3536071777343
 20
-6.853588104248046
 30
0.0000022216272555
  0
VERTEX
  5
13C
330
FA
100
AcDbEntity
  8
OracDecor_cornice_mouldings
 62
    61
420
 14083225
100
AcDbVertex
100
AcDb2dVertex
 10
-191.4619903564453
 20
-7.015804290771484
 30
0.0000022216272555
  0
VERTEX
  5
13D
330
FA
100
AcDbEntity
  8
OracDecor_cornice_mouldings
 62
    61
420
 14083225
100
AcDbVertex
100
AcDb2dVertex
 10
-191.5000457763672
 20
-7.207149505615234
 30
0.0000022216272555
  0
VERTEX
  5
13E
330
FA
100
AcDbEntity
  8
OracDecor_cornice_mouldings
 62
    61
420
 14083225
100
AcDbVertex
100
AcDb2dVertex
 10
-191.5000457763672
 20
-12.20003890991211
 30
0.0000022216272555
  0
VERTEX
  5
13F
330
FA
100
AcDbEntity
  8
OracDecor_cornice_mouldings
 62
    61
420
 14083225
100
AcDbVertex
100
AcDb2dVertex
 10
-191.4330596923828
 20
-12.45003890991211
 30
0.0000022216272555
  0
VERTEX
  5
140
330
FA
100
AcDbEntity
  8
OracDecor_cornice_mouldings
 62
    61
420
 14083225
100
AcDbVertex
100
AcDb2dVertex
 10
-191.2500457763672
 20
-12.63305282592773
 30
0.0000022216272555
  0
VERTEX
  5
141
330
FA
100
AcDbEntity
  8
OracDecor_cornice_mouldings
 62
    61
420
 14083225
100
AcDbVertex
100
AcDb2dVertex
 10
-191.0000457763672
 20
-12.70003890991211
 30
0.0000022216272555
  0
VERTEX
  5
142
330
FA
100
AcDbEntity
  8
OracDecor_cornice_mouldings
 62
    61
420
 14083225
100
AcDbVertex
100
AcDb2dVertex
 10
-102.0000534057617
 20
-12.70000267028808
 30
0.0000022216272555
  0
VERTEX
  5
143
330
FA
100
AcDbEntity
  8
OracDecor_cornice_mouldings
 62
    61
420
 14083225
100
AcDbVertex
100
AcDb2dVertex
 10
-101.7500534057617
 20
-12.76698875427246
 30
0.0000022216272555
  0
VERTEX
  5
144
330
FA
100
AcDbEntity
  8
OracDecor_cornice_mouldings
 62
    61
420
 14083225
100
AcDbVertex
100
AcDb2dVertex
 10
-101.5670394897461
 20
-12.95000267028808
 30
0.0000022216272555
  0
VERTEX
  5
145
330
FA
100
AcDbEntity
  8
OracDecor_cornice_mouldings
 62
    61
420
 14083225
100
AcDbVertex
100
AcDb2dVertex
 10
-101.5000534057617
 20
-13.20000267028808
 30
0.0000022216272555
  0
VERTEX
  5
146
330
FA
100
AcDbEntity
  8
OracDecor_cornice_mouldings
 62
    61
420
 14083225
100
AcDbVertex
100
AcDb2dVertex
 10
-101.5000381469726
 20
-31.00002098083496
 30
0.0000022216272555
  0
VERTEX
  5
147
330
FA
100
AcDbEntity
  8
OracDecor_cornice_mouldings
 62
    61
420
 14083225
100
AcDbVertex
100
AcDb2dVertex
 10
-101.4330520629883
 20
-31.25002098083496
 30
0.0000022216272555
  0
VERTEX
  5
148
330
FA
100
AcDbEntity
  8
OracDecor_cornice_mouldings
 62
    61
420
 14083225
100
AcDbVertex
100
AcDb2dVertex
 10
-101.2500381469726
 20
-31.43303489685059
 30
0.0000022216272555
  0
VERTEX
  5
149
330
FA
100
AcDbEntity
  8
OracDecor_cornice_mouldings
 62
    61
420
 14083225
100
AcDbVertex
100
AcDb2dVertex
 10
-101.0000381469726
 20
-31.50002098083496
 30
0.0000022216272555
  0
VERTEX
  5
14A
330
FA
100
AcDbEntity
  8
OracDecor_cornice_mouldings
 62
    61
420
 14083225
100
AcDbVertex
100
AcDb2dVertex
 10
-42.00006103515625
 20
-31.50000190734863
 30
0.0000022216272555
  0
VERTEX
  5
14B
330
FA
100
AcDbEntity
  8
OracDecor_cornice_mouldings
 62
    61
420
 14083225
100
AcDbVertex
100
AcDb2dVertex
 10
-41.75006103515625
 20
-31.56698799133301
 30
0.0000022216272555
  0
VERTEX
  5
14C
330
FA
100
AcDbEntity
  8
OracDecor_cornice_mouldings
 62
    61
420
 14083225
100
AcDbVertex
100
AcDb2dVertex
 10
-41.56704711914062
 20
-31.75000190734863
 30
0.0000022216272555
  0
VERTEX
  5
14D
330
FA
100
AcDbEntity
  8
OracDecor_cornice_mouldings
 62
    61
420
 14083225
100
AcDbVertex
100
AcDb2dVertex
 10
-41.50006103515624
 20
-32.00000381469727
 30
0.0000022216272555
  0
VERTEX
  5
14E
330
FA
100
AcDbEntity
  8
OracDecor_cornice_mouldings
 62
    61
420
 14083225
100
AcDbVertex
100
AcDb2dVertex
 10
-41.50006103515624
 20
-61.0000114440918
 30
0.0000022216272555
  0
VERTEX
  5
14F
330
FA
100
AcDbEntity
  8
OracDecor_cornice_mouldings
 62
    61
420
 14083225
100
AcDbVertex
100
AcDb2dVertex
 10
-41.43307495117187
 20
-61.25001144409179
 30
0.0000022216272555
  0
VERTEX
  5
150
330
FA
100
AcDbEntity
  8
OracDecor_cornice_mouldings
 62
    61
420
 14083225
100
AcDbVertex
100
AcDb2dVertex
 10
-41.25006103515625
 20
-61.43302536010742
 30
0.0000022216272555
  0
VERTEX
  5
151
330
FA
100
AcDbEntity
  8
OracDecor_cornice_mouldings
 62
    61
420
 14083225
100
AcDbVertex
100
AcDb2dVertex
 10
-41.00006103515625
 20
-61.5000114440918
 30
0.0000022216272555
  0
VERTEX
  5
152
330
FA
100
AcDbEntity
  8
OracDecor_cornice_mouldings
 62
    61
420
 14083225
100
AcDbVertex
100
AcDb2dVertex
 10
-13.20005798339844
 20
-61.5
 30
0.0000022216272555
  0
VERTEX
  5
153
330
FA
100
AcDbEntity
  8
OracDecor_cornice_mouldings
 62
    61
420
 14083225
100
AcDbVertex
100
AcDb2dVertex
 10
-12.95005798339843
 20
-61.56698608398437
 30
0.0000022216272555
  0
VERTEX
  5
154
330
FA
100
AcDbEntity
  8
OracDecor_cornice_mouldings
 62
    61
420
 14083225
100
AcDbVertex
100
AcDb2dVertex
 10
-12.76704406738281
 20
-61.75
 30
0.0000022216272555
  0
VERTEX
  5
155
330
FA
100
AcDbEntity
  8
OracDecor_cornice_mouldings
 62
    61
420
 14083225
100
AcDbVertex
100
AcDb2dVertex
 10
-12.70005798339844
 20
-62.0
 30
0.0000022216272555
  0
VERTEX
  5
156
330
FA
100
AcDbEntity
  8
OracDecor_cornice_mouldings
 62
    61
420
 14083225
100
AcDbVertex
100
AcDb2dVertex
 10
-12.70002746582031
 20
-101.0
 30
0.0000022216272555
  0
VERTEX
  5
157
330
FA
100
AcDbEntity
  8
OracDecor_cornice_mouldings
 62
    61
420
 14083225
100
AcDbVertex
100
AcDb2dVertex
 10
-12.63304138183594
 20
-101.25
 30
0.0000022216272555
  0
VERTEX
  5
158
330
FA
100
AcDbEntity
  8
OracDecor_cornice_mouldings
 62
    61
420
 14083225
100
AcDbVertex
100
AcDb2dVertex
 10
-12.45002746582031
 20
-101.4330139160156
 30
0.0000022216272555
  0
VERTEX
  5
159
330
FA
100
AcDbEntity
  8
OracDecor_cornice_mouldings
 62
    61
420
 14083225
100
AcDbVertex
100
AcDb2dVertex
 10
-12.20002746582031
 20
-101.5
 30
0.0000022216272555
  0
VERTEX
  5
15A
330
FA
100
AcDbEntity
  8
OracDecor_cornice_mouldings
 62
    61
420
 14083225
100
AcDbVertex
100
AcDb2dVertex
 10
-7.207138061523437
 20
-101.5
 30
0.0000022216272555
  0
VERTEX
  5
15B
330
FA
100
AcDbEntity
  8
OracDecor_cornice_mouldings
 62
    61
420
 14083225
100
AcDbVertex
100
AcDb2dVertex
 10
-7.015792846679687
 20
-101.4619445800781
 30
0.0000022216272555
  0
VERTEX
  5
15C
330
FA
100
AcDbEntity
  8
OracDecor_cornice_mouldings
 62
    61
420
 14083225
100
AcDbVertex
100
AcDb2dVertex
 10
-6.85357666015625
 20
-101.3535614013672
 30
0.0000022216272555
  0
SEQEND
  5
15D
330
FA
100
AcDbEntity
  8
OracDecor_cornice_mouldings
 62
    61
420
 14083225
  0
ENDSEC
  0
SECTION
  2
OBJECTS
  0
DICTIONARY
  5
C
330
0
100
AcDbDictionary
281
     1
  3
ACAD_COLOR
350
DC
  3
ACAD_DETAILVIEWSTYLE
350
F5
  3
ACAD_GROUP
350
D
  3
ACAD_LAYOUT
350
1A
  3
ACAD_MATERIAL
350
AA
  3
ACAD_MLEADERSTYLE
350
F1
  3
ACAD_MLINESTYLE
350
17
  3
ACAD_PLOTSETTINGS
350
19
  3
ACAD_PLOTSTYLENAME
350
E
  3
ACAD_SCALELIST
350
DF
  3
ACAD_SECTIONVIEWSTYLE
350
F3
  3
ACAD_TABLESTYLE
350
DD
  3
ACAD_VISUALSTYLE
350
C3
  3
ACDB_RECOMPOSE_DATA
350
16A
  3
AcDbVariableDictionary
350
15E
  0
DICTIONARY
  5
DC
102
{ACAD_REACTORS
330
C
102
}
330
C
100
AcDbDictionary
281
     1
  0
DICTIONARY
  5
F5
102
{ACAD_REACTORS
330
C
102
}
330
C
100
AcDbDictionary
281
     1
  3
Imperial24
350
F6
  0
DICTIONARY
  5
D
102
{ACAD_REACTORS
330
C
102
}
330
C
100
AcDbDictionary
281
     1
  0
DICTIONARY
  5
1A
102
{ACAD_REACTORS
330
C
102
}
330
C
100
AcDbDictionary
281
     1
  3
Layout1
350
1E
  3
Layout2
350
26
  3
Model
350
22
  0
DICTIONARY
  5
AA
102
{ACAD_REACTORS
330
C
102
}
330
C
100
AcDbDictionary
281
     1
  3
ByBlock
350
B3
  3
ByLayer
350
AB
  3
Global
350
BB
  0
DICTIONARY
  5
F1
102
{ACAD_REACTORS
330
C
102
}
330
C
100
AcDbDictionary
281
     1
  3
Standard
350
F2
  0
DICTIONARY
  5
17
102
{ACAD_REACTORS
330
C
102
}
330
C
100
AcDbDictionary
281
     1
  3
Standard
350
18
  0
DICTIONARY
  5
19
102
{ACAD_REACTORS
330
C
102
}
330
C
100
AcDbDictionary
281
     1
  0
ACDBDICTIONARYWDFLT
  5
E
102
{ACAD_REACTORS
330
C
102
}
330
C
100
AcDbDictionary
281
     1
  3
ByLayer
350
2D
  3
Normal
350
F
100
AcDbDictionaryWithDefault
340
F
  0
DICTIONARY
  5
DF
102
{ACAD_REACTORS
330
C
102
}
330
C
100
AcDbDictionary
281
     1
  3
A0
350
E0
  3
A1
350
E1
  3
A2
350
E2
  3
A3
350
E3
  3
A4
350
E4
  3
A5
350
E5
  3
A6
350
E6
  3
A7
350
E7
  3
A8
350
E8
  3
A9
350
E9
  3
B0
350
EA
  3
B1
350
EB
  3
B2
350
EC
  3
B3
350
ED
  3
B4
350
EE
  3
B5
350
EF
  3
B6
350
F0
  0
DICTIONARY
  5
F3
102
{ACAD_REACTORS
330
C
102
}
330
C
100
AcDbDictionary
281
     1
  3
Imperial24
350
F4
  0
DICTIONARY
  5
DD
102
{ACAD_REACTORS
330
C
102
}
330
C
100
AcDbDictionary
281
     1
  3
Standard
350
DE
  0
DICTIONARY
  5
C3
102
{ACAD_REACTORS
330
C
102
}
330
C
100
AcDbDictionary
281
     1
  3
2dWireframe
350
C9
  3
Basic
350
C8
  3
Brighten
350
CF
  3
ColorChange
350
D3
  3
Conceptual
350
CC
  3
Dim
350
CE
  3
EdgeColorOff
350
DB
  3
Facepattern
350
D2
  3
Flat
350
C4
  3
FlatWithEdges
350
C5
  3
Gouraud
350
C6
  3
GouraudWithEdges
350
C7
  3
Hidden
350
CB
  3
JitterOff
350
D9
  3
Linepattern
350
D1
  3
OverhangOff
350
DA
  3
Realistic
350
CD
  3
Shaded
350
D8
  3
Shaded with edges
350
D7
  3
Shades of Gray
350
D4
  3
Sketchy
350
D5
  3
Thicken
350
D0
  3
Wireframe
350
CA
  3
X-Ray
350
D6
  0
XRECORD
  5
16A
102
{ACAD_REACTORS
330
C
102
}
330
C
100
AcDbXrecord
280
     1
 90
        1
330
DE
  0
DICTIONARY
  5
15E
102
{ACAD_REACTORS
330
C
102
}
330
C
100
AcDbDictionary
281
     1
  3
CANNOSCALE
350
164
  3
CMLEADERSTYLE
350
160
  3
CTABLESTYLE
350
15F
  3
CVIEWDETAILSTYLE
350
161
  3
CVIEWSECTIONSTYLE
350
162
  3
LAYEREVAL
350
166
  3
LAYERNOTIFY
350
167
  3
LIGHTINGUNITS
350
165
  3
MSLTSCALE
350
163
  0
ACDBDETAILVIEWSTYLE
  5
F6
102
{ACAD_XDICTIONARY
360
19F
102
}
102
{ACAD_REACTORS
330
F5
102
}
330
F5
100
AcDbModelDocViewStyle
 70
     0
  3
Imperial24
290
     0
100
AcDbDetailViewStyle
 70
     0
 71
     0
 90
        3
 71
     1
340
11
 62
   256
 40
0.24
340
0
 62
   256
 40
0.24
300

 40
0.36
280
     3
 71
     2
340
16
 90
       25
 62
   256
 71
     3
340
11
 62
   256
 40
0.24
 90
        1
 40
0.75
 90
        1
300
%<\AcVar ViewType \f "%tc1">% %<\AcVar ViewDetailId>%\PSCALE %<\AcVar ViewScale \f "%sn">%
 71
     4
340
16
 90
       25
 62
   256
340
16
 90
       25
 62
   256
280
     0
  0
LAYOUT
  5
1E
102
{ACAD_REACTORS
330
1A
102
}
330
1A
100
AcDbPlotSettings
  1

  2
\\KTXNTBDC\CASF2PN1
  4

  6

 40
0.0
 41
0.0
 42
0.0
 43
0.0
 44
0.0
 45
0.0
 46
0.0
 47
0.0
 48
0.0
 49
0.0
140
0.0
141
0.0
142
1.0
143
1.0
 70
   688
 72
     0
 73
     0
 74
     5
  7

 75
    16
147
1.0
 76
     0
 77
     2
 78
   300
148
0.0
149
0.0
100
AcDbLayout
  1
Layout1
 70
     1
 71
     1
 10
0.0
 20
0.0
 11
12.0
 21
9.0
 12
0.0
 22
0.0
 32
0.0
 14
1.000000000000000E+20
 24
1.000000000000000E+20
 34
1.000000000000000E+20
 15
-1.000000000000000E+20
 25
-1.000000000000000E+20
 35
-1.000000000000000E+20
146
0.0
 13
0.0
 23
0.0
 33
0.0
 16
1.0
 26
0.0
 36
0.0
 17
0.0
 27
1.0
 37
0.0
 76
     0
330
1B
  0
LAYOUT
  5
26
102
{ACAD_REACTORS
330
1A
102
}
330
1A
100
AcDbPlotSettings
  1

  2
\\KTXNTBDC\CASF2PN1
  4

  6

 40
0.0
 41
0.0
 42
0.0
 43
0.0
 44
0.0
 45
0.0
 46
0.0
 47
0.0
 48
0.0
 49
0.0
140
0.0
141
0.0
142
1.0
143
1.0
 70
   688
 72
     0
 73
     0
 74
     5
  7

 75
    16
147
1.0
 76
     0
 77
     2
 78
   300
148
0.0
149
0.0
100
AcDbLayout
  1
Layout2
 70
     1
 71
     2
 10
0.0
 20
0.0
 11
12.0
 21
9.0
 12
0.0
 22
0.0
 32
0.0
 14
0.0
 24
0.0
 34
0.0
 15
0.0
 25
0.0
 35
0.0
146
0.0
 13
0.0
 23
0.0
 33
0.0
 16
1.0
 26
0.0
 36
0.0
 17
0.0
 27
1.0
 37
0.0
 76
     0
330
23
  0
LAYOUT
  5
22
102
{ACAD_REACTORS
330
1A
102
}
330
1A
100
AcDbPlotSettings
  1

  2
\\KTXNTBDC\CASF2PN1
  4

  6

 40
0.0
 41
0.0
 42
0.0
 43
0.0
 44
0.0
 45
0.0
 46
0.0
 47
0.0
 48
0.0
 49
0.0
140
0.0
141
0.0
142
1.0
143
1.0
 70
  1712
 72
     0
 73
     0
 74
     0
  7

 75
     0
147
1.0
 76
     0
 77
     2
 78
   300
148
0.0
149
0.0
100
AcDbLayout
  1
Model
 70
     1
 71
     0
 10
0.0
 20
0.0
 11
12.0
 21
9.0
 12
0.0
 22
0.0
 32
0.0
 14
0.0
 24
0.0
 34
0.0
 15
0.0
 25
0.0
 35
0.0
146
0.0
 13
0.0
 23
0.0
 33
0.0
 16
1.0
 26
0.0
 36
0.0
 17
0.0
 27
1.0
 37
0.0
 76
     0
330
1F
  0
MATERIAL
  5
B3
102
{ACAD_XDICTIONARY
360
B4
102
}
102
{ACAD_REACTORS
330
AA
102
}
330
AA
100
AcDbMaterial
  1
ByBlock
 72
     0
 43
0.0208333333333333
 43
0.0
 43
0.0
 43
0.0
 43
0.0
 43
0.0208333333333333
 43
0.0
 43
0.0
 43
0.0
 43
0.0
 43
1.0
 43
0.0
 43
0.0
 43
0.0
 43
0.0
 43
1.0
 77
     0
 47
0.0208333333333333
 47
0.0
 47
0.0
 47
0.0
 47
0.0
 47
0.0208333333333333
 47
0.0
 47
0.0
 47
0.0
 47
0.0
 47
1.0
 47
0.0
 47
0.0
 47
0.0
 47
0.0
 47
1.0
171
     0
 49
0.0208333333333333
 49
0.0
 49
0.0
 49
0.0
 49
0.0
 49
0.0208333333333333
 49
0.0
 49
0.0
 49
0.0
 49
0.0
 49
1.0
 49
0.0
 49
0.0
 49
0.0
 49
0.0
 49
1.0
175
     0
142
0.0208333333333333
142
0.0
142
0.0
142
0.0
142
0.0
142
0.0208333333333333
142
0.0
142
0.0
142
0.0
142
0.0
142
1.0
142
0.0
142
0.0
142
0.0
142
0.0
142
1.0
179
     0
144
0.0208333333333333
144
0.0
144
0.0
144
0.0
144
0.0
144
0.0208333333333333
144
0.0
144
0.0
144
0.0
144
0.0
144
1.0
144
0.0
144
0.0
144
0.0
144
0.0
144
1.0
147
0.0208333333333333
147
0.0
147
0.0
147
0.0
147
0.0
147
0.0208333333333333
147
0.0
147
0.0
147
0.0
147
0.0
147
1.0
147
0.0
147
0.0
147
0.0
147
0.0
147
1.0
  0
MATERIAL
  5
AB
102
{ACAD_XDICTIONARY
360
AC
102
}
102
{ACAD_REACTORS
330
AA
102
}
330
AA
100
AcDbMaterial
  1
ByLayer
 72
     0
 43
0.0208333333333333
 43
0.0
 43
0.0
 43
0.0
 43
0.0
 43
0.0208333333333333
 43
0.0
 43
0.0
 43
0.0
 43
0.0
 43
1.0
 43
0.0
 43
0.0
 43
0.0
 43
0.0
 43
1.0
 77
     0
 47
0.0208333333333333
 47
0.0
 47
0.0
 47
0.0
 47
0.0
 47
0.0208333333333333
 47
0.0
 47
0.0
 47
0.0
 47
0.0
 47
1.0
 47
0.0
 47
0.0
 47
0.0
 47
0.0
 47
1.0
171
     0
 49
0.0208333333333333
 49
0.0
 49
0.0
 49
0.0
 49
0.0
 49
0.0208333333333333
 49
0.0
 49
0.0
 49
0.0
 49
0.0
 49
1.0
 49
0.0
 49
0.0
 49
0.0
 49
0.0
 49
1.0
175
     0
142
0.0208333333333333
142
0.0
142
0.0
142
0.0
142
0.0
142
0.0208333333333333
142
0.0
142
0.0
142
0.0
142
0.0
142
1.0
142
0.0
142
0.0
142
0.0
142
0.0
142
1.0
179
     0
144
0.0208333333333333
144
0.0
144
0.0
144
0.0
144
0.0
144
0.0208333333333333
144
0.0
144
0.0
144
0.0
144
0.0
144
1.0
144
0.0
144
0.0
144
0.0
144
0.0
144
1.0
147
0.0208333333333333
147
0.0
147
0.0
147
0.0
147
0.0
147
0.0208333333333333
147
0.0
147
0.0
147
0.0
147
0.0
147
1.0
147
0.0
147
0.0
147
0.0
147
0.0
147
1.0
  0
MATERIAL
  5
BB
102
{ACAD_XDICTIONARY
360
BC
102
}
102
{ACAD_REACTORS
330
AA
102
}
330
AA
100
AcDbMaterial
  1
Global
 72
     0
 43
0.0208333333333333
 43
0.0
 43
0.0
 43
0.0
 43
0.0
 43
0.0208333333333333
 43
0.0
 43
0.0
 43
0.0
 43
0.0
 43
1.0
 43
0.0
 43
0.0
 43
0.0
 43
0.0
 43
1.0
 77
     0
 47
0.0208333333333333
 47
0.0
 47
0.0
 47
0.0
 47
0.0
 47
0.0208333333333333
 47
0.0
 47
0.0
 47
0.0
 47
0.0
 47
1.0
 47
0.0
 47
0.0
 47
0.0
 47
0.0
 47
1.0
171
     0
 49
0.0208333333333333
 49
0.0
 49
0.0
 49
0.0
 49
0.0
 49
0.0208333333333333
 49
0.0
 49
0.0
 49
0.0
 49
0.0
 49
1.0
 49
0.0
 49
0.0
 49
0.0
 49
0.0
 49
1.0
175
     0
142
0.0208333333333333
142
0.0
142
0.0
142
0.0
142
0.0
142
0.0208333333333333
142
0.0
142
0.0
142
0.0
142
0.0
142
1.0
142
0.0
142
0.0
142
0.0
142
0.0
142
1.0
179
     0
144
0.0208333333333333
144
0.0
144
0.0
144
0.0
144
0.0
144
0.0208333333333333
144
0.0
144
0.0
144
0.0
144
0.0
144
1.0
144
0.0
144
0.0
144
0.0
144
0.0
144
1.0
147
0.0208333333333333
147
0.0
147
0.0
147
0.0
147
0.0
147
0.0208333333333333
147
0.0
147
0.0
147
0.0
147
0.0
147
1.0
147
0.0
147
0.0
147
0.0
147
0.0
147
1.0
  0
MLEADERSTYLE
  5
F2
102
{ACAD_XDICTIONARY
360
19B
102
}
102
{ACAD_REACTORS
330
F1
102
}
330
F1
100
AcDbMLeaderStyle
179
     2
170
     2
171
     1
172
     0
 90
        2
 40
0.0
 41
0.0
173
     1
 91
-1056964608
340
14
 92
       -2
290
     1
 42
0.09
291
     1
 43
0.36
  3
Standard
 44
0.18
300

342
11
174
     1
178
     6
175
     1
176
     0
 93
-1056964608
 45
0.18
292
     0
297
     0
 46
0.18
 94
-1056964608
 47
1.0
 49
1.0
140
1.0
293
     1
141
0.0
294
     1
177
     0
142
1.0
295
     0
296
     0
143
0.125
271
     0
272
     9
273
     9
  0
MLINESTYLE
  5
18
102
{ACAD_REACTORS
330
17
102
}
330
17
100
AcDbMlineStyle
  2
STANDARD
 70
     0
  3

 62
   256
 51
90.0
 52
90.0
 71
     2
 49
0.5
 62
   256
  6
BYLAYER
 49
-0.5
 62
   256
  6
BYLAYER
  0
ACDBPLACEHOLDER
  5
2D
102
{ACAD_REACTORS
330
E
102
}
330
E
  0
ACDBPLACEHOLDER
  5
F
102
{ACAD_REACTORS
330
E
102
}
330
E
  0
SCALE
  5
E0
102
{ACAD_REACTORS
330
DF
102
}
330
DF
100
AcDbScale
 70
     0
300
1:1
140
1.0
141
1.0
290
     1
  0
SCALE
  5
E1
102
{ACAD_REACTORS
330
DF
102
}
330
DF
100
AcDbScale
 70
     0
300
1/128" = 1'-0"
140
0.0078125
141
12.0
290
     0
  0
SCALE
  5
E2
102
{ACAD_REACTORS
330
DF
102
}
330
DF
100
AcDbScale
 70
     0
300
1/64" = 1'-0"
140
0.015625
141
12.0
290
     0
  0
SCALE
  5
E3
102
{ACAD_REACTORS
330
DF
102
}
330
DF
100
AcDbScale
 70
     0
300
1/32" = 1'-0"
140
0.03125
141
12.0
290
     0
  0
SCALE
  5
E4
102
{ACAD_REACTORS
330
DF
102
}
330
DF
100
AcDbScale
 70
     0
300
1/16" = 1'-0"
140
0.0625
141
12.0
290
     0
  0
SCALE
  5
E5
102
{ACAD_REACTORS
330
DF
102
}
330
DF
100
AcDbScale
 70
     0
300
3/32" = 1'-0"
140
0.09375
141
12.0
290
     0
  0
SCALE
  5
E6
102
{ACAD_REACTORS
330
DF
102
}
330
DF
100
AcDbScale
 70
     0
300
1/8" = 1'-0"
140
0.125
141
12.0
290
     0
  0
SCALE
  5
E7
102
{ACAD_REACTORS
330
DF
102
}
330
DF
100
AcDbScale
 70
     0
300
3/16" = 1'-0"
140
0.1875
141
12.0
290
     0
  0
SCALE
  5
E8
102
{ACAD_REACTORS
330
DF
102
}
330
DF
100
AcDbScale
 70
     0
300
1/4" = 1'-0"
140
0.25
141
12.0
290
     0
  0
SCALE
  5
E9
102
{ACAD_REACTORS
330
DF
102
}
330
DF
100
AcDbScale
 70
     0
300
3/8" = 1'-0"
140
0.375
141
12.0
290
     0
  0
SCALE
  5
EA
102
{ACAD_REACTORS
330
DF
102
}
330
DF
100
AcDbScale
 70
     0
300
1/2" = 1'-0"
140
0.5
141
12.0
290
     0
  0
SCALE
  5
EB
102
{ACAD_REACTORS
330
DF
102
}
330
DF
100
AcDbScale
 70
     0
300
3/4" = 1'-0"
140
0.75
141
12.0
290
     0
  0
SCALE
  5
EC
102
{ACAD_REACTORS
330
DF
102
}
330
DF
100
AcDbScale
 70
     0
300
1" = 1'-0"
140
1.0
141
12.0
290
     0
  0
SCALE
  5
ED
102
{ACAD_REACTORS
330
DF
102
}
330
DF
100
AcDbScale
 70
     0
300
1-1/2" = 1'-0"
140
1.5
141
12.0
290
     0
  0
SCALE
  5
EE
102
{ACAD_REACTORS
330
DF
102
}
330
DF
100
AcDbScale
 70
     0
300
3" = 1'-0"
140
3.0
141
12.0
290
     0
  0
SCALE
  5
EF
102
{ACAD_REACTORS
330
DF
102
}
330
DF
100
AcDbScale
 70
     0
300
6" = 1'-0"
140
6.0
141
12.0
290
     0
  0
SCALE
  5
F0
102
{ACAD_REACTORS
330
DF
102
}
330
DF
100
AcDbScale
 70
     0
300
1'-0" = 1'-0"
140
12.0
141
12.0
290
     0
  0
ACDBSECTIONVIEWSTYLE
  5
F4
102
{ACAD_XDICTIONARY
360
19D
102
}
102
{ACAD_REACTORS
330
F3
102
}
330
F3
100
AcDbModelDocViewStyle
 70
     0
  3
Imperial24
290
     0
100
AcDbSectionViewStyle
 70
     0
 71
     0
 90
       78
 71
     1
340
11
 62
   256
 40
0.24
340
0
340
0
 62
   256
 40
0.24
300
I, O, Q, S, X, Z
 40
0.48
 90
        3
 40
0.18
 90
        1
 71
     2
340
16
 90
       25
 62
   256
340
16
 90
       50
 62
   256
 40
0.24
 40
0.0
 40
0.24
 71
     3
340
11
 62
   256
 40
0.24
 90
        1
 40
0.75
 90
        1
300
%<\AcVar ViewType \f "%tc1">% %<\AcVar ViewSectionStartId>%-%<\AcVar ViewSectionEndId>%\PSCALE %<\AcVar ViewScale \f "%sn">%
 71
     4
 62
   256
 62
   257
300
ANSI31
 40
1.0
 90
        0
290
     0
290
     0
 90
        6
 40
0.0
 40
1.570796326794896
 40
0.2617993877991494
 40
1.308996938995747
 40
-0.2617993877991494
 40
1.832595714594046
  0
TABLESTYLE
  5
DE
102
{ACAD_XDICTIONARY
360
168
102
}
102
{ACAD_REACTORS
330
DD
102
}
330
DD
100
AcDbTableStyle
280
     0
  3
Standard
 70
     0
 71
     0
 40
0.06
 41
0.06
280
     0
281
     0
  7
Standard
140
0.18
170
     2
 62
     0
 63
     7
283
     0
 90
      512
 91
        0
  1

274
    -2
284
     1
 64
     0
275
    -2
285
     1
 65
     0
276
    -2
286
     1
 66
     0
277
    -2
287
     1
 67
     0
278
    -2
288
     1
 68
     0
279
    -2
289
     1
 69
     0
  7
Standard
140
0.25
170
     5
 62
     0
 63
     7
283
     0
 90
      512
 91
        0
  1

274
    -2
284
     1
 64
     0
275
    -2
285
     1
 65
     0
276
    -2
286
     1
 66
     0
277
    -2
287
     1
 67
     0
278
    -2
288
     1
 68
     0
279
    -2
289
     1
 69
     0
  7
Standard
140
0.18
170
     5
 62
     0
 63
     7
283
     0
 90
      512
 91
        0
  1

274
    -2
284
     1
 64
     0
275
    -2
285
     1
 65
     0
276
    -2
286
     1
 66
     0
277
    -2
287
     1
 67
     0
278
    -2
288
     1
 68
     0
279
    -2
289
     1
 69
     0
  0
VISUALSTYLE
  5
C9
102
{ACAD_XDICTIONARY
360
175
102
}
102
{ACAD_REACTORS
330
C3
102
}
330
C3
100
AcDbVisualStyle
  2
2dWireframe
 70
     4
177
     2
291
     0
 71
     0
176
     1
 72
     2
176
     1
 73
     0
176
     1
 90
        0
176
     1
 40
0.6
176
     1
 41
30.0
176
     1
 63
     7
421
 16777215
176
     1
 74
     1
176
     1
 91
        4
176
     1
 64
     7
176
     1
 65
   257
176
     1
 75
     1
176
     1
175
     1
176
     1
 42
1.0
176
     1
 92
        0
176
     1
 66
   257
176
     1
 43
1.0
176
     1
 76
     1
176
     1
 77
     6
176
     1
 78
     2
176
     1
 67
     7
176
     1
 79
     5
176
     1
170
     0
176
     1
171
     0
176
     1
290
     0
176
     1
 93
        1
176
     1
 44
0.0
176
     1
173
     0
176
     1
1001
ACAD
1000
AcDbSavedByObjectVersion
1070
     0
  0
VISUALSTYLE
  5
C8
102
{ACAD_XDICTIONARY
360
173
102
}
102
{ACAD_REACTORS
330
C3
102
}
330
C3
100
AcDbVisualStyle
  2
Basic
 70
     7
177
     2
291
     1
 71
     1
176
     1
 72
     0
176
     1
 73
     1
176
     1
 90
        0
176
     1
 40
0.6
176
     1
 41
30.0
176
     1
 63
     7
421
 16777215
176
     1
 74
     0
176
     1
 91
        4
176
     1
 64
     7
176
     1
 65
   257
176
     1
 75
     1
176
     1
175
     1
176
     1
 42
1.0
176
     1
 92
        8
176
     1
 66
     7
176
     1
 43
1.0
176
     1
 76
     1
176
     1
 77
     6
176
     1
 78
     2
176
     1
 67
     7
176
     1
 79
     5
176
     1
170
     0
176
     1
171
     0
176
     1
290
     0
176
     1
 93
        1
176
     1
 44
0.0
176
     1
173
     0
176
     1
1001
ACAD
1000
AcDbSavedByObjectVersion
1070
     0
  0
VISUALSTYLE
  5
CF
102
{ACAD_XDICTIONARY
360
181
102
}
102
{ACAD_REACTORS
330
C3
102
}
330
C3
100
AcDbVisualStyle
  2
Brighten
 70
    12
177
     2
291
     1
 71
     2
176
     1
 72
     2
176
     1
 73
     0
176
     1
 90
        0
176
     1
 40
0.6
176
     1
 41
30.0
176
     1
 63
     7
421
 16777215
176
     1
 74
     1
176
     1
 91
        4
176
     1
 64
     7
176
     1
 65
   257
176
     1
 75
     1
176
     1
175
     1
176
     1
 42
1.0
176
     1
 92
        8
176
     1
 66
     7
176
     1
 43
1.0
176
     1
 76
     1
176
     1
 77
     6
176
     1
 78
     2
176
     1
 67
     7
176
     1
 79
     5
176
     1
170
     0
176
     1
171
     0
176
     1
290
     0
176
     1
 93
        1
176
     1
 44
50.0
176
     1
173
     0
176
     1
1001
ACAD
1000
AcDbSavedByObjectVersion
1070
     0
  0
VISUALSTYLE
  5
D3
102
{ACAD_XDICTIONARY
360
189
102
}
102
{ACAD_REACTORS
330
C3
102
}
330
C3
100
AcDbVisualStyle
  2
ColorChange
 70
    16
177
     2
291
     1
 71
     2
176
     1
 72
     2
176
     1
 73
     3
176
     1
 90
        0
176
     1
 40
0.6
176
     1
 41
30.0
176
     1
 63
     8
421
  8421504
176
     1
 74
     1
176
     1
 91
        4
176
     1
 64
     7
176
     1
 65
   257
176
     1
 75
     1
176
     1
175
     1
176
     1
 42
1.0
176
     1
 92
        8
176
     1
 66
     8
424
  8421504
176
     1
 43
1.0
176
     1
 76
     1
176
     1
 77
     6
176
     1
 78
     2
176
     1
 67
     7
176
     1
 79
     5
176
     1
170
     0
176
     1
171
     0
176
     1
290
     0
176
     1
 93
        1
176
     1
 44
0.0
176
     1
173
     0
176
     1
1001
ACAD
1000
AcDbSavedByObjectVersion
1070
     0
  0
VISUALSTYLE
  5
CC
102
{ACAD_XDICTIONARY
360
17B
102
}
102
{ACAD_REACTORS
330
C3
102
}
330
C3
100
AcDbVisualStyle
  2
Conceptual
 70
     9
177
     2
291
     0
 71
     3
176
     1
 72
     2
176
     1
 73
     0
176
     1
 90
        0
176
     1
 40
0.6
176
     1
 41
30.0
176
     1
 63
     7
421
 16777215
176
     1
 74
     2
176
     1
 91
        2
176
     1
 64
     7
176
     1
 65
   257
176
     1
 75
     1
176
     1
175
     1
176
     1
 42
179.0
176
     1
 92
        8
176
     1
 66
     7
176
     1
 43
1.0
176
     1
 76
     1
176
     1
 77
     6
176
     1
 78
     2
176
     1
 67
     7
176
     1
 79
     3
176
     1
170
     0
176
     1
171
     0
176
     1
290
     0
176
     1
 93
        1
176
     1
 44
0.0
176
     1
173
     0
176
     1
1001
ACAD
1000
AcDbSavedByObjectVersion
1070
     0
  0
VISUALSTYLE
  5
CE
102
{ACAD_XDICTIONARY
360
17F
102
}
102
{ACAD_REACTORS
330
C3
102
}
330
C3
100
AcDbVisualStyle
  2
Dim
 70
    11
177
     2
291
     1
 71
     2
176
     1
 72
     2
176
     1
 73
     0
176
     1
 90
        0
176
     1
 40
0.6
176
     1
 41
30.0
176
     1
 63
     7
421
 16777215
176
     1
 74
     1
176
     1
 91
        4
176
     1
 64
     7
176
     1
 65
   257
176
     1
 75
     1
176
     1
175
     1
176
     1
 42
1.0
176
     1
 92
        8
176
     1
 66
     7
176
     1
 43
1.0
176
     1
 76
     1
176
     1
 77
     6
176
     1
 78
     2
176
     1
 67
     7
176
     1
 79
     5
176
     1
170
     0
176
     1
171
     0
176
     1
290
     0
176
     1
 93
        1
176
     1
 44
-50.0
176
     1
173
     0
176
     1
1001
ACAD
1000
AcDbSavedByObjectVersion
1070
     0
  0
VISUALSTYLE
  5
DB
102
{ACAD_XDICTIONARY
360
199
102
}
102
{ACAD_REACTORS
330
C3
102
}
330
C3
100
AcDbVisualStyle
  2
EdgeColorOff
 70
    22
177
     2
291
     1
 71
     2
176
     0
 72
     2
176
     0
 73
     0
176
     0
 90
        0
176
     0
 40
0.6
176
     0
 41
30.0
176
     0
 63
     7
421
 16777215
176
     0
 74
     1
176
     0
 91
        4
176
     0
 64
     7
176
     0
 65
   257
176
     0
 75
     1
176
     0
175
     1
176
     0
 42
1.0
176
     0
 92
        8
176
     2
 66
     7
176
     0
 43
1.0
176
     0
 76
     1
176
     0
 77
     6
176
     0
 78
     2
176
     0
 67
     7
176
     0
 79
     5
176
     0
170
     0
176
     0
171
     0
176
     0
290
     0
176
     0
 93
        1
176
     0
 44
0.0
176
     0
173
     0
176
     0
1001
ACAD
1000
AcDbSavedByObjectVersion
1070
     0
  0
VISUALSTYLE
  5
D2
102
{ACAD_XDICTIONARY
360
187
102
}
102
{ACAD_REACTORS
330
C3
102
}
330
C3
100
AcDbVisualStyle
  2
Facepattern
 70
    15
177
     2
291
     1
 71
     2
176
     1
 72
     2
176
     1
 73
     0
176
     1
 90
        0
176
     1
 40
0.6
176
     1
 41
30.0
176
     1
 63
     7
421
 16777215
176
     1
 74
     1
176
     1
 91
        4
176
     1
 64
     7
176
     1
 65
   257
176
     1
 75
     1
176
     1
175
     1
176
     1
 42
1.0
176
     1
 92
        8
176
     1
 66
     7
176
     1
 43
1.0
176
     1
 76
     1
176
     1
 77
     6
176
     1
 78
     2
176
     1
 67
     7
176
     1
 79
     5
176
     1
170
     0
176
     1
171
     0
176
     1
290
     0
176
     1
 93
        1
176
     1
 44
0.0
176
     1
173
     0
176
     1
1001
ACAD
1000
AcDbSavedByObjectVersion
1070
     0
  0
VISUALSTYLE
  5
C4
102
{ACAD_XDICTIONARY
360
16B
102
}
102
{ACAD_REACTORS
330
C3
102
}
330
C3
100
AcDbVisualStyle
  2
Flat
 70
     0
177
     2
291
     1
 71
     2
176
     1
 72
     1
176
     1
 73
     1
176
     1
 90
        2
176
     1
 40
0.6
176
     1
 41
30.0
176
     1
 63
     7
421
 16777215
176
     1
 74
     0
176
     1
 91
        0
176
     1
 64
     7
176
     1
 65
   257
176
     1
 75
     1
176
     1
175
     1
176
     1
 42
1.0
176
     1
 92
        8
176
     1
 66
     7
176
     1
 43
1.0
176
     1
 76
     1
176
     1
 77
     6
176
     1
 78
     2
176
     1
 67
     7
176
     1
 79
     5
176
     1
170
     0
176
     1
171
     0
176
     1
290
     0
176
     1
 93
       13
176
     1
 44
0.0
176
     1
173
     0
176
     1
1001
ACAD
1000
AcDbSavedByObjectVersion
1070
     0
  0
VISUALSTYLE
  5
C5
102
{ACAD_XDICTIONARY
360
16D
102
}
102
{ACAD_REACTORS
330
C3
102
}
330
C3
100
AcDbVisualStyle
  2
FlatWithEdges
 70
     1
177
     2
291
     1
 71
     2
176
     1
 72
     1
176
     1
 73
     1
176
     1
 90
        2
176
     1
 40
0.6
176
     1
 41
30.0
176
     1
 63
     7
421
 16777215
176
     1
 74
     1
176
     1
 91
        0
176
     1
 64
     7
176
     1
 65
   257
176
     1
 75
     1
176
     1
175
     1
176
     1
 42
1.0
176
     1
 92
        0
176
     1
 66
   257
176
     1
 43
1.0
176
     1
 76
     1
176
     1
 77
     6
176
     1
 78
     2
176
     1
 67
     7
176
     1
 79
     5
176
     1
170
     0
176
     1
171
     0
176
     1
290
     0
176
     1
 93
       13
176
     1
 44
0.0
176
     1
173
     0
176
     1
1001
ACAD
1000
AcDbSavedByObjectVersion
1070
     0
  0
VISUALSTYLE
  5
C6
102
{ACAD_XDICTIONARY
360
16F
102
}
102
{ACAD_REACTORS
330
C3
102
}
330
C3
100
AcDbVisualStyle
  2
Gouraud
 70
     2
177
     2
291
     1
 71
     2
176
     1
 72
     2
176
     1
 73
     1
176
     1
 90
        2
176
     1
 40
0.6
176
     1
 41
30.0
176
     1
 63
     7
421
 16777215
176
     1
 74
     0
176
     1
 91
        0
176
     1
 64
     7
176
     1
 65
   257
176
     1
 75
     1
176
     1
175
     1
176
     1
 42
1.0
176
     1
 92
        0
176
     1
 66
     7
176
     1
 43
1.0
176
     1
 76
     1
176
     1
 77
     6
176
     1
 78
     2
176
     1
 67
     7
176
     1
 79
     5
176
     1
170
     0
176
     1
171
     0
176
     1
290
     0
176
     1
 93
       13
176
     1
 44
0.0
176
     1
173
     0
176
     1
1001
ACAD
1000
AcDbSavedByObjectVersion
1070
     0
  0
VISUALSTYLE
  5
C7
102
{ACAD_XDICTIONARY
360
171
102
}
102
{ACAD_REACTORS
330
C3
102
}
330
C3
100
AcDbVisualStyle
  2
GouraudWithEdges
 70
     3
177
     2
291
     1
 71
     2
176
     1
 72
     2
176
     1
 73
     1
176
     1
 90
        2
176
     1
 40
0.6
176
     1
 41
30.0
176
     1
 63
     7
421
 16777215
176
     1
 74
     1
176
     1
 91
        0
176
     1
 64
     7
176
     1
 65
   257
176
     1
 75
     1
176
     1
175
     1
176
     1
 42
1.0
176
     1
 92
        0
176
     1
 66
   257
176
     1
 43
1.0
176
     1
 76
     1
176
     1
 77
     6
176
     1
 78
     2
176
     1
 67
     7
176
     1
 79
     5
176
     1
170
     0
176
     1
171
     0
176
     1
290
     0
176
     1
 93
       13
176
     1
 44
0.0
176
     1
173
     0
176
     1
1001
ACAD
1000
AcDbSavedByObjectVersion
1070
     0
  0
VISUALSTYLE
  5
CB
102
{ACAD_XDICTIONARY
360
179
102
}
102
{ACAD_REACTORS
330
C3
102
}
330
C3
100
AcDbVisualStyle
  2
Hidden
 70
     6
177
     2
291
     0
 71
     1
176
     1
 72
     2
176
     1
 73
     2
176
     1
 90
        0
176
     1
 40
0.6
176
     1
 41
30.0
176
     1
 63
     7
421
 16777215
176
     1
 74
     2
176
     1
 91
        2
176
     1
 64
     7
176
     1
 65
   257
176
     1
 75
     2
176
     1
175
     1
176
     1
 42
40.0
176
     1
 92
        0
176
     1
 66
   257
176
     1
 43
1.0
176
     1
 76
     1
176
     1
 77
     6
176
     1
 78
     2
176
     1
 67
     7
176
     1
 79
     3
176
     1
170
     0
176
     1
171
     0
176
     1
290
     0
176
     1
 93
        1
176
     1
 44
0.0
176
     1
173
     0
176
     1
1001
ACAD
1000
AcDbSavedByObjectVersion
1070
     0
  0
VISUALSTYLE
  5
D9
102
{ACAD_XDICTIONARY
360
195
102
}
102
{ACAD_REACTORS
330
C3
102
}
330
C3
100
AcDbVisualStyle
  2
JitterOff
 70
    20
177
     2
291
     1
 71
     2
176
     0
 72
     2
176
     0
 73
     0
176
     0
 90
        0
176
     0
 40
0.6
176
     0
 41
30.0
176
     0
 63
     7
421
 16777215
176
     0
 74
     1
176
     0
 91
        4
176
     0
 64
     7
176
     0
 65
   257
176
     0
 75
     1
176
     0
175
     1
176
     0
 42
1.0
176
     0
 92
       10
176
     2
 66
     7
176
     0
 43
1.0
176
     0
 76
     1
176
     0
 77
     6
176
     0
 78
     2
176
     0
 67
     7
176
     0
 79
     5
176
     0
170
     0
176
     0
171
     0
176
     0
290
     0
176
     0
 93
        1
176
     0
 44
0.0
176
     0
173
     0
176
     0
1001
ACAD
1000
AcDbSavedByObjectVersion
1070
     0
  0
VISUALSTYLE
  5
D1
102
{ACAD_XDICTIONARY
360
185
102
}
102
{ACAD_REACTORS
330
C3
102
}
330
C3
100
AcDbVisualStyle
  2
Linepattern
 70
    14
177
     2
291
     1
 71
     2
176
     1
 72
     2
176
     1
 73
     0
176
     1
 90
        0
176
     1
 40
0.6
176
     1
 41
30.0
176
     1
 63
     7
421
 16777215
176
     1
 74
     1
176
     1
 91
        4
176
     1
 64
     7
176
     1
 65
   257
176
     1
 75
     7
176
     1
175
     7
176
     1
 42
1.0
176
     1
 92
        8
176
     1
 66
     7
176
     1
 43
1.0
176
     1
 76
     1
176
     1
 77
     6
176
     1
 78
     2
176
     1
 67
     7
176
     1
 79
     5
176
     1
170
     0
176
     1
171
     0
176
     1
290
     0
176
     1
 93
        1
176
     1
 44
0.0
176
     1
173
     0
176
     1
1001
ACAD
1000
AcDbSavedByObjectVersion
1070
     0
  0
VISUALSTYLE
  5
DA
102
{ACAD_XDICTIONARY
360
197
102
}
102
{ACAD_REACTORS
330
C3
102
}
330
C3
100
AcDbVisualStyle
  2
OverhangOff
 70
    21
177
     2
291
     1
 71
     2
176
     0
 72
     2
176
     0
 73
     0
176
     0
 90
        0
176
     0
 40
0.6
176
     0
 41
30.0
176
     0
 63
     7
421
 16777215
176
     0
 74
     1
176
     0
 91
        4
176
     0
 64
     7
176
     0
 65
   257
176
     0
 75
     1
176
     0
175
     1
176
     0
 42
1.0
176
     0
 92
        9
176
     2
 66
     7
176
     0
 43
1.0
176
     0
 76
     1
176
     0
 77
     6
176
     0
 78
     2
176
     0
 67
     7
176
     0
 79
     5
176
     0
170
     0
176
     0
171
     0
176
     0
290
     0
176
     0
 93
        1
176
     0
 44
0.0
176
     0
173
     0
176
     0
1001
ACAD
1000
AcDbSavedByObjectVersion
1070
     0
  0
VISUALSTYLE
  5
CD
102
{ACAD_XDICTIONARY
360
17D
102
}
102
{ACAD_REACTORS
330
C3
102
}
330
C3
100
AcDbVisualStyle
  2
Realistic
 70
     8
177
     2
291
     0
 71
     2
176
     1
 72
     3
176
     1
 73
     0
176
     1
 90
        2
176
     1
 40
0.6
176
     1
 41
30.0
176
     1
 63
     7
421
 16777215
176
     1
 74
     0
176
     1
 91
        0
176
     1
 64
     7
176
     1
 65
   257
176
     1
 75
     1
176
     1
175
     1
176
     1
 42
1.0
176
     1
 92
        8
176
     1
 66
   257
176
     1
 43
1.0
176
     1
 76
     1
176
     1
 77
     6
176
     1
 78
     2
176
     1
 67
     7
176
     1
 79
     3
176
     1
170
     0
176
     1
171
     0
176
     1
290
     0
176
     1
 93
       13
176
     1
 44
0.0
176
     1
173
     0
176
     1
1001
ACAD
1000
AcDbSavedByObjectVersion
1070
     0
  0
VISUALSTYLE
  5
D8
102
{ACAD_XDICTIONARY
360
193
102
}
102
{ACAD_REACTORS
330
C3
102
}
330
C3
100
AcDbVisualStyle
  2
Shaded
 70
    27
177
     2
291
     0
 71
     2
176
     1
 72
     2
176
     1
 73
     1
176
     1
 90
        2
176
     1
 40
0.6
176
     1
 41
30.0
176
     1
 63
     7
421
 16777215
176
     1
 74
     0
176
     1
 91
        4
176
     1
 64
     7
176
     1
 65
   257
176
     1
 75
     1
176
     1
175
     1
176
     1
 42
1.0
176
     1
 92
        8
176
     1
 66
   257
176
     1
 43
1.0
176
     1
 76
     1
176
     1
 77
     6
176
     1
 78
     2
176
     1
 67
     8
425
  7895160
176
     1
 79
     3
176
     1
170
     0
176
     1
171
     0
176
     1
290
     0
176
     1
 93
        5
176
     1
 44
0.0
176
     1
173
     0
176
     1
1001
ACAD
1000
AcDbSavedByObjectVersion
1070
     0
  0
VISUALSTYLE
  5
D7
102
{ACAD_XDICTIONARY
360
191
102
}
102
{ACAD_REACTORS
330
C3
102
}
330
C3
100
AcDbVisualStyle
  2
Shaded with edges
 70
    26
177
     2
291
     0
 71
     2
176
     1
 72
     2
176
     1
 73
     1
176
     1
 90
        2
176
     1
 40
0.6
176
     1
 41
30.0
176
     1
 63
     7
421
 16777215
176
     1
 74
     1
176
     1
 91
       10
176
     1
 64
     7
176
     1
 65
   257
176
     1
 75
     2
176
     1
175
     1
176
     1
 42
1.0
176
     1
 92
        8
176
     1
 66
   257
176
     1
 43
1.0
176
     1
 76
     1
176
     1
 77
     6
176
     1
 78
     2
176
     1
 67
     7
176
     1
 79
     3
176
     1
170
     0
176
     1
171
     0
176
     1
290
     0
176
     1
 93
        5
176
     1
 44
0.0
176
     1
173
     0
176
     1
1001
ACAD
1000
AcDbSavedByObjectVersion
1070
     0
  0
VISUALSTYLE
  5
D4
102
{ACAD_XDICTIONARY
360
18B
102
}
102
{ACAD_REACTORS
330
C3
102
}
330
C3
100
AcDbVisualStyle
  2
Shades of Gray
 70
    23
177
     2
291
     0
 71
     2
176
     1
 72
     2
176
     1
 73
     3
176
     1
 90
        0
176
     1
 40
0.6
176
     1
 41
30.0
176
     1
 63
     7
421
 16777215
176
     1
 74
     2
176
     1
 91
        2
176
     1
 64
     7
176
     1
 65
     7
176
     1
 75
     1
176
     1
175
     1
176
     1
 42
40.0
176
     1
 92
        8
176
     1
 66
     7
176
     1
 43
1.0
176
     1
 76
     1
176
     1
 77
     6
176
     1
 78
     2
176
     1
 67
     7
176
     1
 79
     3
176
     1
170
     0
176
     1
171
     0
176
     1
290
     0
176
     1
 93
        1
176
     1
 44
0.0
176
     1
173
     0
176
     1
1001
ACAD
1000
AcDbSavedByObjectVersion
1070
     0
  0
VISUALSTYLE
  5
D5
102
{ACAD_XDICTIONARY
360
18D
102
}
102
{ACAD_REACTORS
330
C3
102
}
330
C3
100
AcDbVisualStyle
  2
Sketchy
 70
    24
177
     2
291
     0
 71
     1
176
     1
 72
     2
176
     1
 73
     2
176
     1
 90
        0
176
     1
 40
0.6
176
     1
 41
30.0
176
     1
 63
     7
421
 16777215
176
     1
 74
     2
176
     1
 91
        2
176
     1
 64
     7
176
     1
 65
     7
176
     1
 75
     1
176
     1
175
     1
176
     1
 42
40.0
176
     1
 92
       11
176
     1
 66
     7
176
     1
 43
1.0
176
     1
 76
     1
176
     1
 77
     6
176
     1
 78
     2
176
     1
 67
     7
176
     1
 79
     6
176
     1
170
     0
176
     1
171
     0
176
     1
290
     0
176
     1
 93
        1
176
     1
 44
0.0
176
     1
173
     0
176
     1
1001
ACAD
1000
AcDbSavedByObjectVersion
1070
     0
  0
VISUALSTYLE
  5
D0
102
{ACAD_XDICTIONARY
360
183
102
}
102
{ACAD_REACTORS
330
C3
102
}
330
C3
100
AcDbVisualStyle
  2
Thicken
 70
    13
177
     2
291
     1
 71
     2
176
     1
 72
     2
176
     1
 73
     0
176
     1
 90
        0
176
     1
 40
0.6
176
     1
 41
30.0
176
     1
 63
     7
421
 16777215
176
     1
 74
     1
176
     1
 91
        4
176
     1
 64
     7
176
     1
 65
   257
176
     1
 75
     1
176
     1
175
     1
176
     1
 42
1.0
176
     1
 92
       12
176
     1
 66
     7
176
     1
 43
1.0
176
     1
 76
     1
176
     1
 77
     6
176
     1
 78
     2
176
     1
 67
     7
176
     1
 79
     5
176
     1
170
     0
176
     1
171
     0
176
     1
290
     0
176
     1
 93
        1
176
     1
 44
0.0
176
     1
173
     0
176
     1
1001
ACAD
1000
AcDbSavedByObjectVersion
1070
     0
  0
VISUALSTYLE
  5
CA
102
{ACAD_XDICTIONARY
360
177
102
}
102
{ACAD_REACTORS
330
C3
102
}
330
C3
100
AcDbVisualStyle
  2
Wireframe
 70
     5
177
     2
291
     0
 71
     0
176
     1
 72
     2
176
     1
 73
     0
176
     1
 90
        0
176
     1
 40
0.6
176
     1
 41
30.0
176
     1
 63
     7
421
 16777215
176
     1
 74
     1
176
     1
 91
        4
176
     1
 64
     7
176
     1
 65
   257
176
     1
 75
     1
176
     1
175
     1
176
     1
 42
1.0
176
     1
 92
        0
176
     1
 66
   257
176
     1
 43
1.0
176
     1
 76
     1
176
     1
 77
     6
176
     1
 78
     2
176
     1
 67
     7
176
     1
 79
     3
176
     1
170
     0
176
     1
171
     0
176
     1
290
     0
176
     1
 93
        1
176
     1
 44
0.0
176
     1
173
     0
176
     1
1001
ACAD
1000
AcDbSavedByObjectVersion
1070
     0
  0
VISUALSTYLE
  5
D6
102
{ACAD_XDICTIONARY
360
18F
102
}
102
{ACAD_REACTORS
330
C3
102
}
330
C3
100
AcDbVisualStyle
  2
X-Ray
 70
    25
177
     2
291
     0
 71
     2
176
     1
 72
     2
176
     1
 73
     1
176
     1
 90
        1
176
     1
 40
0.5
176
     1
 41
30.0
176
     1
 63
     7
421
 16777215
176
     1
 74
     1
176
     1
 91
        0
176
     1
 64
     7
176
     1
 65
   257
176
     1
 75
     1
176
     1
175
     1
176
     1
 42
1.0
176
     1
 92
        8
176
     1
 66
     7
176
     1
 43
1.0
176
     1
 76
     1
176
     1
 77
     6
176
     1
 78
     2
176
     1
 67
     7
176
     1
 79
     3
176
     1
170
     0
176
     1
171
     0
176
     1
290
     0
176
     1
 93
       13
176
     1
 44
0.0
176
     1
173
     0
176
     1
1001
ACAD
1000
AcDbSavedByObjectVersion
1070
     0
  0
DICTIONARYVAR
  5
164
102
{ACAD_REACTORS
330
15E
102
}
330
15E
100
DictionaryVariables
280
     0
  1
1:1
  0
DICTIONARYVAR
  5
160
102
{ACAD_REACTORS
330
15E
102
}
330
15E
100
DictionaryVariables
280
     0
  1
STANDARD
  0
DICTIONARYVAR
  5
15F
102
{ACAD_REACTORS
330
15E
102
}
330
15E
100
DictionaryVariables
280
     0
  1
STANDARD
  0
DICTIONARYVAR
  5
161
102
{ACAD_REACTORS
330
15E
102
}
330
15E
100
DictionaryVariables
280
     0
  1
Imperial24
  0
DICTIONARYVAR
  5
162
102
{ACAD_REACTORS
330
15E
102
}
330
15E
100
DictionaryVariables
280
     0
  1
Imperial24
  0
DICTIONARYVAR
  5
166
102
{ACAD_REACTORS
330
15E
102
}
330
15E
100
DictionaryVariables
280
     0
  1
1
  0
DICTIONARYVAR
  5
167
102
{ACAD_REACTORS
330
15E
102
}
330
15E
100
DictionaryVariables
280
     0
  1
15
  0
DICTIONARYVAR
  5
165
102
{ACAD_REACTORS
330
15E
102
}
330
15E
100
DictionaryVariables
280
     0
  1
0
  0
DICTIONARYVAR
  5
163
102
{ACAD_REACTORS
330
15E
102
}
330
15E
100
DictionaryVariables
280
     0
  1
0
  0
DICTIONARY
  5
19F
330
F6
100
AcDbDictionary
280
     1
281
     1
  3
ACAD_XREC_ROUNDTRIP
360
1A0
  0
DICTIONARY
  5
B4
330
B3
100
AcDbDictionary
280
     1
281
     1
  3
BUMPTILE
360
B6
  3
DIFFUSETILE
360
B5
  3
OPACITYTILE
360
B9
  3
REFLECTIONTILE
360
B8
  3
REFRACTIONTILE
360
BA
  3
SPECULARTILE
360
B7
  0
DICTIONARY
  5
AC
330
AB
100
AcDbDictionary
280
     1
281
     1
  3
BUMPTILE
360
AE
  3
DIFFUSETILE
360
AD
  3
OPACITYTILE
360
B1
  3
REFLECTIONTILE
360
B0
  3
REFRACTIONTILE
360
B2
  3
SPECULARTILE
360
AF
  0
DICTIONARY
  5
BC
330
BB
100
AcDbDictionary
280
     1
281
     1
  3
BUMPTILE
360
BE
  3
DIFFUSETILE
360
BD
  3
OPACITYTILE
360
C1
  3
REFLECTIONTILE
360
C0
  3
REFRACTIONTILE
360
C2
  3
SPECULARTILE
360
BF
  0
DICTIONARY
  5
19B
330
F2
100
AcDbDictionary
280
     1
281
     1
  3
ACAD_XREC_ROUNDTRIP
360
19C
  0
DICTIONARY
  5
19D
330
F4
100
AcDbDictionary
280
     1
281
     1
  3
ACAD_XREC_ROUNDTRIP
360
19E
  0
DICTIONARY
  5
168
330
DE
100
AcDbDictionary
280
     1
281
     1
  3
ACAD_ROUNDTRIP_2008_TABLESTYLE_CELLSTYLEMAP
360
169
  0
DICTIONARY
  5
175
330
C9
100
AcDbDictionary
280
     1
281
     1
  3
ACAD_XREC_ROUNDTRIP
360
176
  0
DICTIONARY
  5
173
330
C8
100
AcDbDictionary
280
     1
281
     1
  3
ACAD_XREC_ROUNDTRIP
360
174
  0
DICTIONARY
  5
181
330
CF
100
AcDbDictionary
280
     1
281
     1
  3
ACAD_XREC_ROUNDTRIP
360
182
  0
DICTIONARY
  5
189
330
D3
100
AcDbDictionary
280
     1
281
     1
  3
ACAD_XREC_ROUNDTRIP
360
18A
  0
DICTIONARY
  5
17B
330
CC
100
AcDbDictionary
280
     1
281
     1
  3
ACAD_XREC_ROUNDTRIP
360
17C
  0
DICTIONARY
  5
17F
330
CE
100
AcDbDictionary
280
     1
281
     1
  3
ACAD_XREC_ROUNDTRIP
360
180
  0
DICTIONARY
  5
199
330
DB
100
AcDbDictionary
280
     1
281
     1
  3
ACAD_XREC_ROUNDTRIP
360
19A
  0
DICTIONARY
  5
187
330
D2
100
AcDbDictionary
280
     1
281
     1
  3
ACAD_XREC_ROUNDTRIP
360
188
  0
DICTIONARY
  5
16B
330
C4
100
AcDbDictionary
280
     1
281
     1
  3
ACAD_XREC_ROUNDTRIP
360
16C
  0
DICTIONARY
  5
16D
330
C5
100
AcDbDictionary
280
     1
281
     1
  3
ACAD_XREC_ROUNDTRIP
360
16E
  0
DICTIONARY
  5
16F
330
C6
100
AcDbDictionary
280
     1
281
     1
  3
ACAD_XREC_ROUNDTRIP
360
170
  0
DICTIONARY
  5
171
330
C7
100
AcDbDictionary
280
     1
281
     1
  3
ACAD_XREC_ROUNDTRIP
360
172
  0
DICTIONARY
  5
179
330
CB
100
AcDbDictionary
280
     1
281
     1
  3
ACAD_XREC_ROUNDTRIP
360
17A
  0
DICTIONARY
  5
195
330
D9
100
AcDbDictionary
280
     1
281
     1
  3
ACAD_XREC_ROUNDTRIP
360
196
  0
DICTIONARY
  5
185
330
D1
100
AcDbDictionary
280
     1
281
     1
  3
ACAD_XREC_ROUNDTRIP
360
186
  0
DICTIONARY
  5
197
330
DA
100
AcDbDictionary
280
     1
281
     1
  3
ACAD_XREC_ROUNDTRIP
360
198
  0
DICTIONARY
  5
17D
330
CD
100
AcDbDictionary
280
     1
281
     1
  3
ACAD_XREC_ROUNDTRIP
360
17E
  0
DICTIONARY
  5
193
330
D8
100
AcDbDictionary
280
     1
281
     1
  3
ACAD_XREC_ROUNDTRIP
360
194
  0
DICTIONARY
  5
191
330
D7
100
AcDbDictionary
280
     1
281
     1
  3
ACAD_XREC_ROUNDTRIP
360
192
  0
DICTIONARY
  5
18B
330
D4
100
AcDbDictionary
280
     1
281
     1
  3
ACAD_XREC_ROUNDTRIP
360
18C
  0
DICTIONARY
  5
18D
330
D5
100
AcDbDictionary
280
     1
281
     1
  3
ACAD_XREC_ROUNDTRIP
360
18E
  0
DICTIONARY
  5
183
330
D0
100
AcDbDictionary
280
     1
281
     1
  3
ACAD_XREC_ROUNDTRIP
360
184
  0
DICTIONARY
  5
177
330
CA
100
AcDbDictionary
280
     1
281
     1
  3
ACAD_XREC_ROUNDTRIP
360
178
  0
DICTIONARY
  5
18F
330
D6
100
AcDbDictionary
280
     1
281
     1
  3
ACAD_XREC_ROUNDTRIP
360
190
  0
XRECORD
  5
1A0
102
{ACAD_REACTORS
330
19F
102
}
330
19F
100
AcDbXrecord
280
     1
102
DISPLAYNAME
  1
Imperial24
102
FLAGS
 90
        0
  0
XRECORD
  5
B6
102
{ACAD_REACTORS
330
B4
102
}
330
B4
100
AcDbXrecord
280
     1
270
     1
271
     1
  0
XRECORD
  5
B5
102
{ACAD_REACTORS
330
B4
102
}
330
B4
100
AcDbXrecord
280
     1
270
     1
271
     1
  0
XRECORD
  5
B9
102
{ACAD_REACTORS
330
B4
102
}
330
B4
100
AcDbXrecord
280
     1
270
     1
271
     1
  0
XRECORD
  5
B8
102
{ACAD_REACTORS
330
B4
102
}
330
B4
100
AcDbXrecord
280
     1
270
     1
271
     1
  0
XRECORD
  5
BA
102
{ACAD_REACTORS
330
B4
102
}
330
B4
100
AcDbXrecord
280
     1
270
     1
271
     1
  0
XRECORD
  5
B7
102
{ACAD_REACTORS
330
B4
102
}
330
B4
100
AcDbXrecord
280
     1
270
     1
271
     1
  0
XRECORD
  5
AE
102
{ACAD_REACTORS
330
AC
102
}
330
AC
100
AcDbXrecord
280
     1
270
     1
271
     1
  0
XRECORD
  5
AD
102
{ACAD_REACTORS
330
AC
102
}
330
AC
100
AcDbXrecord
280
     1
270
     1
271
     1
  0
XRECORD
  5
B1
102
{ACAD_REACTORS
330
AC
102
}
330
AC
100
AcDbXrecord
280
     1
270
     1
271
     1
  0
XRECORD
  5
B0
102
{ACAD_REACTORS
330
AC
102
}
330
AC
100
AcDbXrecord
280
     1
270
     1
271
     1
  0
XRECORD
  5
B2
102
{ACAD_REACTORS
330
AC
102
}
330
AC
100
AcDbXrecord
280
     1
270
     1
271
     1
  0
XRECORD
  5
AF
102
{ACAD_REACTORS
330
AC
102
}
330
AC
100
AcDbXrecord
280
     1
270
     1
271
     1
  0
XRECORD
  5
BE
102
{ACAD_REACTORS
330
BC
102
}
330
BC
100
AcDbXrecord
280
     1
270
     1
271
     1
  0
XRECORD
  5
BD
102
{ACAD_REACTORS
330
BC
102
}
330
BC
100
AcDbXrecord
280
     1
270
     1
271
     1
  0
XRECORD
  5
C1
102
{ACAD_REACTORS
330
BC
102
}
330
BC
100
AcDbXrecord
280
     1
270
     1
271
     1
  0
XRECORD
  5
C0
102
{ACAD_REACTORS
330
BC
102
}
330
BC
100
AcDbXrecord
280
     1
270
     1
271
     1
  0
XRECORD
  5
C2
102
{ACAD_REACTORS
330
BC
102
}
330
BC
100
AcDbXrecord
280
     1
270
     1
271
     1
  0
XRECORD
  5
BF
102
{ACAD_REACTORS
330
BC
102
}
330
BC
100
AcDbXrecord
280
     1
270
     1
271
     1
  0
XRECORD
  5
19C
102
{ACAD_REACTORS
330
19B
102
}
330
19B
100
AcDbXrecord
280
     1
102
ACAD_ROUNDTRIP_2012_MLEADER_STYLE
298
     1
  0
XRECORD
  5
19E
102
{ACAD_REACTORS
330
19D
102
}
330
19D
100
AcDbXrecord
280
     1
102
DISPLAYNAME
  1
Imperial24
102
FLAGS
 90
        0
  0
CELLSTYLEMAP
  5
169
102
{ACAD_REACTORS
330
168
102
}
330
168
100
AcDbCellStyleMap
 90
        3
300
CELLSTYLE
  1
TABLEFORMAT_BEGIN
 90
        5
170
     1
 91
        0
 92
    32768
 62
   257
 93
        1
300
CONTENTFORMAT
  1
CONTENTFORMAT_BEGIN
 90
        0
 91
        0
 92
      512
 93
        0
300

 40
0.0
140
1.0
 94
        5
 62
     0
340
11
144
0.25
309
CONTENTFORMAT_END
171
     0
 94
        0
309
TABLEFORMAT_END
  1
CELLSTYLE_BEGIN
 90
        1
 91
        1
300
_TITLE
309
CELLSTYLE_END
300
CELLSTYLE
  1
TABLEFORMAT_BEGIN
 90
        5
170
     1
 91
        0
 92
        0
 62
   257
 93
        1
300
CONTENTFORMAT
  1
CONTENTFORMAT_BEGIN
 90
        0
 91
        0
 92
      512
 93
        0
300

 40
0.0
140
1.0
 94
        5
 62
     0
340
11
144
0.18
309
CONTENTFORMAT_END
171
     0
 94
        0
309
TABLEFORMAT_END
  1
CELLSTYLE_BEGIN
 90
        2
 91
        1
300
_HEADER
309
CELLSTYLE_END
300
CELLSTYLE
  1
TABLEFORMAT_BEGIN
 90
        5
170
     1
 91
        0
 92
        0
 62
   257
 93
        1
300
CONTENTFORMAT
  1
CONTENTFORMAT_BEGIN
 90
        0
 91
        0
 92
      512
 93
        0
300

 40
0.0
140
1.0
 94
        2
 62
     0
340
11
144
0.18
309
CONTENTFORMAT_END
171
     0
 94
        0
309
TABLEFORMAT_END
  1
CELLSTYLE_BEGIN
 90
        3
 91
        2
300
_DATA
309
CELLSTYLE_END
  0
XRECORD
  5
176
102
{ACAD_REACTORS
330
175
102
}
330
175
100
AcDbXrecord
280
     1
102
RTVSPost2010Prop28
280
     1
102
RTVSPost2010PropOp28
 70
     1
102
RTVSPost2010Prop29
280
     1
102
RTVSPost2010PropOp29
 70
     1
102
RTVSPost2010Prop30
280
     0
102
RTVSPost2010PropOp30
 70
     1
102
RTVSPost2010Prop31
280
     0
102
RTVSPost2010PropOp31
 70
     1
102
RTVSPost2010Prop32
280
     0
102
RTVSPost2010PropOp32
 70
     1
102
RTVSPost2010Prop33
280
     0
102
RTVSPost2010PropOp33
 70
     1
102
RTVSPost2010Prop34
280
     0
102
RTVSPost2010PropOp34
 70
     1
102
RTVSPost2010Prop35
280
     0
102
RTVSPost2010PropOp35
 70
     1
102
RTVSPost2010Prop36
280
     0
102
RTVSPost2010PropOp36
 70
     1
102
RTVSPost2010Prop37
 90
       50
102
RTVSPost2010PropOp37
 70
     1
102
RTVSPost2010Prop38
140
0.0
102
RTVSPost2010PropOp38
 70
     1
102
RTVSPost2010Prop39
140
1.0
102
RTVSPost2010PropOp39
 70
     1
102
RTVSPost2010Prop40
 90
        0
102
RTVSPost2010PropOp40
 70
     1
102
RTVSPost2010Prop41ColorIndex
 90
       18
102
RTVSPost2010Prop41ColorRGB
 90
        0
102
RTVSPost2010PropOp41
 70
     1
102
RTVSPost2010Prop42
 90
       50
102
RTVSPost2010PropOp42
 70
     1
102
RTVSPost2010Prop43
 90
        3
102
RTVSPost2010PropOp43
 70
     1
102
RTVSPost2010Prop44ColorIndex
 90
        5
102
RTVSPost2010Prop44ColorRGB
 90
      255
102
RTVSPost2010PropOp44
 70
     1
102
RTVSPost2010Prop45
280
     0
102
RTVSPost2010PropOp45
 70
     1
102
RTVSPost2010Prop46
 90
       50
102
RTVSPost2010PropOp46
 70
     1
102
RTVSPost2010Prop47
 90
       50
102
RTVSPost2010PropOp47
 70
     1
102
RTVSPost2010Prop48
 90
       50
102
RTVSPost2010PropOp48
 70
     1
102
RTVSPost2010Prop49
280
     0
102
RTVSPost2010PropOp49
 70
     1
102
RTVSPost2010Prop50
 90
       50
102
RTVSPost2010PropOp50
 70
     1
102
RTVSPost2010Prop51ColorIndex
 90
      256
102
RTVSPost2010Prop51ColorRGB
 90
-16777216
102
RTVSPost2010PropOp51
 70
     0
102
RTVSPost2010Prop52
140
1.0
102
RTVSPost2010PropOp52
 70
     0
102
RTVSPost2010Prop53
 90
        2
102
RTVSPost2010PropOp53
 70
     1
102
RTVSPost2010Prop54
  1
strokes_ogs.tif
102
RTVSPost2010PropOp54
 70
     1
102
RTVSPost2010Prop55
280
     0
102
RTVSPost2010PropOp55
 70
     1
102
RTVSPost2010Prop56
140
1.0
102
RTVSPost2010PropOp56
 70
     1
102
RTVSPost2010Prop57
140
1.0
102
RTVSPost2010PropOp57
 70
     1
  0
XRECORD
  5
174
102
{ACAD_REACTORS
330
173
102
}
330
173
100
AcDbXrecord
280
     1
102
RTVSPost2010Prop28
280
     0
102
RTVSPost2010PropOp28
 70
     1
102
RTVSPost2010Prop29
280
     1
102
RTVSPost2010PropOp29
 70
     1
102
RTVSPost2010Prop30
280
     1
102
RTVSPost2010PropOp30
 70
     1
102
RTVSPost2010Prop31
280
     0
102
RTVSPost2010PropOp31
 70
     1
102
RTVSPost2010Prop32
280
     0
102
RTVSPost2010PropOp32
 70
     1
102
RTVSPost2010Prop33
280
     0
102
RTVSPost2010PropOp33
 70
     1
102
RTVSPost2010Prop34
280
     0
102
RTVSPost2010PropOp34
 70
     1
102
RTVSPost2010Prop35
280
     0
102
RTVSPost2010PropOp35
 70
     1
102
RTVSPost2010Prop36
280
     0
102
RTVSPost2010PropOp36
 70
     1
102
RTVSPost2010Prop37
 90
       50
102
RTVSPost2010PropOp37
 70
     1
102
RTVSPost2010Prop38
140
0.0
102
RTVSPost2010PropOp38
 70
     1
102
RTVSPost2010Prop39
140
1.0
102
RTVSPost2010PropOp39
 70
     1
102
RTVSPost2010Prop40
 90
        0
102
RTVSPost2010PropOp40
 70
     1
102
RTVSPost2010Prop41ColorIndex
 90
       18
102
RTVSPost2010Prop41ColorRGB
 90
        0
102
RTVSPost2010PropOp41
 70
     1
102
RTVSPost2010Prop42
 90
       50
102
RTVSPost2010PropOp42
 70
     1
102
RTVSPost2010Prop43
 90
        3
102
RTVSPost2010PropOp43
 70
     1
102
RTVSPost2010Prop44ColorIndex
 90
        5
102
RTVSPost2010Prop44ColorRGB
 90
      255
102
RTVSPost2010PropOp44
 70
     1
102
RTVSPost2010Prop45
280
     0
102
RTVSPost2010PropOp45
 70
     1
102
RTVSPost2010Prop46
 90
       50
102
RTVSPost2010PropOp46
 70
     1
102
RTVSPost2010Prop47
 90
       50
102
RTVSPost2010PropOp47
 70
     1
102
RTVSPost2010Prop48
 90
       50
102
RTVSPost2010PropOp48
 70
     1
102
RTVSPost2010Prop49
280
     0
102
RTVSPost2010PropOp49
 70
     1
102
RTVSPost2010Prop50
 90
       50
102
RTVSPost2010PropOp50
 70
     1
102
RTVSPost2010Prop51ColorIndex
 90
      256
102
RTVSPost2010Prop51ColorRGB
 90
-16777216
102
RTVSPost2010PropOp51
 70
     0
102
RTVSPost2010Prop52
140
1.0
102
RTVSPost2010PropOp52
 70
     0
102
RTVSPost2010Prop53
 90
        2
102
RTVSPost2010PropOp53
 70
     1
102
RTVSPost2010Prop54
  1
strokes_ogs.tif
102
RTVSPost2010PropOp54
 70
     1
102
RTVSPost2010Prop55
280
     0
102
RTVSPost2010PropOp55
 70
     1
102
RTVSPost2010Prop56
140
1.0
102
RTVSPost2010PropOp56
 70
     1
102
RTVSPost2010Prop57
140
1.0
102
RTVSPost2010PropOp57
 70
     1
  0
XRECORD
  5
182
102
{ACAD_REACTORS
330
181
102
}
330
181
100
AcDbXrecord
280
     1
102
RTVSPost2010Prop28
280
     0
102
RTVSPost2010PropOp28
 70
     1
102
RTVSPost2010Prop29
280
     1
102
RTVSPost2010PropOp29
 70
     1
102
RTVSPost2010Prop30
280
     1
102
RTVSPost2010PropOp30
 70
     1
102
RTVSPost2010Prop31
280
     0
102
RTVSPost2010PropOp31
 70
     1
102
RTVSPost2010Prop32
280
     0
102
RTVSPost2010PropOp32
 70
     1
102
RTVSPost2010Prop33
280
     0
102
RTVSPost2010PropOp33
 70
     1
102
RTVSPost2010Prop34
280
     0
102
RTVSPost2010PropOp34
 70
     1
102
RTVSPost2010Prop35
280
     0
102
RTVSPost2010PropOp35
 70
     1
102
RTVSPost2010Prop36
280
     0
102
RTVSPost2010PropOp36
 70
     1
102
RTVSPost2010Prop37
 90
       50
102
RTVSPost2010PropOp37
 70
     1
102
RTVSPost2010Prop38
140
0.0
102
RTVSPost2010PropOp38
 70
     1
102
RTVSPost2010Prop39
140
1.0
102
RTVSPost2010PropOp39
 70
     1
102
RTVSPost2010Prop40
 90
        0
102
RTVSPost2010PropOp40
 70
     1
102
RTVSPost2010Prop41ColorIndex
 90
       18
102
RTVSPost2010Prop41ColorRGB
 90
        0
102
RTVSPost2010PropOp41
 70
     1
102
RTVSPost2010Prop42
 90
       50
102
RTVSPost2010PropOp42
 70
     1
102
RTVSPost2010Prop43
 90
        3
102
RTVSPost2010PropOp43
 70
     1
102
RTVSPost2010Prop44ColorIndex
 90
        5
102
RTVSPost2010Prop44ColorRGB
 90
      255
102
RTVSPost2010PropOp44
 70
     1
102
RTVSPost2010Prop45
280
     0
102
RTVSPost2010PropOp45
 70
     1
102
RTVSPost2010Prop46
 90
       50
102
RTVSPost2010PropOp46
 70
     1
102
RTVSPost2010Prop47
 90
       50
102
RTVSPost2010PropOp47
 70
     1
102
RTVSPost2010Prop48
 90
       50
102
RTVSPost2010PropOp48
 70
     1
102
RTVSPost2010Prop49
280
     0
102
RTVSPost2010PropOp49
 70
     1
102
RTVSPost2010Prop50
 90
       50
102
RTVSPost2010PropOp50
 70
     1
102
RTVSPost2010Prop51ColorIndex
 90
      256
102
RTVSPost2010Prop51ColorRGB
 90
-16777216
102
RTVSPost2010PropOp51
 70
     0
102
RTVSPost2010Prop52
140
1.0
102
RTVSPost2010PropOp52
 70
     0
102
RTVSPost2010Prop53
 90
        2
102
RTVSPost2010PropOp53
 70
     1
102
RTVSPost2010Prop54
  1
strokes_ogs.tif
102
RTVSPost2010PropOp54
 70
     1
102
RTVSPost2010Prop55
280
     0
102
RTVSPost2010PropOp55
 70
     1
102
RTVSPost2010Prop56
140
1.0
102
RTVSPost2010PropOp56
 70
     1
102
RTVSPost2010Prop57
140
1.0
102
RTVSPost2010PropOp57
 70
     1
  0
XRECORD
  5
18A
102
{ACAD_REACTORS
330
189
102
}
330
189
100
AcDbXrecord
280
     1
102
RTVSPost2010Prop28
280
     0
102
RTVSPost2010PropOp28
 70
     1
102
RTVSPost2010Prop29
280
     1
102
RTVSPost2010PropOp29
 70
     1
102
RTVSPost2010Prop30
280
     1
102
RTVSPost2010PropOp30
 70
     1
102
RTVSPost2010Prop31
280
     0
102
RTVSPost2010PropOp31
 70
     1
102
RTVSPost2010Prop32
280
     0
102
RTVSPost2010PropOp32
 70
     1
102
RTVSPost2010Prop33
280
     0
102
RTVSPost2010PropOp33
 70
     1
102
RTVSPost2010Prop34
280
     0
102
RTVSPost2010PropOp34
 70
     1
102
RTVSPost2010Prop35
280
     0
102
RTVSPost2010PropOp35
 70
     1
102
RTVSPost2010Prop36
280
     0
102
RTVSPost2010PropOp36
 70
     1
102
RTVSPost2010Prop37
 90
       50
102
RTVSPost2010PropOp37
 70
     1
102
RTVSPost2010Prop38
140
0.0
102
RTVSPost2010PropOp38
 70
     1
102
RTVSPost2010Prop39
140
1.0
102
RTVSPost2010PropOp39
 70
     1
102
RTVSPost2010Prop40
 90
        0
102
RTVSPost2010PropOp40
 70
     1
102
RTVSPost2010Prop41ColorIndex
 90
       18
102
RTVSPost2010Prop41ColorRGB
 90
        0
102
RTVSPost2010PropOp41
 70
     1
102
RTVSPost2010Prop42
 90
       50
102
RTVSPost2010PropOp42
 70
     1
102
RTVSPost2010Prop43
 90
        3
102
RTVSPost2010PropOp43
 70
     1
102
RTVSPost2010Prop44ColorIndex
 90
        5
102
RTVSPost2010Prop44ColorRGB
 90
      255
102
RTVSPost2010PropOp44
 70
     1
102
RTVSPost2010Prop45
280
     0
102
RTVSPost2010PropOp45
 70
     1
102
RTVSPost2010Prop46
 90
       50
102
RTVSPost2010PropOp46
 70
     1
102
RTVSPost2010Prop47
 90
       50
102
RTVSPost2010PropOp47
 70
     1
102
RTVSPost2010Prop48
 90
       50
102
RTVSPost2010PropOp48
 70
     1
102
RTVSPost2010Prop49
280
     0
102
RTVSPost2010PropOp49
 70
     1
102
RTVSPost2010Prop50
 90
       50
102
RTVSPost2010PropOp50
 70
     1
102
RTVSPost2010Prop51ColorIndex
 90
      256
102
RTVSPost2010Prop51ColorRGB
 90
-16777216
102
RTVSPost2010PropOp51
 70
     0
102
RTVSPost2010Prop52
140
1.0
102
RTVSPost2010PropOp52
 70
     0
102
RTVSPost2010Prop53
 90
        2
102
RTVSPost2010PropOp53
 70
     1
102
RTVSPost2010Prop54
  1
strokes_ogs.tif
102
RTVSPost2010PropOp54
 70
     1
102
RTVSPost2010Prop55
280
     0
102
RTVSPost2010PropOp55
 70
     1
102
RTVSPost2010Prop56
140
1.0
102
RTVSPost2010PropOp56
 70
     1
102
RTVSPost2010Prop57
140
1.0
102
RTVSPost2010PropOp57
 70
     1
  0
XRECORD
  5
17C
102
{ACAD_REACTORS
330
17B
102
}
330
17B
100
AcDbXrecord
280
     1
102
RTVSPost2010Prop28
280
     0
102
RTVSPost2010PropOp28
 70
     1
102
RTVSPost2010Prop29
280
     1
102
RTVSPost2010PropOp29
 70
     1
102
RTVSPost2010Prop30
280
     1
102
RTVSPost2010PropOp30
 70
     1
102
RTVSPost2010Prop31
280
     0
102
RTVSPost2010PropOp31
 70
     1
102
RTVSPost2010Prop32
280
     0
102
RTVSPost2010PropOp32
 70
     1
102
RTVSPost2010Prop33
280
     0
102
RTVSPost2010PropOp33
 70
     1
102
RTVSPost2010Prop34
280
     0
102
RTVSPost2010PropOp34
 70
     1
102
RTVSPost2010Prop35
280
     0
102
RTVSPost2010PropOp35
 70
     1
102
RTVSPost2010Prop36
280
     0
102
RTVSPost2010PropOp36
 70
     1
102
RTVSPost2010Prop37
 90
       50
102
RTVSPost2010PropOp37
 70
     1
102
RTVSPost2010Prop38
140
0.0
102
RTVSPost2010PropOp38
 70
     1
102
RTVSPost2010Prop39
140
1.0
102
RTVSPost2010PropOp39
 70
     1
102
RTVSPost2010Prop40
 90
        0
102
RTVSPost2010PropOp40
 70
     1
102
RTVSPost2010Prop41ColorIndex
 90
       18
102
RTVSPost2010Prop41ColorRGB
 90
        0
102
RTVSPost2010PropOp41
 70
     1
102
RTVSPost2010Prop42
 90
       50
102
RTVSPost2010PropOp42
 70
     1
102
RTVSPost2010Prop43
 90
        3
102
RTVSPost2010PropOp43
 70
     1
102
RTVSPost2010Prop44ColorIndex
 90
        5
102
RTVSPost2010Prop44ColorRGB
 90
      255
102
RTVSPost2010PropOp44
 70
     1
102
RTVSPost2010Prop45
280
     0
102
RTVSPost2010PropOp45
 70
     1
102
RTVSPost2010Prop46
 90
       50
102
RTVSPost2010PropOp46
 70
     1
102
RTVSPost2010Prop47
 90
       50
102
RTVSPost2010PropOp47
 70
     1
102
RTVSPost2010Prop48
 90
       50
102
RTVSPost2010PropOp48
 70
     1
102
RTVSPost2010Prop49
280
     0
102
RTVSPost2010PropOp49
 70
     1
102
RTVSPost2010Prop50
 90
       50
102
RTVSPost2010PropOp50
 70
     1
102
RTVSPost2010Prop51ColorIndex
 90
      256
102
RTVSPost2010Prop51ColorRGB
 90
-16777216
102
RTVSPost2010PropOp51
 70
     0
102
RTVSPost2010Prop52
140
1.0
102
RTVSPost2010PropOp52
 70
     0
102
RTVSPost2010Prop53
 90
        2
102
RTVSPost2010PropOp53
 70
     1
102
RTVSPost2010Prop54
  1
strokes_ogs.tif
102
RTVSPost2010PropOp54
 70
     1
102
RTVSPost2010Prop55
280
     0
102
RTVSPost2010PropOp55
 70
     1
102
RTVSPost2010Prop56
140
1.0
102
RTVSPost2010PropOp56
 70
     1
102
RTVSPost2010Prop57
140
1.0
102
RTVSPost2010PropOp57
 70
     1
  0
XRECORD
  5
180
102
{ACAD_REACTORS
330
17F
102
}
330
17F
100
AcDbXrecord
280
     1
102
RTVSPost2010Prop28
280
     0
102
RTVSPost2010PropOp28
 70
     1
102
RTVSPost2010Prop29
280
     1
102
RTVSPost2010PropOp29
 70
     1
102
RTVSPost2010Prop30
280
     1
102
RTVSPost2010PropOp30
 70
     1
102
RTVSPost2010Prop31
280
     0
102
RTVSPost2010PropOp31
 70
     1
102
RTVSPost2010Prop32
280
     0
102
RTVSPost2010PropOp32
 70
     1
102
RTVSPost2010Prop33
280
     0
102
RTVSPost2010PropOp33
 70
     1
102
RTVSPost2010Prop34
280
     0
102
RTVSPost2010PropOp34
 70
     1
102
RTVSPost2010Prop35
280
     0
102
RTVSPost2010PropOp35
 70
     1
102
RTVSPost2010Prop36
280
     0
102
RTVSPost2010PropOp36
 70
     1
102
RTVSPost2010Prop37
 90
       50
102
RTVSPost2010PropOp37
 70
     1
102
RTVSPost2010Prop38
140
0.0
102
RTVSPost2010PropOp38
 70
     1
102
RTVSPost2010Prop39
140
1.0
102
RTVSPost2010PropOp39
 70
     1
102
RTVSPost2010Prop40
 90
        0
102
RTVSPost2010PropOp40
 70
     1
102
RTVSPost2010Prop41ColorIndex
 90
       18
102
RTVSPost2010Prop41ColorRGB
 90
        0
102
RTVSPost2010PropOp41
 70
     1
102
RTVSPost2010Prop42
 90
       50
102
RTVSPost2010PropOp42
 70
     1
102
RTVSPost2010Prop43
 90
        3
102
RTVSPost2010PropOp43
 70
     1
102
RTVSPost2010Prop44ColorIndex
 90
        5
102
RTVSPost2010Prop44ColorRGB
 90
      255
102
RTVSPost2010PropOp44
 70
     1
102
RTVSPost2010Prop45
280
     0
102
RTVSPost2010PropOp45
 70
     1
102
RTVSPost2010Prop46
 90
       50
102
RTVSPost2010PropOp46
 70
     1
102
RTVSPost2010Prop47
 90
       50
102
RTVSPost2010PropOp47
 70
     1
102
RTVSPost2010Prop48
 90
       50
102
RTVSPost2010PropOp48
 70
     1
102
RTVSPost2010Prop49
280
     0
102
RTVSPost2010PropOp49
 70
     1
102
RTVSPost2010Prop50
 90
       50
102
RTVSPost2010PropOp50
 70
     1
102
RTVSPost2010Prop51ColorIndex
 90
      256
102
RTVSPost2010Prop51ColorRGB
 90
-16777216
102
RTVSPost2010PropOp51
 70
     0
102
RTVSPost2010Prop52
140
1.0
102
RTVSPost2010PropOp52
 70
     0
102
RTVSPost2010Prop53
 90
        2
102
RTVSPost2010PropOp53
 70
     1
102
RTVSPost2010Prop54
  1
strokes_ogs.tif
102
RTVSPost2010PropOp54
 70
     1
102
RTVSPost2010Prop55
280
     0
102
RTVSPost2010PropOp55
 70
     1
102
RTVSPost2010Prop56
140
1.0
102
RTVSPost2010PropOp56
 70
     1
102
RTVSPost2010Prop57
140
1.0
102
RTVSPost2010PropOp57
 70
     1
  0
XRECORD
  5
19A
102
{ACAD_REACTORS
330
199
102
}
330
199
100
AcDbXrecord
280
     1
102
RTVSPost2010Prop28
280
     0
102
RTVSPost2010PropOp28
 70
     0
102
RTVSPost2010Prop29
280
     1
102
RTVSPost2010PropOp29
 70
     0
102
RTVSPost2010Prop30
280
     1
102
RTVSPost2010PropOp30
 70
     0
102
RTVSPost2010Prop31
280
     0
102
RTVSPost2010PropOp31
 70
     0
102
RTVSPost2010Prop32
280
     0
102
RTVSPost2010PropOp32
 70
     0
102
RTVSPost2010Prop33
280
     0
102
RTVSPost2010PropOp33
 70
     0
102
RTVSPost2010Prop34
280
     0
102
RTVSPost2010PropOp34
 70
     0
102
RTVSPost2010Prop35
280
     0
102
RTVSPost2010PropOp35
 70
     0
102
RTVSPost2010Prop36
280
     0
102
RTVSPost2010PropOp36
 70
     0
102
RTVSPost2010Prop37
 90
       50
102
RTVSPost2010PropOp37
 70
     0
102
RTVSPost2010Prop38
140
0.0
102
RTVSPost2010PropOp38
 70
     0
102
RTVSPost2010Prop39
140
1.0
102
RTVSPost2010PropOp39
 70
     0
102
RTVSPost2010Prop40
 90
        0
102
RTVSPost2010PropOp40
 70
     0
102
RTVSPost2010Prop41ColorIndex
 90
       18
102
RTVSPost2010Prop41ColorRGB
 90
        0
102
RTVSPost2010PropOp41
 70
     0
102
RTVSPost2010Prop42
 90
       50
102
RTVSPost2010PropOp42
 70
     0
102
RTVSPost2010Prop43
 90
        3
102
RTVSPost2010PropOp43
 70
     0
102
RTVSPost2010Prop44ColorIndex
 90
        5
102
RTVSPost2010Prop44ColorRGB
 90
      255
102
RTVSPost2010PropOp44
 70
     0
102
RTVSPost2010Prop45
280
     0
102
RTVSPost2010PropOp45
 70
     0
102
RTVSPost2010Prop46
 90
       50
102
RTVSPost2010PropOp46
 70
     0
102
RTVSPost2010Prop47
 90
       50
102
RTVSPost2010PropOp47
 70
     0
102
RTVSPost2010Prop48
 90
       50
102
RTVSPost2010PropOp48
 70
     0
102
RTVSPost2010Prop49
280
     0
102
RTVSPost2010PropOp49
 70
     0
102
RTVSPost2010Prop50
 90
       50
102
RTVSPost2010PropOp50
 70
     0
102
RTVSPost2010Prop51ColorIndex
 90
      256
102
RTVSPost2010Prop51ColorRGB
 90
-16777216
102
RTVSPost2010PropOp51
 70
     0
102
RTVSPost2010Prop52
140
1.0
102
RTVSPost2010PropOp52
 70
     0
102
RTVSPost2010Prop53
 90
        2
102
RTVSPost2010PropOp53
 70
     0
102
RTVSPost2010Prop54
  1
strokes_ogs.tif
102
RTVSPost2010PropOp54
 70
     0
102
RTVSPost2010Prop55
280
     0
102
RTVSPost2010PropOp55
 70
     0
102
RTVSPost2010Prop56
140
1.0
102
RTVSPost2010PropOp56
 70
     0
102
RTVSPost2010Prop57
140
1.0
102
RTVSPost2010PropOp57
 70
     0
  0
XRECORD
  5
188
102
{ACAD_REACTORS
330
187
102
}
330
187
100
AcDbXrecord
280
     1
102
RTVSPost2010Prop28
280
     0
102
RTVSPost2010PropOp28
 70
     1
102
RTVSPost2010Prop29
280
     1
102
RTVSPost2010PropOp29
 70
     1
102
RTVSPost2010Prop30
280
     1
102
RTVSPost2010PropOp30
 70
     1
102
RTVSPost2010Prop31
280
     0
102
RTVSPost2010PropOp31
 70
     1
102
RTVSPost2010Prop32
280
     0
102
RTVSPost2010PropOp32
 70
     1
102
RTVSPost2010Prop33
280
     0
102
RTVSPost2010PropOp33
 70
     1
102
RTVSPost2010Prop34
280
     0
102
RTVSPost2010PropOp34
 70
     1
102
RTVSPost2010Prop35
280
     0
102
RTVSPost2010PropOp35
 70
     1
102
RTVSPost2010Prop36
280
     0
102
RTVSPost2010PropOp36
 70
     1
102
RTVSPost2010Prop37
 90
       50
102
RTVSPost2010PropOp37
 70
     1
102
RTVSPost2010Prop38
140
0.0
102
RTVSPost2010PropOp38
 70
     1
102
RTVSPost2010Prop39
140
1.0
102
RTVSPost2010PropOp39
 70
     1
102
RTVSPost2010Prop40
 90
        0
102
RTVSPost2010PropOp40
 70
     1
102
RTVSPost2010Prop41ColorIndex
 90
       18
102
RTVSPost2010Prop41ColorRGB
 90
        0
102
RTVSPost2010PropOp41
 70
     1
102
RTVSPost2010Prop42
 90
       50
102
RTVSPost2010PropOp42
 70
     1
102
RTVSPost2010Prop43
 90
        3
102
RTVSPost2010PropOp43
 70
     1
102
RTVSPost2010Prop44ColorIndex
 90
        5
102
RTVSPost2010Prop44ColorRGB
 90
      255
102
RTVSPost2010PropOp44
 70
     1
102
RTVSPost2010Prop45
280
     0
102
RTVSPost2010PropOp45
 70
     1
102
RTVSPost2010Prop46
 90
       50
102
RTVSPost2010PropOp46
 70
     1
102
RTVSPost2010Prop47
 90
       50
102
RTVSPost2010PropOp47
 70
     1
102
RTVSPost2010Prop48
 90
       50
102
RTVSPost2010PropOp48
 70
     1
102
RTVSPost2010Prop49
280
     0
102
RTVSPost2010PropOp49
 70
     1
102
RTVSPost2010Prop50
 90
       50
102
RTVSPost2010PropOp50
 70
     1
102
RTVSPost2010Prop51ColorIndex
 90
      256
102
RTVSPost2010Prop51ColorRGB
 90
-16777216
102
RTVSPost2010PropOp51
 70
     0
102
RTVSPost2010Prop52
140
1.0
102
RTVSPost2010PropOp52
 70
     0
102
RTVSPost2010Prop53
 90
        2
102
RTVSPost2010PropOp53
 70
     1
102
RTVSPost2010Prop54
  1
strokes_ogs.tif
102
RTVSPost2010PropOp54
 70
     1
102
RTVSPost2010Prop55
280
     0
102
RTVSPost2010PropOp55
 70
     1
102
RTVSPost2010Prop56
140
1.0
102
RTVSPost2010PropOp56
 70
     1
102
RTVSPost2010Prop57
140
1.0
102
RTVSPost2010PropOp57
 70
     1
  0
XRECORD
  5
16C
102
{ACAD_REACTORS
330
16B
102
}
330
16B
100
AcDbXrecord
280
     1
102
RTVSPost2010Prop28
280
     0
102
RTVSPost2010PropOp28
 70
     1
102
RTVSPost2010Prop29
280
     1
102
RTVSPost2010PropOp29
 70
     1
102
RTVSPost2010Prop30
280
     1
102
RTVSPost2010PropOp30
 70
     1
102
RTVSPost2010Prop31
280
     0
102
RTVSPost2010PropOp31
 70
     1
102
RTVSPost2010Prop32
280
     0
102
RTVSPost2010PropOp32
 70
     1
102
RTVSPost2010Prop33
280
     0
102
RTVSPost2010PropOp33
 70
     1
102
RTVSPost2010Prop34
280
     0
102
RTVSPost2010PropOp34
 70
     1
102
RTVSPost2010Prop35
280
     0
102
RTVSPost2010PropOp35
 70
     1
102
RTVSPost2010Prop36
280
     0
102
RTVSPost2010PropOp36
 70
     1
102
RTVSPost2010Prop37
 90
       50
102
RTVSPost2010PropOp37
 70
     1
102
RTVSPost2010Prop38
140
0.0
102
RTVSPost2010PropOp38
 70
     1
102
RTVSPost2010Prop39
140
1.0
102
RTVSPost2010PropOp39
 70
     1
102
RTVSPost2010Prop40
 90
        0
102
RTVSPost2010PropOp40
 70
     1
102
RTVSPost2010Prop41ColorIndex
 90
       18
102
RTVSPost2010Prop41ColorRGB
 90
        0
102
RTVSPost2010PropOp41
 70
     1
102
RTVSPost2010Prop42
 90
       50
102
RTVSPost2010PropOp42
 70
     1
102
RTVSPost2010Prop43
 90
        3
102
RTVSPost2010PropOp43
 70
     1
102
RTVSPost2010Prop44ColorIndex
 90
        5
102
RTVSPost2010Prop44ColorRGB
 90
      255
102
RTVSPost2010PropOp44
 70
     1
102
RTVSPost2010Prop45
280
     0
102
RTVSPost2010PropOp45
 70
     1
102
RTVSPost2010Prop46
 90
       50
102
RTVSPost2010PropOp46
 70
     1
102
RTVSPost2010Prop47
 90
       50
102
RTVSPost2010PropOp47
 70
     1
102
RTVSPost2010Prop48
 90
       50
102
RTVSPost2010PropOp48
 70
     1
102
RTVSPost2010Prop49
280
     0
102
RTVSPost2010PropOp49
 70
     1
102
RTVSPost2010Prop50
 90
       50
102
RTVSPost2010PropOp50
 70
     1
102
RTVSPost2010Prop51ColorIndex
 90
      256
102
RTVSPost2010Prop51ColorRGB
 90
-16777216
102
RTVSPost2010PropOp51
 70
     0
102
RTVSPost2010Prop52
140
1.0
102
RTVSPost2010PropOp52
 70
     0
102
RTVSPost2010Prop53
 90
        2
102
RTVSPost2010PropOp53
 70
     1
102
RTVSPost2010Prop54
  1
strokes_ogs.tif
102
RTVSPost2010PropOp54
 70
     1
102
RTVSPost2010Prop55
280
     0
102
RTVSPost2010PropOp55
 70
     1
102
RTVSPost2010Prop56
140
1.0
102
RTVSPost2010PropOp56
 70
     1
102
RTVSPost2010Prop57
140
1.0
102
RTVSPost2010PropOp57
 70
     1
  0
XRECORD
  5
16E
102
{ACAD_REACTORS
330
16D
102
}
330
16D
100
AcDbXrecord
280
     1
102
RTVSPost2010Prop28
280
     0
102
RTVSPost2010PropOp28
 70
     1
102
RTVSPost2010Prop29
280
     1
102
RTVSPost2010PropOp29
 70
     1
102
RTVSPost2010Prop30
280
     1
102
RTVSPost2010PropOp30
 70
     1
102
RTVSPost2010Prop31
280
     0
102
RTVSPost2010PropOp31
 70
     1
102
RTVSPost2010Prop32
280
     0
102
RTVSPost2010PropOp32
 70
     1
102
RTVSPost2010Prop33
280
     0
102
RTVSPost2010PropOp33
 70
     1
102
RTVSPost2010Prop34
280
     0
102
RTVSPost2010PropOp34
 70
     1
102
RTVSPost2010Prop35
280
     0
102
RTVSPost2010PropOp35
 70
     1
102
RTVSPost2010Prop36
280
     0
102
RTVSPost2010PropOp36
 70
     1
102
RTVSPost2010Prop37
 90
       50
102
RTVSPost2010PropOp37
 70
     1
102
RTVSPost2010Prop38
140
0.0
102
RTVSPost2010PropOp38
 70
     1
102
RTVSPost2010Prop39
140
1.0
102
RTVSPost2010PropOp39
 70
     1
102
RTVSPost2010Prop40
 90
        0
102
RTVSPost2010PropOp40
 70
     1
102
RTVSPost2010Prop41ColorIndex
 90
       18
102
RTVSPost2010Prop41ColorRGB
 90
        0
102
RTVSPost2010PropOp41
 70
     1
102
RTVSPost2010Prop42
 90
       50
102
RTVSPost2010PropOp42
 70
     1
102
RTVSPost2010Prop43
 90
        3
102
RTVSPost2010PropOp43
 70
     1
102
RTVSPost2010Prop44ColorIndex
 90
        5
102
RTVSPost2010Prop44ColorRGB
 90
      255
102
RTVSPost2010PropOp44
 70
     1
102
RTVSPost2010Prop45
280
     0
102
RTVSPost2010PropOp45
 70
     1
102
RTVSPost2010Prop46
 90
       50
102
RTVSPost2010PropOp46
 70
     1
102
RTVSPost2010Prop47
 90
       50
102
RTVSPost2010PropOp47
 70
     1
102
RTVSPost2010Prop48
 90
       50
102
RTVSPost2010PropOp48
 70
     1
102
RTVSPost2010Prop49
280
     0
102
RTVSPost2010PropOp49
 70
     1
102
RTVSPost2010Prop50
 90
       50
102
RTVSPost2010PropOp50
 70
     1
102
RTVSPost2010Prop51ColorIndex
 90
      256
102
RTVSPost2010Prop51ColorRGB
 90
-16777216
102
RTVSPost2010PropOp51
 70
     0
102
RTVSPost2010Prop52
140
1.0
102
RTVSPost2010PropOp52
 70
     0
102
RTVSPost2010Prop53
 90
        2
102
RTVSPost2010PropOp53
 70
     1
102
RTVSPost2010Prop54
  1
strokes_ogs.tif
102
RTVSPost2010PropOp54
 70
     1
102
RTVSPost2010Prop55
280
     0
102
RTVSPost2010PropOp55
 70
     1
102
RTVSPost2010Prop56
140
1.0
102
RTVSPost2010PropOp56
 70
     1
102
RTVSPost2010Prop57
140
1.0
102
RTVSPost2010PropOp57
 70
     1
  0
XRECORD
  5
170
102
{ACAD_REACTORS
330
16F
102
}
330
16F
100
AcDbXrecord
280
     1
102
RTVSPost2010Prop28
280
     0
102
RTVSPost2010PropOp28
 70
     1
102
RTVSPost2010Prop29
280
     1
102
RTVSPost2010PropOp29
 70
     1
102
RTVSPost2010Prop30
280
     1
102
RTVSPost2010PropOp30
 70
     1
102
RTVSPost2010Prop31
280
     0
102
RTVSPost2010PropOp31
 70
     1
102
RTVSPost2010Prop32
280
     0
102
RTVSPost2010PropOp32
 70
     1
102
RTVSPost2010Prop33
280
     0
102
RTVSPost2010PropOp33
 70
     1
102
RTVSPost2010Prop34
280
     0
102
RTVSPost2010PropOp34
 70
     1
102
RTVSPost2010Prop35
280
     0
102
RTVSPost2010PropOp35
 70
     1
102
RTVSPost2010Prop36
280
     0
102
RTVSPost2010PropOp36
 70
     1
102
RTVSPost2010Prop37
 90
       50
102
RTVSPost2010PropOp37
 70
     1
102
RTVSPost2010Prop38
140
0.0
102
RTVSPost2010PropOp38
 70
     1
102
RTVSPost2010Prop39
140
1.0
102
RTVSPost2010PropOp39
 70
     1
102
RTVSPost2010Prop40
 90
        0
102
RTVSPost2010PropOp40
 70
     1
102
RTVSPost2010Prop41ColorIndex
 90
       18
102
RTVSPost2010Prop41ColorRGB
 90
        0
102
RTVSPost2010PropOp41
 70
     1
102
RTVSPost2010Prop42
 90
       50
102
RTVSPost2010PropOp42
 70
     1
102
RTVSPost2010Prop43
 90
        3
102
RTVSPost2010PropOp43
 70
     1
102
RTVSPost2010Prop44ColorIndex
 90
        5
102
RTVSPost2010Prop44ColorRGB
 90
      255
102
RTVSPost2010PropOp44
 70
     1
102
RTVSPost2010Prop45
280
     0
102
RTVSPost2010PropOp45
 70
     1
102
RTVSPost2010Prop46
 90
       50
102
RTVSPost2010PropOp46
 70
     1
102
RTVSPost2010Prop47
 90
       50
102
RTVSPost2010PropOp47
 70
     1
102
RTVSPost2010Prop48
 90
       50
102
RTVSPost2010PropOp48
 70
     1
102
RTVSPost2010Prop49
280
     0
102
RTVSPost2010PropOp49
 70
     1
102
RTVSPost2010Prop50
 90
       50
102
RTVSPost2010PropOp50
 70
     1
102
RTVSPost2010Prop51ColorIndex
 90
      256
102
RTVSPost2010Prop51ColorRGB
 90
-16777216
102
RTVSPost2010PropOp51
 70
     0
102
RTVSPost2010Prop52
140
1.0
102
RTVSPost2010PropOp52
 70
     0
102
RTVSPost2010Prop53
 90
        2
102
RTVSPost2010PropOp53
 70
     1
102
RTVSPost2010Prop54
  1
strokes_ogs.tif
102
RTVSPost2010PropOp54
 70
     1
102
RTVSPost2010Prop55
280
     0
102
RTVSPost2010PropOp55
 70
     1
102
RTVSPost2010Prop56
140
1.0
102
RTVSPost2010PropOp56
 70
     1
102
RTVSPost2010Prop57
140
1.0
102
RTVSPost2010PropOp57
 70
     1
  0
XRECORD
  5
172
102
{ACAD_REACTORS
330
171
102
}
330
171
100
AcDbXrecord
280
     1
102
RTVSPost2010Prop28
280
     0
102
RTVSPost2010PropOp28
 70
     1
102
RTVSPost2010Prop29
280
     1
102
RTVSPost2010PropOp29
 70
     1
102
RTVSPost2010Prop30
280
     1
102
RTVSPost2010PropOp30
 70
     1
102
RTVSPost2010Prop31
280
     0
102
RTVSPost2010PropOp31
 70
     1
102
RTVSPost2010Prop32
280
     0
102
RTVSPost2010PropOp32
 70
     1
102
RTVSPost2010Prop33
280
     0
102
RTVSPost2010PropOp33
 70
     1
102
RTVSPost2010Prop34
280
     0
102
RTVSPost2010PropOp34
 70
     1
102
RTVSPost2010Prop35
280
     0
102
RTVSPost2010PropOp35
 70
     1
102
RTVSPost2010Prop36
280
     0
102
RTVSPost2010PropOp36
 70
     1
102
RTVSPost2010Prop37
 90
       50
102
RTVSPost2010PropOp37
 70
     1
102
RTVSPost2010Prop38
140
0.0
102
RTVSPost2010PropOp38
 70
     1
102
RTVSPost2010Prop39
140
1.0
102
RTVSPost2010PropOp39
 70
     1
102
RTVSPost2010Prop40
 90
        0
102
RTVSPost2010PropOp40
 70
     1
102
RTVSPost2010Prop41ColorIndex
 90
       18
102
RTVSPost2010Prop41ColorRGB
 90
        0
102
RTVSPost2010PropOp41
 70
     1
102
RTVSPost2010Prop42
 90
       50
102
RTVSPost2010PropOp42
 70
     1
102
RTVSPost2010Prop43
 90
        3
102
RTVSPost2010PropOp43
 70
     1
102
RTVSPost2010Prop44ColorIndex
 90
        5
102
RTVSPost2010Prop44ColorRGB
 90
      255
102
RTVSPost2010PropOp44
 70
     1
102
RTVSPost2010Prop45
280
     0
102
RTVSPost2010PropOp45
 70
     1
102
RTVSPost2010Prop46
 90
       50
102
RTVSPost2010PropOp46
 70
     1
102
RTVSPost2010Prop47
 90
       50
102
RTVSPost2010PropOp47
 70
     1
102
RTVSPost2010Prop48
 90
       50
102
RTVSPost2010PropOp48
 70
     1
102
RTVSPost2010Prop49
280
     0
102
RTVSPost2010PropOp49
 70
     1
102
RTVSPost2010Prop50
 90
       50
102
RTVSPost2010PropOp50
 70
     1
102
RTVSPost2010Prop51ColorIndex
 90
      256
102
RTVSPost2010Prop51ColorRGB
 90
-16777216
102
RTVSPost2010PropOp51
 70
     0
102
RTVSPost2010Prop52
140
1.0
102
RTVSPost2010PropOp52
 70
     0
102
RTVSPost2010Prop53
 90
        2
102
RTVSPost2010PropOp53
 70
     1
102
RTVSPost2010Prop54
  1
strokes_ogs.tif
102
RTVSPost2010PropOp54
 70
     1
102
RTVSPost2010Prop55
280
     0
102
RTVSPost2010PropOp55
 70
     1
102
RTVSPost2010Prop56
140
1.0
102
RTVSPost2010PropOp56
 70
     1
102
RTVSPost2010Prop57
140
1.0
102
RTVSPost2010PropOp57
 70
     1
  0
XRECORD
  5
17A
102
{ACAD_REACTORS
330
179
102
}
330
179
100
AcDbXrecord
280
     1
102
RTVSPost2010Prop28
280
     0
102
RTVSPost2010PropOp28
 70
     1
102
RTVSPost2010Prop29
280
     1
102
RTVSPost2010PropOp29
 70
     1
102
RTVSPost2010Prop30
280
     1
102
RTVSPost2010PropOp30
 70
     1
102
RTVSPost2010Prop31
280
     0
102
RTVSPost2010PropOp31
 70
     1
102
RTVSPost2010Prop32
280
     0
102
RTVSPost2010PropOp32
 70
     1
102
RTVSPost2010Prop33
280
     0
102
RTVSPost2010PropOp33
 70
     1
102
RTVSPost2010Prop34
280
     0
102
RTVSPost2010PropOp34
 70
     1
102
RTVSPost2010Prop35
280
     0
102
RTVSPost2010PropOp35
 70
     1
102
RTVSPost2010Prop36
280
     0
102
RTVSPost2010PropOp36
 70
     1
102
RTVSPost2010Prop37
 90
       50
102
RTVSPost2010PropOp37
 70
     1
102
RTVSPost2010Prop38
140
0.0
102
RTVSPost2010PropOp38
 70
     1
102
RTVSPost2010Prop39
140
1.0
102
RTVSPost2010PropOp39
 70
     1
102
RTVSPost2010Prop40
 90
        0
102
RTVSPost2010PropOp40
 70
     1
102
RTVSPost2010Prop41ColorIndex
 90
       18
102
RTVSPost2010Prop41ColorRGB
 90
        0
102
RTVSPost2010PropOp41
 70
     1
102
RTVSPost2010Prop42
 90
       50
102
RTVSPost2010PropOp42
 70
     1
102
RTVSPost2010Prop43
 90
        3
102
RTVSPost2010PropOp43
 70
     1
102
RTVSPost2010Prop44ColorIndex
 90
        5
102
RTVSPost2010Prop44ColorRGB
 90
      255
102
RTVSPost2010PropOp44
 70
     1
102
RTVSPost2010Prop45
280
     0
102
RTVSPost2010PropOp45
 70
     1
102
RTVSPost2010Prop46
 90
       50
102
RTVSPost2010PropOp46
 70
     1
102
RTVSPost2010Prop47
 90
       50
102
RTVSPost2010PropOp47
 70
     1
102
RTVSPost2010Prop48
 90
       50
102
RTVSPost2010PropOp48
 70
     1
102
RTVSPost2010Prop49
280
     0
102
RTVSPost2010PropOp49
 70
     1
102
RTVSPost2010Prop50
 90
       50
102
RTVSPost2010PropOp50
 70
     1
102
RTVSPost2010Prop51ColorIndex
 90
      256
102
RTVSPost2010Prop51ColorRGB
 90
-16777216
102
RTVSPost2010PropOp51
 70
     0
102
RTVSPost2010Prop52
140
1.0
102
RTVSPost2010PropOp52
 70
     0
102
RTVSPost2010Prop53
 90
        2
102
RTVSPost2010PropOp53
 70
     1
102
RTVSPost2010Prop54
  1
strokes_ogs.tif
102
RTVSPost2010PropOp54
 70
     1
102
RTVSPost2010Prop55
280
     0
102
RTVSPost2010PropOp55
 70
     1
102
RTVSPost2010Prop56
140
1.0
102
RTVSPost2010PropOp56
 70
     1
102
RTVSPost2010Prop57
140
1.0
102
RTVSPost2010PropOp57
 70
     1
  0
XRECORD
  5
196
102
{ACAD_REACTORS
330
195
102
}
330
195
100
AcDbXrecord
280
     1
102
RTVSPost2010Prop28
280
     0
102
RTVSPost2010PropOp28
 70
     0
102
RTVSPost2010Prop29
280
     1
102
RTVSPost2010PropOp29
 70
     0
102
RTVSPost2010Prop30
280
     1
102
RTVSPost2010PropOp30
 70
     0
102
RTVSPost2010Prop31
280
     0
102
RTVSPost2010PropOp31
 70
     0
102
RTVSPost2010Prop32
280
     0
102
RTVSPost2010PropOp32
 70
     0
102
RTVSPost2010Prop33
280
     0
102
RTVSPost2010PropOp33
 70
     0
102
RTVSPost2010Prop34
280
     0
102
RTVSPost2010PropOp34
 70
     0
102
RTVSPost2010Prop35
280
     0
102
RTVSPost2010PropOp35
 70
     0
102
RTVSPost2010Prop36
280
     0
102
RTVSPost2010PropOp36
 70
     0
102
RTVSPost2010Prop37
 90
       50
102
RTVSPost2010PropOp37
 70
     0
102
RTVSPost2010Prop38
140
0.0
102
RTVSPost2010PropOp38
 70
     0
102
RTVSPost2010Prop39
140
1.0
102
RTVSPost2010PropOp39
 70
     0
102
RTVSPost2010Prop40
 90
        0
102
RTVSPost2010PropOp40
 70
     0
102
RTVSPost2010Prop41ColorIndex
 90
       18
102
RTVSPost2010Prop41ColorRGB
 90
        0
102
RTVSPost2010PropOp41
 70
     0
102
RTVSPost2010Prop42
 90
       50
102
RTVSPost2010PropOp42
 70
     0
102
RTVSPost2010Prop43
 90
        3
102
RTVSPost2010PropOp43
 70
     0
102
RTVSPost2010Prop44ColorIndex
 90
        5
102
RTVSPost2010Prop44ColorRGB
 90
      255
102
RTVSPost2010PropOp44
 70
     0
102
RTVSPost2010Prop45
280
     0
102
RTVSPost2010PropOp45
 70
     0
102
RTVSPost2010Prop46
 90
       50
102
RTVSPost2010PropOp46
 70
     0
102
RTVSPost2010Prop47
 90
       50
102
RTVSPost2010PropOp47
 70
     0
102
RTVSPost2010Prop48
 90
       50
102
RTVSPost2010PropOp48
 70
     0
102
RTVSPost2010Prop49
280
     0
102
RTVSPost2010PropOp49
 70
     0
102
RTVSPost2010Prop50
 90
       50
102
RTVSPost2010PropOp50
 70
     0
102
RTVSPost2010Prop51ColorIndex
 90
      256
102
RTVSPost2010Prop51ColorRGB
 90
-16777216
102
RTVSPost2010PropOp51
 70
     0
102
RTVSPost2010Prop52
140
1.0
102
RTVSPost2010PropOp52
 70
     0
102
RTVSPost2010Prop53
 90
        2
102
RTVSPost2010PropOp53
 70
     0
102
RTVSPost2010Prop54
  1
strokes_ogs.tif
102
RTVSPost2010PropOp54
 70
     0
102
RTVSPost2010Prop55
280
     0
102
RTVSPost2010PropOp55
 70
     0
102
RTVSPost2010Prop56
140
1.0
102
RTVSPost2010PropOp56
 70
     0
102
RTVSPost2010Prop57
140
1.0
102
RTVSPost2010PropOp57
 70
     0
  0
XRECORD
  5
186
102
{ACAD_REACTORS
330
185
102
}
330
185
100
AcDbXrecord
280
     1
102
RTVSPost2010Prop28
280
     0
102
RTVSPost2010PropOp28
 70
     1
102
RTVSPost2010Prop29
280
     1
102
RTVSPost2010PropOp29
 70
     1
102
RTVSPost2010Prop30
280
     1
102
RTVSPost2010PropOp30
 70
     1
102
RTVSPost2010Prop31
280
     0
102
RTVSPost2010PropOp31
 70
     1
102
RTVSPost2010Prop32
280
     0
102
RTVSPost2010PropOp32
 70
     1
102
RTVSPost2010Prop33
280
     0
102
RTVSPost2010PropOp33
 70
     1
102
RTVSPost2010Prop34
280
     0
102
RTVSPost2010PropOp34
 70
     1
102
RTVSPost2010Prop35
280
     0
102
RTVSPost2010PropOp35
 70
     1
102
RTVSPost2010Prop36
280
     0
102
RTVSPost2010PropOp36
 70
     1
102
RTVSPost2010Prop37
 90
       50
102
RTVSPost2010PropOp37
 70
     1
102
RTVSPost2010Prop38
140
0.0
102
RTVSPost2010PropOp38
 70
     1
102
RTVSPost2010Prop39
140
1.0
102
RTVSPost2010PropOp39
 70
     1
102
RTVSPost2010Prop40
 90
        0
102
RTVSPost2010PropOp40
 70
     1
102
RTVSPost2010Prop41ColorIndex
 90
       18
102
RTVSPost2010Prop41ColorRGB
 90
        0
102
RTVSPost2010PropOp41
 70
     1
102
RTVSPost2010Prop42
 90
       50
102
RTVSPost2010PropOp42
 70
     1
102
RTVSPost2010Prop43
 90
        3
102
RTVSPost2010PropOp43
 70
     1
102
RTVSPost2010Prop44ColorIndex
 90
        5
102
RTVSPost2010Prop44ColorRGB
 90
      255
102
RTVSPost2010PropOp44
 70
     1
102
RTVSPost2010Prop45
280
     0
102
RTVSPost2010PropOp45
 70
     1
102
RTVSPost2010Prop46
 90
       50
102
RTVSPost2010PropOp46
 70
     1
102
RTVSPost2010Prop47
 90
       50
102
RTVSPost2010PropOp47
 70
     1
102
RTVSPost2010Prop48
 90
       50
102
RTVSPost2010PropOp48
 70
     1
102
RTVSPost2010Prop49
280
     0
102
RTVSPost2010PropOp49
 70
     1
102
RTVSPost2010Prop50
 90
       50
102
RTVSPost2010PropOp50
 70
     1
102
RTVSPost2010Prop51ColorIndex
 90
      256
102
RTVSPost2010Prop51ColorRGB
 90
-16777216
102
RTVSPost2010PropOp51
 70
     0
102
RTVSPost2010Prop52
140
1.0
102
RTVSPost2010PropOp52
 70
     0
102
RTVSPost2010Prop53
 90
        2
102
RTVSPost2010PropOp53
 70
     1
102
RTVSPost2010Prop54
  1
strokes_ogs.tif
102
RTVSPost2010PropOp54
 70
     1
102
RTVSPost2010Prop55
280
     0
102
RTVSPost2010PropOp55
 70
     1
102
RTVSPost2010Prop56
140
1.0
102
RTVSPost2010PropOp56
 70
     1
102
RTVSPost2010Prop57
140
1.0
102
RTVSPost2010PropOp57
 70
     1
  0
XRECORD
  5
198
102
{ACAD_REACTORS
330
197
102
}
330
197
100
AcDbXrecord
280
     1
102
RTVSPost2010Prop28
280
     0
102
RTVSPost2010PropOp28
 70
     0
102
RTVSPost2010Prop29
280
     1
102
RTVSPost2010PropOp29
 70
     0
102
RTVSPost2010Prop30
280
     1
102
RTVSPost2010PropOp30
 70
     0
102
RTVSPost2010Prop31
280
     0
102
RTVSPost2010PropOp31
 70
     0
102
RTVSPost2010Prop32
280
     0
102
RTVSPost2010PropOp32
 70
     0
102
RTVSPost2010Prop33
280
     0
102
RTVSPost2010PropOp33
 70
     0
102
RTVSPost2010Prop34
280
     0
102
RTVSPost2010PropOp34
 70
     0
102
RTVSPost2010Prop35
280
     0
102
RTVSPost2010PropOp35
 70
     0
102
RTVSPost2010Prop36
280
     0
102
RTVSPost2010PropOp36
 70
     0
102
RTVSPost2010Prop37
 90
       50
102
RTVSPost2010PropOp37
 70
     0
102
RTVSPost2010Prop38
140
0.0
102
RTVSPost2010PropOp38
 70
     0
102
RTVSPost2010Prop39
140
1.0
102
RTVSPost2010PropOp39
 70
     0
102
RTVSPost2010Prop40
 90
        0
102
RTVSPost2010PropOp40
 70
     0
102
RTVSPost2010Prop41ColorIndex
 90
       18
102
RTVSPost2010Prop41ColorRGB
 90
        0
102
RTVSPost2010PropOp41
 70
     0
102
RTVSPost2010Prop42
 90
       50
102
RTVSPost2010PropOp42
 70
     0
102
RTVSPost2010Prop43
 90
        3
102
RTVSPost2010PropOp43
 70
     0
102
RTVSPost2010Prop44ColorIndex
 90
        5
102
RTVSPost2010Prop44ColorRGB
 90
      255
102
RTVSPost2010PropOp44
 70
     0
102
RTVSPost2010Prop45
280
     0
102
RTVSPost2010PropOp45
 70
     0
102
RTVSPost2010Prop46
 90
       50
102
RTVSPost2010PropOp46
 70
     0
102
RTVSPost2010Prop47
 90
       50
102
RTVSPost2010PropOp47
 70
     0
102
RTVSPost2010Prop48
 90
       50
102
RTVSPost2010PropOp48
 70
     0
102
RTVSPost2010Prop49
280
     0
102
RTVSPost2010PropOp49
 70
     0
102
RTVSPost2010Prop50
 90
       50
102
RTVSPost2010PropOp50
 70
     0
102
RTVSPost2010Prop51ColorIndex
 90
      256
102
RTVSPost2010Prop51ColorRGB
 90
-16777216
102
RTVSPost2010PropOp51
 70
     0
102
RTVSPost2010Prop52
140
1.0
102
RTVSPost2010PropOp52
 70
     0
102
RTVSPost2010Prop53
 90
        2
102
RTVSPost2010PropOp53
 70
     0
102
RTVSPost2010Prop54
  1
strokes_ogs.tif
102
RTVSPost2010PropOp54
 70
     0
102
RTVSPost2010Prop55
280
     0
102
RTVSPost2010PropOp55
 70
     0
102
RTVSPost2010Prop56
140
1.0
102
RTVSPost2010PropOp56
 70
     0
102
RTVSPost2010Prop57
140
1.0
102
RTVSPost2010PropOp57
 70
     0
  0
XRECORD
  5
17E
102
{ACAD_REACTORS
330
17D
102
}
330
17D
100
AcDbXrecord
280
     1
102
RTVSPost2010Prop28
280
     0
102
RTVSPost2010PropOp28
 70
     1
102
RTVSPost2010Prop29
280
     1
102
RTVSPost2010PropOp29
 70
     1
102
RTVSPost2010Prop30
280
     1
102
RTVSPost2010PropOp30
 70
     1
102
RTVSPost2010Prop31
280
     0
102
RTVSPost2010PropOp31
 70
     1
102
RTVSPost2010Prop32
280
     0
102
RTVSPost2010PropOp32
 70
     1
102
RTVSPost2010Prop33
280
     0
102
RTVSPost2010PropOp33
 70
     1
102
RTVSPost2010Prop34
280
     0
102
RTVSPost2010PropOp34
 70
     1
102
RTVSPost2010Prop35
280
     0
102
RTVSPost2010PropOp35
 70
     1
102
RTVSPost2010Prop36
280
     0
102
RTVSPost2010PropOp36
 70
     1
102
RTVSPost2010Prop37
 90
       50
102
RTVSPost2010PropOp37
 70
     1
102
RTVSPost2010Prop38
140
0.0
102
RTVSPost2010PropOp38
 70
     1
102
RTVSPost2010Prop39
140
1.0
102
RTVSPost2010PropOp39
 70
     1
102
RTVSPost2010Prop40
 90
        0
102
RTVSPost2010PropOp40
 70
     1
102
RTVSPost2010Prop41ColorIndex
 90
       18
102
RTVSPost2010Prop41ColorRGB
 90
        0
102
RTVSPost2010PropOp41
 70
     1
102
RTVSPost2010Prop42
 90
       50
102
RTVSPost2010PropOp42
 70
     1
102
RTVSPost2010Prop43
 90
        3
102
RTVSPost2010PropOp43
 70
     1
102
RTVSPost2010Prop44ColorIndex
 90
        5
102
RTVSPost2010Prop44ColorRGB
 90
      255
102
RTVSPost2010PropOp44
 70
     1
102
RTVSPost2010Prop45
280
     0
102
RTVSPost2010PropOp45
 70
     1
102
RTVSPost2010Prop46
 90
       50
102
RTVSPost2010PropOp46
 70
     1
102
RTVSPost2010Prop47
 90
       50
102
RTVSPost2010PropOp47
 70
     1
102
RTVSPost2010Prop48
 90
       50
102
RTVSPost2010PropOp48
 70
     1
102
RTVSPost2010Prop49
280
     0
102
RTVSPost2010PropOp49
 70
     1
102
RTVSPost2010Prop50
 90
       50
102
RTVSPost2010PropOp50
 70
     1
102
RTVSPost2010Prop51ColorIndex
 90
      256
102
RTVSPost2010Prop51ColorRGB
 90
-16777216
102
RTVSPost2010PropOp51
 70
     0
102
RTVSPost2010Prop52
140
1.0
102
RTVSPost2010PropOp52
 70
     0
102
RTVSPost2010Prop53
 90
        2
102
RTVSPost2010PropOp53
 70
     1
102
RTVSPost2010Prop54
  1
strokes_ogs.tif
102
RTVSPost2010PropOp54
 70
     1
102
RTVSPost2010Prop55
280
     0
102
RTVSPost2010PropOp55
 70
     1
102
RTVSPost2010Prop56
140
1.0
102
RTVSPost2010PropOp56
 70
     1
102
RTVSPost2010Prop57
140
1.0
102
RTVSPost2010PropOp57
 70
     1
  0
XRECORD
  5
194
102
{ACAD_REACTORS
330
193
102
}
330
193
100
AcDbXrecord
280
     1
102
RTVSPost2010Prop28
280
     0
102
RTVSPost2010PropOp28
 70
     1
102
RTVSPost2010Prop29
280
     1
102
RTVSPost2010PropOp29
 70
     1
102
RTVSPost2010Prop30
280
     1
102
RTVSPost2010PropOp30
 70
     1
102
RTVSPost2010Prop31
280
     0
102
RTVSPost2010PropOp31
 70
     1
102
RTVSPost2010Prop32
280
     0
102
RTVSPost2010PropOp32
 70
     1
102
RTVSPost2010Prop33
280
     0
102
RTVSPost2010PropOp33
 70
     1
102
RTVSPost2010Prop34
280
     0
102
RTVSPost2010PropOp34
 70
     1
102
RTVSPost2010Prop35
280
     0
102
RTVSPost2010PropOp35
 70
     1
102
RTVSPost2010Prop36
280
     0
102
RTVSPost2010PropOp36
 70
     1
102
RTVSPost2010Prop37
 90
       50
102
RTVSPost2010PropOp37
 70
     1
102
RTVSPost2010Prop38
140
0.0
102
RTVSPost2010PropOp38
 70
     1
102
RTVSPost2010Prop39
140
1.0
102
RTVSPost2010PropOp39
 70
     1
102
RTVSPost2010Prop40
 90
        0
102
RTVSPost2010PropOp40
 70
     1
102
RTVSPost2010Prop41ColorIndex
 90
       18
102
RTVSPost2010Prop41ColorRGB
 90
        0
102
RTVSPost2010PropOp41
 70
     1
102
RTVSPost2010Prop42
 90
       50
102
RTVSPost2010PropOp42
 70
     1
102
RTVSPost2010Prop43
 90
        3
102
RTVSPost2010PropOp43
 70
     1
102
RTVSPost2010Prop44ColorIndex
 90
        5
102
RTVSPost2010Prop44ColorRGB
 90
      255
102
RTVSPost2010PropOp44
 70
     1
102
RTVSPost2010Prop45
280
     0
102
RTVSPost2010PropOp45
 70
     1
102
RTVSPost2010Prop46
 90
       50
102
RTVSPost2010PropOp46
 70
     1
102
RTVSPost2010Prop47
 90
       50
102
RTVSPost2010PropOp47
 70
     1
102
RTVSPost2010Prop48
 90
       50
102
RTVSPost2010PropOp48
 70
     1
102
RTVSPost2010Prop49
280
     0
102
RTVSPost2010PropOp49
 70
     1
102
RTVSPost2010Prop50
 90
       50
102
RTVSPost2010PropOp50
 70
     1
102
RTVSPost2010Prop51ColorIndex
 90
      256
102
RTVSPost2010Prop51ColorRGB
 90
-16777216
102
RTVSPost2010PropOp51
 70
     0
102
RTVSPost2010Prop52
140
1.0
102
RTVSPost2010PropOp52
 70
     0
102
RTVSPost2010Prop53
 90
        2
102
RTVSPost2010PropOp53
 70
     1
102
RTVSPost2010Prop54
  1
strokes_ogs.tif
102
RTVSPost2010PropOp54
 70
     1
102
RTVSPost2010Prop55
280
     0
102
RTVSPost2010PropOp55
 70
     1
102
RTVSPost2010Prop56
140
1.0
102
RTVSPost2010PropOp56
 70
     1
102
RTVSPost2010Prop57
140
1.0
102
RTVSPost2010PropOp57
 70
     1
  0
XRECORD
  5
192
102
{ACAD_REACTORS
330
191
102
}
330
191
100
AcDbXrecord
280
     1
102
RTVSPost2010Prop28
280
     0
102
RTVSPost2010PropOp28
 70
     1
102
RTVSPost2010Prop29
280
     1
102
RTVSPost2010PropOp29
 70
     1
102
RTVSPost2010Prop30
280
     1
102
RTVSPost2010PropOp30
 70
     1
102
RTVSPost2010Prop31
280
     0
102
RTVSPost2010PropOp31
 70
     1
102
RTVSPost2010Prop32
280
     0
102
RTVSPost2010PropOp32
 70
     1
102
RTVSPost2010Prop33
280
     0
102
RTVSPost2010PropOp33
 70
     1
102
RTVSPost2010Prop34
280
     0
102
RTVSPost2010PropOp34
 70
     1
102
RTVSPost2010Prop35
280
     0
102
RTVSPost2010PropOp35
 70
     1
102
RTVSPost2010Prop36
280
     0
102
RTVSPost2010PropOp36
 70
     1
102
RTVSPost2010Prop37
 90
       50
102
RTVSPost2010PropOp37
 70
     1
102
RTVSPost2010Prop38
140
0.0
102
RTVSPost2010PropOp38
 70
     1
102
RTVSPost2010Prop39
140
1.0
102
RTVSPost2010PropOp39
 70
     1
102
RTVSPost2010Prop40
 90
        0
102
RTVSPost2010PropOp40
 70
     1
102
RTVSPost2010Prop41ColorIndex
 90
       18
102
RTVSPost2010Prop41ColorRGB
 90
        0
102
RTVSPost2010PropOp41
 70
     1
102
RTVSPost2010Prop42
 90
       50
102
RTVSPost2010PropOp42
 70
     1
102
RTVSPost2010Prop43
 90
        3
102
RTVSPost2010PropOp43
 70
     1
102
RTVSPost2010Prop44ColorIndex
 90
        5
102
RTVSPost2010Prop44ColorRGB
 90
      255
102
RTVSPost2010PropOp44
 70
     1
102
RTVSPost2010Prop45
280
     0
102
RTVSPost2010PropOp45
 70
     1
102
RTVSPost2010Prop46
 90
       50
102
RTVSPost2010PropOp46
 70
     1
102
RTVSPost2010Prop47
 90
       50
102
RTVSPost2010PropOp47
 70
     1
102
RTVSPost2010Prop48
 90
       50
102
RTVSPost2010PropOp48
 70
     1
102
RTVSPost2010Prop49
280
     0
102
RTVSPost2010PropOp49
 70
     1
102
RTVSPost2010Prop50
 90
       50
102
RTVSPost2010PropOp50
 70
     1
102
RTVSPost2010Prop51ColorIndex
 90
      256
102
RTVSPost2010Prop51ColorRGB
 90
-16777216
102
RTVSPost2010PropOp51
 70
     0
102
RTVSPost2010Prop52
140
1.0
102
RTVSPost2010PropOp52
 70
     0
102
RTVSPost2010Prop53
 90
        2
102
RTVSPost2010PropOp53
 70
     1
102
RTVSPost2010Prop54
  1
strokes_ogs.tif
102
RTVSPost2010PropOp54
 70
     1
102
RTVSPost2010Prop55
280
     0
102
RTVSPost2010PropOp55
 70
     1
102
RTVSPost2010Prop56
140
1.0
102
RTVSPost2010PropOp56
 70
     1
102
RTVSPost2010Prop57
140
1.0
102
RTVSPost2010PropOp57
 70
     1
  0
XRECORD
  5
18C
102
{ACAD_REACTORS
330
18B
102
}
330
18B
100
AcDbXrecord
280
     1
102
RTVSPost2010Prop28
280
     0
102
RTVSPost2010PropOp28
 70
     1
102
RTVSPost2010Prop29
280
     1
102
RTVSPost2010PropOp29
 70
     1
102
RTVSPost2010Prop30
280
     1
102
RTVSPost2010PropOp30
 70
     1
102
RTVSPost2010Prop31
280
     0
102
RTVSPost2010PropOp31
 70
     1
102
RTVSPost2010Prop32
280
     0
102
RTVSPost2010PropOp32
 70
     1
102
RTVSPost2010Prop33
280
     0
102
RTVSPost2010PropOp33
 70
     1
102
RTVSPost2010Prop34
280
     0
102
RTVSPost2010PropOp34
 70
     1
102
RTVSPost2010Prop35
280
     0
102
RTVSPost2010PropOp35
 70
     1
102
RTVSPost2010Prop36
280
     0
102
RTVSPost2010PropOp36
 70
     1
102
RTVSPost2010Prop37
 90
       50
102
RTVSPost2010PropOp37
 70
     1
102
RTVSPost2010Prop38
140
0.0
102
RTVSPost2010PropOp38
 70
     1
102
RTVSPost2010Prop39
140
1.0
102
RTVSPost2010PropOp39
 70
     1
102
RTVSPost2010Prop40
 90
        0
102
RTVSPost2010PropOp40
 70
     1
102
RTVSPost2010Prop41ColorIndex
 90
       18
102
RTVSPost2010Prop41ColorRGB
 90
        0
102
RTVSPost2010PropOp41
 70
     1
102
RTVSPost2010Prop42
 90
       50
102
RTVSPost2010PropOp42
 70
     1
102
RTVSPost2010Prop43
 90
        3
102
RTVSPost2010PropOp43
 70
     1
102
RTVSPost2010Prop44ColorIndex
 90
        5
102
RTVSPost2010Prop44ColorRGB
 90
      255
102
RTVSPost2010PropOp44
 70
     1
102
RTVSPost2010Prop45
280
     0
102
RTVSPost2010PropOp45
 70
     1
102
RTVSPost2010Prop46
 90
       50
102
RTVSPost2010PropOp46
 70
     1
102
RTVSPost2010Prop47
 90
       50
102
RTVSPost2010PropOp47
 70
     1
102
RTVSPost2010Prop48
 90
       50
102
RTVSPost2010PropOp48
 70
     1
102
RTVSPost2010Prop49
280
     0
102
RTVSPost2010PropOp49
 70
     1
102
RTVSPost2010Prop50
 90
       50
102
RTVSPost2010PropOp50
 70
     1
102
RTVSPost2010Prop51ColorIndex
 90
      256
102
RTVSPost2010Prop51ColorRGB
 90
-16777216
102
RTVSPost2010PropOp51
 70
     0
102
RTVSPost2010Prop52
140
1.0
102
RTVSPost2010PropOp52
 70
     0
102
RTVSPost2010Prop53
 90
        2
102
RTVSPost2010PropOp53
 70
     1
102
RTVSPost2010Prop54
  1
strokes_ogs.tif
102
RTVSPost2010PropOp54
 70
     1
102
RTVSPost2010Prop55
280
     0
102
RTVSPost2010PropOp55
 70
     1
102
RTVSPost2010Prop56
140
1.0
102
RTVSPost2010PropOp56
 70
     1
102
RTVSPost2010Prop57
140
1.0
102
RTVSPost2010PropOp57
 70
     1
  0
XRECORD
  5
18E
102
{ACAD_REACTORS
330
18D
102
}
330
18D
100
AcDbXrecord
280
     1
102
RTVSPost2010Prop28
280
     0
102
RTVSPost2010PropOp28
 70
     1
102
RTVSPost2010Prop29
280
     1
102
RTVSPost2010PropOp29
 70
     1
102
RTVSPost2010Prop30
280
     1
102
RTVSPost2010PropOp30
 70
     1
102
RTVSPost2010Prop31
280
     0
102
RTVSPost2010PropOp31
 70
     1
102
RTVSPost2010Prop32
280
     0
102
RTVSPost2010PropOp32
 70
     1
102
RTVSPost2010Prop33
280
     0
102
RTVSPost2010PropOp33
 70
     1
102
RTVSPost2010Prop34
280
     0
102
RTVSPost2010PropOp34
 70
     1
102
RTVSPost2010Prop35
280
     0
102
RTVSPost2010PropOp35
 70
     1
102
RTVSPost2010Prop36
280
     0
102
RTVSPost2010PropOp36
 70
     1
102
RTVSPost2010Prop37
 90
       50
102
RTVSPost2010PropOp37
 70
     1
102
RTVSPost2010Prop38
140
0.0
102
RTVSPost2010PropOp38
 70
     1
102
RTVSPost2010Prop39
140
1.0
102
RTVSPost2010PropOp39
 70
     1
102
RTVSPost2010Prop40
 90
        0
102
RTVSPost2010PropOp40
 70
     1
102
RTVSPost2010Prop41ColorIndex
 90
       18
102
RTVSPost2010Prop41ColorRGB
 90
        0
102
RTVSPost2010PropOp41
 70
     1
102
RTVSPost2010Prop42
 90
       50
102
RTVSPost2010PropOp42
 70
     1
102
RTVSPost2010Prop43
 90
        3
102
RTVSPost2010PropOp43
 70
     1
102
RTVSPost2010Prop44ColorIndex
 90
        5
102
RTVSPost2010Prop44ColorRGB
 90
      255
102
RTVSPost2010PropOp44
 70
     1
102
RTVSPost2010Prop45
280
     0
102
RTVSPost2010PropOp45
 70
     1
102
RTVSPost2010Prop46
 90
       50
102
RTVSPost2010PropOp46
 70
     1
102
RTVSPost2010Prop47
 90
       50
102
RTVSPost2010PropOp47
 70
     1
102
RTVSPost2010Prop48
 90
       50
102
RTVSPost2010PropOp48
 70
     1
102
RTVSPost2010Prop49
280
     0
102
RTVSPost2010PropOp49
 70
     1
102
RTVSPost2010Prop50
 90
       50
102
RTVSPost2010PropOp50
 70
     1
102
RTVSPost2010Prop51ColorIndex
 90
      256
102
RTVSPost2010Prop51ColorRGB
 90
-16777216
102
RTVSPost2010PropOp51
 70
     0
102
RTVSPost2010Prop52
140
1.0
102
RTVSPost2010PropOp52
 70
     0
102
RTVSPost2010Prop53
 90
        2
102
RTVSPost2010PropOp53
 70
     1
102
RTVSPost2010Prop54
  1
strokes_ogs.tif
102
RTVSPost2010PropOp54
 70
     1
102
RTVSPost2010Prop55
280
     0
102
RTVSPost2010PropOp55
 70
     1
102
RTVSPost2010Prop56
140
1.0
102
RTVSPost2010PropOp56
 70
     1
102
RTVSPost2010Prop57
140
1.0
102
RTVSPost2010PropOp57
 70
     1
  0
XRECORD
  5
184
102
{ACAD_REACTORS
330
183
102
}
330
183
100
AcDbXrecord
280
     1
102
RTVSPost2010Prop28
280
     0
102
RTVSPost2010PropOp28
 70
     1
102
RTVSPost2010Prop29
280
     1
102
RTVSPost2010PropOp29
 70
     1
102
RTVSPost2010Prop30
280
     1
102
RTVSPost2010PropOp30
 70
     1
102
RTVSPost2010Prop31
280
     0
102
RTVSPost2010PropOp31
 70
     1
102
RTVSPost2010Prop32
280
     0
102
RTVSPost2010PropOp32
 70
     1
102
RTVSPost2010Prop33
280
     0
102
RTVSPost2010PropOp33
 70
     1
102
RTVSPost2010Prop34
280
     0
102
RTVSPost2010PropOp34
 70
     1
102
RTVSPost2010Prop35
280
     0
102
RTVSPost2010PropOp35
 70
     1
102
RTVSPost2010Prop36
280
     0
102
RTVSPost2010PropOp36
 70
     1
102
RTVSPost2010Prop37
 90
       50
102
RTVSPost2010PropOp37
 70
     1
102
RTVSPost2010Prop38
140
0.0
102
RTVSPost2010PropOp38
 70
     1
102
RTVSPost2010Prop39
140
1.0
102
RTVSPost2010PropOp39
 70
     1
102
RTVSPost2010Prop40
 90
        0
102
RTVSPost2010PropOp40
 70
     1
102
RTVSPost2010Prop41ColorIndex
 90
       18
102
RTVSPost2010Prop41ColorRGB
 90
        0
102
RTVSPost2010PropOp41
 70
     1
102
RTVSPost2010Prop42
 90
       50
102
RTVSPost2010PropOp42
 70
     1
102
RTVSPost2010Prop43
 90
        3
102
RTVSPost2010PropOp43
 70
     1
102
RTVSPost2010Prop44ColorIndex
 90
        5
102
RTVSPost2010Prop44ColorRGB
 90
      255
102
RTVSPost2010PropOp44
 70
     1
102
RTVSPost2010Prop45
280
     0
102
RTVSPost2010PropOp45
 70
     1
102
RTVSPost2010Prop46
 90
       50
102
RTVSPost2010PropOp46
 70
     1
102
RTVSPost2010Prop47
 90
       50
102
RTVSPost2010PropOp47
 70
     1
102
RTVSPost2010Prop48
 90
       50
102
RTVSPost2010PropOp48
 70
     1
102
RTVSPost2010Prop49
280
     0
102
RTVSPost2010PropOp49
 70
     1
102
RTVSPost2010Prop50
 90
       50
102
RTVSPost2010PropOp50
 70
     1
102
RTVSPost2010Prop51ColorIndex
 90
      256
102
RTVSPost2010Prop51ColorRGB
 90
-16777216
102
RTVSPost2010PropOp51
 70
     0
102
RTVSPost2010Prop52
140
1.0
102
RTVSPost2010PropOp52
 70
     0
102
RTVSPost2010Prop53
 90
        2
102
RTVSPost2010PropOp53
 70
     1
102
RTVSPost2010Prop54
  1
strokes_ogs.tif
102
RTVSPost2010PropOp54
 70
     1
102
RTVSPost2010Prop55
280
     0
102
RTVSPost2010PropOp55
 70
     1
102
RTVSPost2010Prop56
140
1.0
102
RTVSPost2010PropOp56
 70
     1
102
RTVSPost2010Prop57
140
1.0
102
RTVSPost2010PropOp57
 70
     1
  0
XRECORD
  5
178
102
{ACAD_REACTORS
330
177
102
}
330
177
100
AcDbXrecord
280
     1
102
RTVSPost2010Prop28
280
     0
102
RTVSPost2010PropOp28
 70
     1
102
RTVSPost2010Prop29
280
     1
102
RTVSPost2010PropOp29
 70
     1
102
RTVSPost2010Prop30
280
     1
102
RTVSPost2010PropOp30
 70
     1
102
RTVSPost2010Prop31
280
     0
102
RTVSPost2010PropOp31
 70
     1
102
RTVSPost2010Prop32
280
     0
102
RTVSPost2010PropOp32
 70
     1
102
RTVSPost2010Prop33
280
     0
102
RTVSPost2010PropOp33
 70
     1
102
RTVSPost2010Prop34
280
     0
102
RTVSPost2010PropOp34
 70
     1
102
RTVSPost2010Prop35
280
     0
102
RTVSPost2010PropOp35
 70
     1
102
RTVSPost2010Prop36
280
     0
102
RTVSPost2010PropOp36
 70
     1
102
RTVSPost2010Prop37
 90
       50
102
RTVSPost2010PropOp37
 70
     1
102
RTVSPost2010Prop38
140
0.0
102
RTVSPost2010PropOp38
 70
     1
102
RTVSPost2010Prop39
140
1.0
102
RTVSPost2010PropOp39
 70
     1
102
RTVSPost2010Prop40
 90
        0
102
RTVSPost2010PropOp40
 70
     1
102
RTVSPost2010Prop41ColorIndex
 90
       18
102
RTVSPost2010Prop41ColorRGB
 90
        0
102
RTVSPost2010PropOp41
 70
     1
102
RTVSPost2010Prop42
 90
       50
102
RTVSPost2010PropOp42
 70
     1
102
RTVSPost2010Prop43
 90
        3
102
RTVSPost2010PropOp43
 70
     1
102
RTVSPost2010Prop44ColorIndex
 90
        5
102
RTVSPost2010Prop44ColorRGB
 90
      255
102
RTVSPost2010PropOp44
 70
     1
102
RTVSPost2010Prop45
280
     0
102
RTVSPost2010PropOp45
 70
     1
102
RTVSPost2010Prop46
 90
       50
102
RTVSPost2010PropOp46
 70
     1
102
RTVSPost2010Prop47
 90
       50
102
RTVSPost2010PropOp47
 70
     1
102
RTVSPost2010Prop48
 90
       50
102
RTVSPost2010PropOp48
 70
     1
102
RTVSPost2010Prop49
280
     0
102
RTVSPost2010PropOp49
 70
     1
102
RTVSPost2010Prop50
 90
       50
102
RTVSPost2010PropOp50
 70
     1
102
RTVSPost2010Prop51ColorIndex
 90
      256
102
RTVSPost2010Prop51ColorRGB
 90
-16777216
102
RTVSPost2010PropOp51
 70
     0
102
RTVSPost2010Prop52
140
1.0
102
RTVSPost2010PropOp52
 70
     0
102
RTVSPost2010Prop53
 90
        2
102
RTVSPost2010PropOp53
 70
     1
102
RTVSPost2010Prop54
  1
strokes_ogs.tif
102
RTVSPost2010PropOp54
 70
     1
102
RTVSPost2010Prop55
280
     0
102
RTVSPost2010PropOp55
 70
     1
102
RTVSPost2010Prop56
140
1.0
102
RTVSPost2010PropOp56
 70
     1
102
RTVSPost2010Prop57
140
1.0
102
RTVSPost2010PropOp57
 70
     1
  0
XRECORD
  5
190
102
{ACAD_REACTORS
330
18F
102
}
330
18F
100
AcDbXrecord
280
     1
102
RTVSPost2010Prop28
280
     0
102
RTVSPost2010PropOp28
 70
     1
102
RTVSPost2010Prop29
280
     1
102
RTVSPost2010PropOp29
 70
     1
102
RTVSPost2010Prop30
280
     1
102
RTVSPost2010PropOp30
 70
     1
102
RTVSPost2010Prop31
280
     0
102
RTVSPost2010PropOp31
 70
     1
102
RTVSPost2010Prop32
280
     0
102
RTVSPost2010PropOp32
 70
     1
102
RTVSPost2010Prop33
280
     0
102
RTVSPost2010PropOp33
 70
     1
102
RTVSPost2010Prop34
280
     0
102
RTVSPost2010PropOp34
 70
     1
102
RTVSPost2010Prop35
280
     0
102
RTVSPost2010PropOp35
 70
     1
102
RTVSPost2010Prop36
280
     0
102
RTVSPost2010PropOp36
 70
     1
102
RTVSPost2010Prop37
 90
       50
102
RTVSPost2010PropOp37
 70
     1
102
RTVSPost2010Prop38
140
0.0
102
RTVSPost2010PropOp38
 70
     1
102
RTVSPost2010Prop39
140
1.0
102
RTVSPost2010PropOp39
 70
     1
102
RTVSPost2010Prop40
 90
        0
102
RTVSPost2010PropOp40
 70
     1
102
RTVSPost2010Prop41ColorIndex
 90
       18
102
RTVSPost2010Prop41ColorRGB
 90
        0
102
RTVSPost2010PropOp41
 70
     1
102
RTVSPost2010Prop42
 90
       50
102
RTVSPost2010PropOp42
 70
     1
102
RTVSPost2010Prop43
 90
        3
102
RTVSPost2010PropOp43
 70
     1
102
RTVSPost2010Prop44ColorIndex
 90
        5
102
RTVSPost2010Prop44ColorRGB
 90
      255
102
RTVSPost2010PropOp44
 70
     1
102
RTVSPost2010Prop45
280
     0
102
RTVSPost2010PropOp45
 70
     1
102
RTVSPost2010Prop46
 90
       50
102
RTVSPost2010PropOp46
 70
     1
102
RTVSPost2010Prop47
 90
       50
102
RTVSPost2010PropOp47
 70
     1
102
RTVSPost2010Prop48
 90
       50
102
RTVSPost2010PropOp48
 70
     1
102
RTVSPost2010Prop49
280
     0
102
RTVSPost2010PropOp49
 70
     1
102
RTVSPost2010Prop50
 90
       50
102
RTVSPost2010PropOp50
 70
     1
102
RTVSPost2010Prop51ColorIndex
 90
      256
102
RTVSPost2010Prop51ColorRGB
 90
-16777216
102
RTVSPost2010PropOp51
 70
     0
102
RTVSPost2010Prop52
140
1.0
102
RTVSPost2010PropOp52
 70
     0
102
RTVSPost2010Prop53
 90
        2
102
RTVSPost2010PropOp53
 70
     1
102
RTVSPost2010Prop54
  1
strokes_ogs.tif
102
RTVSPost2010PropOp54
 70
     1
102
RTVSPost2010Prop55
280
     0
102
RTVSPost2010PropOp55
 70
     1
102
RTVSPost2010Prop56
140
1.0
102
RTVSPost2010PropOp56
 70
     1
102
RTVSPost2010Prop57
140
1.0
102
RTVSPost2010PropOp57
 70
     1
  0
ENDSEC
  0
EOF
