  0
SECTION
  2
HEADER
  9
$ACADVER
  1
AC1024
  9
$ACADMAINTVER
 70
   205
  9
$DWGCODEPAGE
  3
ANSI_1251
  9
$INSBASE
 10
0.0
 20
0.0
 30
0.0
  9
$EXTMIN
 10
1.000000000000000E+20
 20
1.000000000000000E+20
 30
1.000000000000000E+20
  9
$EXTMAX
 10
-1.000000000000000E+20
 20
-1.000000000000000E+20
 30
-1.000000000000000E+20
  9
$LIMMIN
 10
0.0
 20
0.0
  9
$LIMMAX
 10
12.0
 20
9.0
  9
$ORTHOMODE
 70
     0
  9
$REGENMODE
 70
     1
  9
$FILLMODE
 70
     1
  9
$QTEXTMODE
 70
     0
  9
$MIRRTEXT
 70
     1
  9
$LTSCALE
 40
1.0
  9
$ATTMODE
 70
     1
  9
$TEXTSIZE
 40
0.2
  9
$TRACEWID
 40
0.05
  9
$TEXTSTYLE
  7
Standard
  9
$CLAYER
  8
OracDecor_cornice_mouldings
  9
$CELTYPE
  6
ByLayer
  9
$CECOLOR
 62
   256
  9
$CELTSCALE
 40
1.0
  9
$DISPSILH
 70
     0
  9
$DIMSCALE
 40
1.0
  9
$DIMASZ
 40
0.18
  9
$DIMEXO
 40
0.0625
  9
$DIMDLI
 40
0.38
  9
$DIMRND
 40
0.0
  9
$DIMDLE
 40
0.0
  9
$DIMEXE
 40
0.18
  9
$DIMTP
 40
0.0
  9
$DIMTM
 40
0.0
  9
$DIMTXT
 40
0.18
  9
$DIMCEN
 40
0.09
  9
$DIMTSZ
 40
0.0
  9
$DIMTOL
 70
     0
  9
$DIMLIM
 70
     0
  9
$DIMTIH
 70
     1
  9
$DIMTOH
 70
     1
  9
$DIMSE1
 70
     0
  9
$DIMSE2
 70
     0
  9
$DIMTAD
 70
     0
  9
$DIMZIN
 70
     0
  9
$DIMBLK
  1

  9
$DIMASO
 70
     1
  9
$DIMSHO
 70
     1
  9
$DIMPOST
  1

  9
$DIMAPOST
  1

  9
$DIMALT
 70
     0
  9
$DIMALTD
 70
     2
  9
$DIMALTF
 40
25.4
  9
$DIMLFAC
 40
1.0
  9
$DIMTOFL
 70
     0
  9
$DIMTVP
 40
0.0
  9
$DIMTIX
 70
     0
  9
$DIMSOXD
 70
     0
  9
$DIMSAH
 70
     0
  9
$DIMBLK1
  1

  9
$DIMBLK2
  1

  9
$DIMSTYLE
  2
Standard
  9
$DIMCLRD
 70
     0
  9
$DIMCLRE
 70
     0
  9
$DIMCLRT
 70
     0
  9
$DIMTFAC
 40
1.0
  9
$DIMGAP
 40
0.09
  9
$DIMJUST
 70
     0
  9
$DIMSD1
 70
     0
  9
$DIMSD2
 70
     0
  9
$DIMTOLJ
 70
     1
  9
$DIMTZIN
 70
     0
  9
$DIMALTZ
 70
     0
  9
$DIMALTTZ
 70
     0
  9
$DIMUPT
 70
     0
  9
$DIMDEC
 70
     4
  9
$DIMTDEC
 70
     4
  9
$DIMALTU
 70
     2
  9
$DIMALTTD
 70
     2
  9
$DIMTXSTY
  7
Standard
  9
$DIMAUNIT
 70
     0
  9
$DIMADEC
 70
     0
  9
$DIMALTRND
 40
0.0
  9
$DIMAZIN
 70
     0
  9
$DIMDSEP
 70
    46
  9
$DIMATFIT
 70
     3
  9
$DIMFRAC
 70
     0
  9
$DIMLDRBLK
  1

  9
$DIMLUNIT
 70
     2
  9
$DIMLWD
 70
    -2
  9
$DIMLWE
 70
    -2
  9
$DIMTMOVE
 70
     0
  9
$DIMFXL
 40
1.0
  9
$DIMFXLON
 70
     0
  9
$DIMJOGANG
 40
0.7853981633974483
  9
$DIMTFILL
 70
     0
  9
$DIMTFILLCLR
 70
     0
  9
$DIMARCSYM
 70
     0
  9
$DIMLTYPE
  6

  9
$DIMLTEX1
  6

  9
$DIMLTEX2
  6

  9
$DIMTXTDIRECTION
 70
     0
  9
$LUNITS
 70
     2
  9
$LUPREC
 70
     4
  9
$SKETCHINC
 40
0.1
  9
$FILLETRAD
 40
0.5
  9
$AUNITS
 70
     0
  9
$AUPREC
 70
     0
  9
$MENU
  1
.
  9
$ELEVATION
 40
0.0
  9
$PELEVATION
 40
0.0
  9
$THICKNESS
 40
0.0
  9
$LIMCHECK
 70
     0
  9
$CHAMFERA
 40
0.5
  9
$CHAMFERB
 40
0.5
  9
$CHAMFERC
 40
1.0
  9
$CHAMFERD
 40
0.0
  9
$SKPOLY
 70
     0
  9
$TDCREATE
 40
2451380.930432396
  9
$TDUCREATE
 40
2451380.805432396
  9
$TDUPDATE
 40
2451380.966180555
  9
$TDUUPDATE
 40
2451380.841180556
  9
$TDINDWG
 40
0.0075647685
  9
$TDUSRTIMER
 40
0.0075557292
  9
$USRTIMER
 70
     1
  9
$ANGBASE
 50
0.0
  9
$ANGDIR
 70
     0
  9
$PDMODE
 70
     0
  9
$PDSIZE
 40
0.0
  9
$PLINEWID
 40
0.0
  9
$SPLFRAME
 70
     0
  9
$SPLINETYPE
 70
     6
  9
$SPLINESEGS
 70
     8
  9
$HANDSEED
  5
1A1
  9
$SURFTAB1
 70
     6
  9
$SURFTAB2
 70
     6
  9
$SURFTYPE
 70
     6
  9
$SURFU
 70
     6
  9
$SURFV
 70
     6
  9
$UCSBASE
  2

  9
$UCSNAME
  2

  9
$UCSORG
 10
0.0
 20
0.0
 30
0.0
  9
$UCSXDIR
 10
1.0
 20
0.0
 30
0.0
  9
$UCSYDIR
 10
0.0
 20
1.0
 30
0.0
  9
$UCSORTHOREF
  2

  9
$UCSORTHOVIEW
 70
     0
  9
$UCSORGTOP
 10
0.0
 20
0.0
 30
0.0
  9
$UCSORGBOTTOM
 10
0.0
 20
0.0
 30
0.0
  9
$UCSORGLEFT
 10
0.0
 20
0.0
 30
0.0
  9
$UCSORGRIGHT
 10
0.0
 20
0.0
 30
0.0
  9
$UCSORGFRONT
 10
0.0
 20
0.0
 30
0.0
  9
$UCSORGBACK
 10
0.0
 20
0.0
 30
0.0
  9
$PUCSBASE
  2

  9
$PUCSNAME
  2

  9
$PUCSORG
 10
0.0
 20
0.0
 30
0.0
  9
$PUCSXDIR
 10
1.0
 20
0.0
 30
0.0
  9
$PUCSYDIR
 10
0.0
 20
1.0
 30
0.0
  9
$PUCSORTHOREF
  2

  9
$PUCSORTHOVIEW
 70
     0
  9
$PUCSORGTOP
 10
0.0
 20
0.0
 30
0.0
  9
$PUCSORGBOTTOM
 10
0.0
 20
0.0
 30
0.0
  9
$PUCSORGLEFT
 10
0.0
 20
0.0
 30
0.0
  9
$PUCSORGRIGHT
 10
0.0
 20
0.0
 30
0.0
  9
$PUCSORGFRONT
 10
0.0
 20
0.0
 30
0.0
  9
$PUCSORGBACK
 10
0.0
 20
0.0
 30
0.0
  9
$USERI1
 70
     0
  9
$USERI2
 70
     0
  9
$USERI3
 70
     0
  9
$USERI4
 70
     0
  9
$USERI5
 70
     0
  9
$USERR1
 40
0.0
  9
$USERR2
 40
0.0
  9
$USERR3
 40
0.0
  9
$USERR4
 40
0.0
  9
$USERR5
 40
0.0
  9
$WORLDVIEW
 70
     1
  9
$SHADEDGE
 70
     3
  9
$SHADEDIF
 70
    70
  9
$TILEMODE
 70
     1
  9
$MAXACTVP
 70
    64
  9
$PINSBASE
 10
0.0
 20
0.0
 30
0.0
  9
$PLIMCHECK
 70
     0
  9
$PEXTMIN
 10
1.000000000000000E+20
 20
1.000000000000000E+20
 30
1.000000000000000E+20
  9
$PEXTMAX
 10
-1.000000000000000E+20
 20
-1.000000000000000E+20
 30
-1.000000000000000E+20
  9
$PLIMMIN
 10
0.0
 20
0.0
  9
$PLIMMAX
 10
12.0
 20
9.0
  9
$UNITMODE
 70
     0
  9
$VISRETAIN
 70
     1
  9
$PLINEGEN
 70
     0
  9
$PSLTSCALE
 70
     1
  9
$TREEDEPTH
 70
  3020
  9
$CMLSTYLE
  2
Standard
  9
$CMLJUST
 70
     0
  9
$CMLSCALE
 40
1.0
  9
$PROXYGRAPHICS
 70
     1
  9
$MEASUREMENT
 70
     1
  9
$CELWEIGHT
370
    -1
  9
$ENDCAPS
280
     0
  9
$JOINSTYLE
280
     0
  9
$LWDISPLAY
290
     0
  9
$INSUNITS
 70
     4
  9
$HYPERLINKBASE
  1

  9
$STYLESHEET
  1

  9
$XEDIT
290
     1
  9
$CEPSNTYPE
380
     0
  9
$PSTYLEMODE
290
     1
  9
$FINGERPRINTGUID
  2
{12F50282-3ED8-11D3-A8B7-0060B0F84BC6}
  9
$VERSIONGUID
  2
{12F50293-3ED8-11D3-A8B7-0060B0F84BC6}
  9
$EXTNAMES
290
     1
  9
$PSVPSCALE
 40
0.0
  9
$OLESTARTUP
290
     0
  9
$SORTENTS
280
   127
  9
$INDEXCTL
280
     0
  9
$HIDETEXT
280
     0
  9
$XCLIPFRAME
280
     2
  9
$HALOGAP
280
     0
  9
$OBSCOLOR
 70
   257
  9
$OBSLTYPE
280
     0
  9
$INTERSECTIONDISPLAY
280
     0
  9
$INTERSECTIONCOLOR
 70
   257
  9
$DIMASSOC
280
     1
  9
$PROJECTNAME
  1

  9
$CAMERADISPLAY
290
     0
  9
$LENSLENGTH
 40
50.0
  9
$CAMERAHEIGHT
 40
0.0
  9
$STEPSPERSEC
 40
2.0
  9
$STEPSIZE
 40
6.0
  9
$3DDWFPREC
 40
2.0
  9
$PSOLWIDTH
 40
0.25
  9
$PSOLHEIGHT
 40
4.0
  9
$LOFTANG1
 40
1.570796326794896
  9
$LOFTANG2
 40
1.570796326794896
  9
$LOFTMAG1
 40
0.0
  9
$LOFTMAG2
 40
0.0
  9
$LOFTPARAM
 70
     7
  9
$LOFTNORMALS
280
     1
  9
$LATITUDE
 40
37.795
  9
$LONGITUDE
 40
-122.394
  9
$NORTHDIRECTION
 40
0.0
  9
$TIMEZONE
 70
 -8000
  9
$LIGHTGLYPHDISPLAY
280
     1
  9
$TILEMODELIGHTSYNCH
280
     1
  9
$CMATERIAL
347
AB
  9
$SOLIDHIST
280
     0
  9
$SHOWHIST
280
     1
  9
$DWFFRAME
280
     2
  9
$DGNFRAME
280
     0
  9
$REALWORLDSCALE
290
     1
  9
$INTERFERECOLOR
 62
     1
  9
$INTERFEREOBJVS
345
CD
  9
$INTERFEREVPVS
346
CA
  9
$CSHADOW
280
     0
  9
$SHADOWPLANELOCATION
 40
0.0
  0
ENDSEC
  0
SECTION
  2
CLASSES
  0
CLASS
  1
ACDBDICTIONARYWDFLT
  2
AcDbDictionaryWithDefault
  3
ObjectDBX Classes
 90
        0
 91
        1
280
     0
281
     0
  0
CLASS
  1
ACDBPLACEHOLDER
  2
AcDbPlaceHolder
  3
ObjectDBX Classes
 90
        0
 91
        2
280
     0
281
     0
  0
CLASS
  1
LAYOUT
  2
AcDbLayout
  3
ObjectDBX Classes
 90
        0
 91
        3
280
     0
281
     0
  0
CLASS
  1
MATERIAL
  2
AcDbMaterial
  3
ObjectDBX Classes
 90
     1153
 91
        3
280
     0
281
     0
  0
CLASS
  1
VISUALSTYLE
  2
AcDbVisualStyle
  3
ObjectDBX Classes
 90
     4095
 91
       24
280
     0
281
     0
  0
CLASS
  1
TABLESTYLE
  2
AcDbTableStyle
  3
ObjectDBX Classes
 90
     4095
 91
        1
280
     0
281
     0
  0
CLASS
  1
SCALE
  2
AcDbScale
  3
ObjectDBX Classes
 90
     1153
 91
       17
280
     0
281
     0
  0
CLASS
  1
MLEADERSTYLE
  2
AcDbMLeaderStyle
  3
ACDB_MLEADERSTYLE_CLASS
 90
     4095
 91
        1
280
     0
281
     0
  0
CLASS
  1
ACDBSECTIONVIEWSTYLE
  2
AcDbSectionViewStyle
  3
ObjectDBX Classes
 90
     1025
 91
        1
280
     0
281
     0
  0
CLASS
  1
ACDBDETAILVIEWSTYLE
  2
AcDbDetailViewStyle
  3
ObjectDBX Classes
 90
     1025
 91
        1
280
     0
281
     0
  0
CLASS
  1
MESH
  2
AcDbSubDMesh
  3
ObjectDBX Classes
 90
        0
 91
        1
280
     0
281
     1
  0
CLASS
  1
DICTIONARYVAR
  2
AcDbDictionaryVar
  3
ObjectDBX Classes
 90
        0
 91
        9
280
     0
281
     0
  0
CLASS
  1
CELLSTYLEMAP
  2
AcDbCellStyleMap
  3
ObjectDBX Classes
 90
     1152
 91
        1
280
     0
281
     0
  0
ENDSEC
  0
SECTION
  2
TABLES
  0
TABLE
  2
VPORT
  5
8
330
0
100
AcDbSymbolTable
 70
     1
  0
VPORT
  5
A8
330
8
100
AcDbSymbolTableRecord
100
AcDbViewportTableRecord
  2
*Active
 70
     0
 10
0.0
 20
0.0
 11
1.0
 21
1.0
 12
0.0000296713842545
 22
-33.47638320922852
 13
0.0
 23
0.0
 14
0.5
 24
0.5
 15
0.5
 25
0.5
 16
-1.0
 26
-1.0
 36
1.0
 17
0.0
 27
0.0
 37
0.0
 40
1174.000026674576
 41
1.611072826552059
 42
50.0
 43
0.0
 44
0.0
 50
0.0
 51
0.0
 71
     0
 72
   100
 73
     1
 74
     3
 75
     0
 76
     0
 77
     0
 78
     0
281
     0
 65
     1
110
0.0
120
0.0
130
0.0
111
1.0
121
0.0
131
0.0
112
0.0
122
1.0
132
0.0
 79
     0
146
0.0
348
C9
 60
     3
 61
     5
292
     1
282
     1
141
0.0
142
0.0
 63
   250
421
  3355443
  0
ENDTAB
  0
TABLE
  2
LTYPE
  5
5
330
0
100
AcDbSymbolTable
 70
     1
  0
LTYPE
  5
14
330
5
100
AcDbSymbolTableRecord
100
AcDbLinetypeTableRecord
  2
ByBlock
 70
     0
  3

 72
    65
 73
     0
 40
0.0
  0
LTYPE
  5
15
330
5
100
AcDbSymbolTableRecord
100
AcDbLinetypeTableRecord
  2
ByLayer
 70
     0
  3

 72
    65
 73
     0
 40
0.0
  0
LTYPE
  5
16
330
5
100
AcDbSymbolTableRecord
100
AcDbLinetypeTableRecord
  2
Continuous
 70
     0
  3
Solid line
 72
    65
 73
     0
 40
0.0
  0
ENDTAB
  0
TABLE
  2
LAYER
  5
2
330
0
100
AcDbSymbolTable
 70
     3
  0
LAYER
  5
10
330
2
100
AcDbSymbolTableRecord
100
AcDbLayerTableRecord
  2
0
 70
     0
 62
     7
  6
Continuous
370
    -3
390
F
347
BB
  0
LAYER
  5
2B
330
2
100
AcDbSymbolTableRecord
100
AcDbLayerTableRecord
  2
ASHADE
 70
     4
 62
     7
  6
Continuous
370
    -3
390
2D
347
BB
  0
LAYER
  5
F8
330
2
100
AcDbSymbolTableRecord
100
AcDbLayerTableRecord
  2
OracDecor_cornice_mouldings
 70
     0
 62
   133
420
  5818337
  6
Continuous
370
    -3
390
F
347
BB
  0
ENDTAB
  0
TABLE
  2
STYLE
  5
3
330
0
100
AcDbSymbolTable
 70
     2
  0
STYLE
  5
11
330
3
100
AcDbSymbolTableRecord
100
AcDbTextStyleTableRecord
  2
Standard
 70
     0
 40
0.0
 41
1.0
 50
0.0
 71
     0
 42
0.2
  3
txt
  4

  0
STYLE
  5
2C
330
3
100
AcDbSymbolTableRecord
100
AcDbTextStyleTableRecord
  2
ASHADE
 70
     0
 40
0.2
 41
1.0
 50
0.0
 71
     0
 42
0.2
  3
simplex
  4

  0
ENDTAB
  0
TABLE
  2
VIEW
  5
6
330
0
100
AcDbSymbolTable
 70
     0
  0
ENDTAB
  0
TABLE
  2
UCS
  5
7
330
0
100
AcDbSymbolTable
 70
     0
  0
ENDTAB
  0
TABLE
  2
APPID
  5
9
330
0
100
AcDbSymbolTable
 70
     6
  0
APPID
  5
12
330
9
100
AcDbSymbolTableRecord
100
AcDbRegAppTableRecord
  2
ACAD
 70
     0
  0
APPID
  5
8F
330
9
100
AcDbSymbolTableRecord
100
AcDbRegAppTableRecord
  2
AVE_RENDER
 70
     0
  0
APPID
  5
90
330
9
100
AcDbSymbolTableRecord
100
AcDbRegAppTableRecord
  2
AVE_ENTITY_MATERIAL
 70
     0
  0
APPID
  5
9C
330
9
100
AcDbSymbolTableRecord
100
AcDbRegAppTableRecord
  2
AVE_FINISH
 70
     0
  0
APPID
  5
9D
330
9
100
AcDbSymbolTableRecord
100
AcDbRegAppTableRecord
  2
AVE_MATERIAL
 70
     0
  0
APPID
  5
9E
330
9
100
AcDbSymbolTableRecord
100
AcDbRegAppTableRecord
  2
AVE_GLOBAL
 70
     0
  0
ENDTAB
  0
TABLE
  2
DIMSTYLE
  5
A
330
0
100
AcDbSymbolTable
 70
     1
100
AcDbDimStyleTable
 71
     0
  0
DIMSTYLE
105
27
330
A
100
AcDbSymbolTableRecord
100
AcDbDimStyleTableRecord
  2
Standard
 70
     0
340
11
  0
ENDTAB
  0
TABLE
  2
BLOCK_RECORD
  5
1
330
0
100
AcDbSymbolTable
 70
     6
  0
BLOCK_RECORD
  5
1F
330
1
100
AcDbSymbolTableRecord
100
AcDbBlockTableRecord
  2
*Model_Space
340
22
 70
     0
280
     1
281
     0
  0
BLOCK_RECORD
  5
1B
330
1
100
AcDbSymbolTableRecord
100
AcDbBlockTableRecord
  2
*Paper_Space
340
1E
 70
     0
280
     1
281
     0
  0
BLOCK_RECORD
  5
23
330
1
100
AcDbSymbolTableRecord
100
AcDbBlockTableRecord
  2
*Paper_Space0
340
26
 70
     0
280
     1
281
     0
  0
BLOCK_RECORD
  5
2E
330
1
100
AcDbSymbolTableRecord
100
AcDbBlockTableRecord
  2
direct
340
0
 70
     0
280
     1
281
     0
  0
BLOCK_RECORD
  5
42
330
1
100
AcDbSymbolTableRecord
100
AcDbBlockTableRecord
  2
overhead
340
0
 70
     0
280
     1
281
     0
  0
BLOCK_RECORD
  5
5F
330
1
100
AcDbSymbolTableRecord
100
AcDbBlockTableRecord
  2
sh_spot
340
0
 70
     0
280
     1
281
     0
  0
BLOCK_RECORD
  5
91
330
1
100
AcDbSymbolTableRecord
100
AcDbBlockTableRecord
  2
AVE_RENDER
340
0
102
{BLKREFS
331
94
331
95
331
96
331
97
331
98
331
99
331
9A
331
9B
102
}
 70
     0
280
     1
281
     0
  0
BLOCK_RECORD
  5
9F
330
1
100
AcDbSymbolTableRecord
100
AcDbBlockTableRecord
  2
AVE_GLOBAL
340
0
102
{BLKREFS
331
A2
102
}
 70
     0
280
     1
281
     0
  0
ENDTAB
  0
ENDSEC
  0
SECTION
  2
BLOCKS
  0
BLOCK
  5
20
330
1F
100
AcDbEntity
  8
0
100
AcDbBlockBegin
  2
*Model_Space
 70
     0
 10
0.0
 20
0.0
 30
0.0
  3
*Model_Space
  1

  0
ENDBLK
  5
21
330
1F
100
AcDbEntity
  8
0
100
AcDbBlockEnd
  0
BLOCK
  5
1C
330
1B
100
AcDbEntity
 67
     1
  8
0
100
AcDbBlockBegin
  2
*Paper_Space
 70
     0
 10
0.0
 20
0.0
 30
0.0
  3
*Paper_Space
  1

  0
ENDBLK
  5
1D
330
1B
100
AcDbEntity
 67
     1
  8
0
100
AcDbBlockEnd
  0
BLOCK
  5
24
330
23
100
AcDbEntity
 67
     1
  8
0
100
AcDbBlockBegin
  2
*Paper_Space0
 70
     0
 10
0.0
 20
0.0
 30
0.0
  3
*Paper_Space0
  1

  0
ENDBLK
  5
25
330
23
100
AcDbEntity
 67
     1
  8
0
100
AcDbBlockEnd
  0
BLOCK
  5
40
330
2E
100
AcDbEntity
  8
0
100
AcDbBlockBegin
  2
direct
 70
     2
 10
0.0
 20
0.0
 30
0.0
  3
direct
  1

  0
ATTDEF
  5
2F
330
2E
100
AcDbEntity
  8
ASHADE
  6
Continuous
 62
     1
100
AcDbText
 10
0.0
 20
-0.1
 30
0.0
 40
0.2
  1

  7
ASHADE
 72
     1
 11
0.0
 21
-0.1
 31
0.0
100
AcDbAttributeDefinition
280
     0
  3
Light Name
  2
SNAME
 70
     0
280
     0
  0
ARC
  5
30
330
2E
100
AcDbEntity
  8
ASHADE
  6
Continuous
 62
     7
100
AcDbCircle
 10
0.0
 20
0.0
 30
0.0
 40
0.3
100
AcDbArc
 50
205.6792886194569
 51
334.3207113805431
  0
ARC
  5
31
330
2E
100
AcDbEntity
  8
ASHADE
  6
Continuous
 62
     7
100
AcDbCircle
 10
0.0
 20
0.0
 30
0.0
 40
0.3
100
AcDbArc
 50
25.67928861945685
 51
154.3207113805431
  0
LINE
  5
32
330
2E
100
AcDbEntity
  8
ASHADE
  6
Continuous
 62
     7
100
AcDbLine
 10
-0.21
 20
0.2142428528562855
 30
0.0
 11
-0.21
 21
0.5
 31
0.0
  0
LINE
  5
33
330
2E
100
AcDbEntity
  8
ASHADE
  6
Continuous
 62
     7
100
AcDbLine
 10
-0.11
 20
0.2791057147390572
 30
0.0
 11
-0.11
 21
0.5
 31
0.0
  0
LINE
  5
34
330
2E
100
AcDbEntity
  8
ASHADE
  6
Continuous
 62
     7
100
AcDbLine
 10
0.21
 20
0.2142428528562855
 30
0.0
 11
0.21
 21
0.5
 31
0.0
  0
ATTDEF
  5
35
330
2E
100
AcDbEntity
  8
ASHADE
  6
Continuous
 62
     7
100
AcDbText
 10
0.0
 20
0.25
 30
0.0
 40
0.01
  1

100
AcDbAttributeDefinition
280
     0
  3
Look-at Y
  2
LAY
 70
     1
280
     0
  0
ATTDEF
  5
36
330
2E
100
AcDbEntity
  8
ASHADE
  6
Continuous
 62
     7
100
AcDbText
 10
0.0
 20
0.22
 30
0.0
 40
0.01
  1
1
100
AcDbAttributeDefinition
280
     0
  3
Light Intensity
  2
INTENSITY
 70
     1
280
     0
  0
ATTDEF
  5
37
330
2E
100
AcDbEntity
  8
ASHADE
  6
Continuous
 62
     7
100
AcDbText
 10
0.0
 20
0.16
 30
0.0
 40
0.01
  1
-1
100
AcDbAttributeDefinition
280
     0
  3
*not used*
  2
BEAMD
 70
     1
280
     0
  0
ATTDEF
  5
38
330
2E
100
AcDbEntity
  8
ASHADE
  6
Continuous
 62
     7
100
AcDbText
 10
0.0
 20
0.175
 30
0.0
 40
0.01
  1
-1
100
AcDbAttributeDefinition
280
     0
  3
*not used*
  2
CONED
 70
     1
280
     0
  0
ATTDEF
  5
39
330
2E
100
AcDbEntity
  8
ASHADE
  6
Continuous
 62
     7
100
AcDbText
 10
0.0
 20
0.19
 30
0.0
 40
0.01
  1
0
100
AcDbAttributeDefinition
280
     0
  3
Depth Map Size
  2
CONEA
 70
     1
280
     0
  0
ATTDEF
  5
3A
330
2E
100
AcDbEntity
  8
ASHADE
  6
Continuous
 62
     7
100
AcDbText
 10
0.0
 20
0.2050000000000001
 30
0.0
 40
0.01
  1
1,1,1
100
AcDbAttributeDefinition
280
     0
  3
Light Color (RGB)
  2
COLOR
 70
     1
280
     0
  0
ATTDEF
  5
3B
330
2E
100
AcDbEntity
  8
ASHADE
  6
Continuous
 62
     7
100
AcDbText
 10
0.0
 20
0.235
 30
0.0
 40
0.01
  1

100
AcDbAttributeDefinition
280
     0
  3
Look-at Z
  2
LAZ
 70
     1
280
     0
  0
LINE
  5
3C
330
2E
100
AcDbEntity
  8
ASHADE
  6
Continuous
 62
     7
100
AcDbLine
 10
0.0
 20
0.3
 30
0.0
 11
0.0
 21
0.5
 31
0.0
  0
LINE
  5
3D
330
2E
100
AcDbEntity
  8
ASHADE
  6
Continuous
 62
     7
100
AcDbLine
 10
0.11
 20
0.2791057147390572
 30
0.0
 11
0.11
 21
0.5
 31
0.0
  0
ATTDEF
  5
3E
330
2E
100
AcDbEntity
  8
ASHADE
  6
Continuous
 62
     7
100
AcDbText
 10
0.0
 20
0.265
 30
0.0
 40
0.01
  1

100
AcDbAttributeDefinition
280
     0
  3
Look-at X
  2
LAX
 70
     1
280
     0
  0
ATTDEF
  5
3F
330
2E
100
AcDbEntity
  8
ASHADE
  6
Continuous
 62
     7
100
AcDbText
 10
0.0
 20
0.28
 30
0.0
 40
0.01
  1

100
AcDbAttributeDefinition
280
     0
  3

  2
GNAME
 70
     1
280
     0
  0
ENDBLK
  5
41
330
2E
100
AcDbEntity
  8
0
100
AcDbBlockEnd
  0
BLOCK
  5
5D
330
42
100
AcDbEntity
  8
0
100
AcDbBlockBegin
  2
overhead
 70
     2
 10
0.0
 20
0.0
 30
0.0
  3
overhead
  1

  0
ATTDEF
  5
43
330
42
100
AcDbEntity
  8
ASHADE
  6
Continuous
 62
     1
100
AcDbText
 10
0.0
 20
-0.1
 30
0.0
 40
0.2
  1

  7
ASHADE
 72
     1
 11
0.0
 21
-0.1
 31
0.0
100
AcDbAttributeDefinition
280
     0
  3
Light Name
  2
SNAME
 70
     0
280
     0
  0
ARC
  5
44
330
42
100
AcDbEntity
  8
ASHADE
  6
Continuous
 62
     7
100
AcDbCircle
 10
0.0
 20
0.0
 30
0.0
 40
0.3
100
AcDbArc
 50
205.6792886194569
 51
334.3207113805431
  0
LINE
  5
45
330
42
100
AcDbEntity
  8
ASHADE
  6
Continuous
 62
     7
100
AcDbLine
 10
-0.2041413561583015
 20
-0.2198324514393848
 30
0.0
 11
-0.2721884748777353
 21
-0.2931099352525131
 31
0.0
  0
LINE
  5
46
330
42
100
AcDbEntity
  8
ASHADE
  6
Continuous
 62
     7
100
AcDbLine
 10
-0.1096591641591904
 20
-0.2792398032442862
 30
0.0
 11
-0.1279356915190555
 21
-0.3257797704516673
 31
0.0
  0
LINE
  5
47
330
42
100
AcDbEntity
  8
ASHADE
  6
Continuous
 62
     7
100
AcDbLine
 10
0.0
 20
-0.2999999999999999
 30
0.0
 11
0.0
 21
-0.4
 31
0.0
  0
LINE
  5
48
330
42
100
AcDbEntity
  8
ASHADE
  6
Continuous
 62
     7
100
AcDbLine
 10
0.1096591641591904
 20
-0.2792398032442862
 30
0.0
 11
0.1279356915190555
 21
-0.3257797704516673
 31
0.0
  0
LINE
  5
49
330
42
100
AcDbEntity
  8
ASHADE
  6
Continuous
 62
     7
100
AcDbLine
 10
0.2041413561583015
 20
-0.2198324514393848
 30
0.0
 11
0.2721884748777353
 21
-0.2931099352525131
 31
0.0
  0
ARC
  5
4A
330
42
100
AcDbEntity
  8
ASHADE
  6
Continuous
 62
     7
100
AcDbCircle
 10
0.0
 20
0.0
 30
0.0
 40
0.3
100
AcDbArc
 50
25.67928861945685
 51
154.3207113805431
  0
LINE
  5
4B
330
42
100
AcDbEntity
  8
ASHADE
  6
Continuous
 62
     7
100
AcDbLine
 10
-0.2703701166919155
 20
0.13
 30
0.0
 11
-0.3154318028072347
 21
0.1516666666666666
 31
0.0
  0
LINE
  5
4C
330
42
100
AcDbEntity
  8
ASHADE
  6
Continuous
 62
     7
100
AcDbLine
 10
-0.2703701166919155
 20
-0.13
 30
0.0
 11
-0.3154318028072347
 21
-0.1516666666666666
 31
0.0
  0
LINE
  5
4D
330
42
100
AcDbEntity
  8
ASHADE
  6
Continuous
 62
     7
100
AcDbLine
 10
-0.2041413561583015
 20
0.2198324514393849
 30
0.0
 11
-0.2721884748777353
 21
0.2931099352525131
 31
0.0
  0
LINE
  5
4E
330
42
100
AcDbEntity
  8
ASHADE
  6
Continuous
 62
     7
100
AcDbLine
 10
-0.1096591641591904
 20
0.2792398032442862
 30
0.0
 11
-0.1279356915190555
 21
0.3257797704516674
 31
0.0
  0
LINE
  5
4F
330
42
100
AcDbEntity
  8
ASHADE
  6
Continuous
 62
     7
100
AcDbLine
 10
0.2703701166919155
 20
-0.13
 30
0.0
 11
0.3154318028072347
 21
-0.1516666666666666
 31
0.0
  0
LINE
  5
50
330
42
100
AcDbEntity
  8
ASHADE
  6
Continuous
 62
     7
100
AcDbLine
 10
0.2703701166919155
 20
0.13
 30
0.0
 11
0.3154318028072347
 21
0.1516666666666666
 31
0.0
  0
LINE
  5
51
330
42
100
AcDbEntity
  8
ASHADE
  6
Continuous
 62
     7
100
AcDbLine
 10
0.0
 20
0.3
 30
0.0
 11
0.0
 21
0.4
 31
0.0
  0
ATTDEF
  5
52
330
42
100
AcDbEntity
  8
ASHADE
  6
Continuous
 62
     7
100
AcDbText
 10
0.0
 20
0.22
 30
0.0
 40
0.01
  1
1
100
AcDbAttributeDefinition
280
     0
  3
Light Intensity
  2
INTENSITY
 70
     1
280
     0
  0
ATTDEF
  5
53
330
42
100
AcDbEntity
  8
ASHADE
  6
Continuous
 62
     7
100
AcDbText
 10
0.0
 20
0.16
 30
0.0
 40
0.01
  1
-1
100
AcDbAttributeDefinition
280
     0
  3
*not used*
  2
BEAMD
 70
     1
280
     0
  0
ATTDEF
  5
54
330
42
100
AcDbEntity
  8
ASHADE
  6
Continuous
 62
     7
100
AcDbText
 10
0.0
 20
0.175
 30
0.0
 40
0.01
  1
-1
100
AcDbAttributeDefinition
280
     0
  3
*not used*
  2
CONED
 70
     1
280
     0
  0
ATTDEF
  5
55
330
42
100
AcDbEntity
  8
ASHADE
  6
Continuous
 62
     7
100
AcDbText
 10
0.0
 20
0.19
 30
0.0
 40
0.01
  1
0
100
AcDbAttributeDefinition
280
     0
  3
Depth Map Size
  2
CONEA
 70
     1
280
     0
  0
ATTDEF
  5
56
330
42
100
AcDbEntity
  8
ASHADE
  6
Continuous
 62
     7
100
AcDbText
 10
0.0
 20
0.2050000000000001
 30
0.0
 40
0.01
  1
1,1,1
100
AcDbAttributeDefinition
280
     0
  3
Light Color (RGB)
  2
COLOR
 70
     1
280
     0
  0
ATTDEF
  5
57
330
42
100
AcDbEntity
  8
ASHADE
  6
Continuous
 62
     7
100
AcDbText
 10
0.0
 20
0.235
 30
0.0
 40
0.01
  1

100
AcDbAttributeDefinition
280
     0
  3
Look-at Z
  2
LAZ
 70
     1
280
     0
  0
ATTDEF
  5
58
330
42
100
AcDbEntity
  8
ASHADE
  6
Continuous
 62
     7
100
AcDbText
 10
0.0
 20
0.25
 30
0.0
 40
0.01
  1

100
AcDbAttributeDefinition
280
     0
  3
Look-at Y
  2
LAY
 70
     1
280
     0
  0
ATTDEF
  5
59
330
42
100
AcDbEntity
  8
ASHADE
  6
Continuous
 62
     7
100
AcDbText
 10
0.0
 20
0.265
 30
0.0
 40
0.01
  1

100
AcDbAttributeDefinition
280
     0
  3
Look-at X
  2
LAX
 70
     1
280
     0
  0
ATTDEF
  5
5A
330
42
100
AcDbEntity
  8
ASHADE
  6
Continuous
 62
     7
100
AcDbText
 10
0.0
 20
0.28
 30
0.0
 40
0.01
  1

100
AcDbAttributeDefinition
280
     0
  3

  2
GNAME
 70
     1
280
     0
  0
LINE
  5
5B
330
42
100
AcDbEntity
  8
ASHADE
  6
Continuous
 62
     7
100
AcDbLine
 10
0.1096591641591904
 20
0.2792398032442862
 30
0.0
 11
0.1279356915190555
 21
0.3257797704516674
 31
0.0
  0
LINE
  5
5C
330
42
100
AcDbEntity
  8
ASHADE
  6
Continuous
 62
     7
100
AcDbLine
 10
0.2041413561583015
 20
0.2198324514393849
 30
0.0
 11
0.2721884748777353
 21
0.2931099352525131
 31
0.0
  0
ENDBLK
  5
5E
330
42
100
AcDbEntity
  8
0
100
AcDbBlockEnd
  0
BLOCK
  5
85
330
5F
100
AcDbEntity
  8
0
100
AcDbBlockBegin
  2
sh_spot
 70
     2
 10
0.0
 20
0.0
 30
0.0
  3
sh_spot
  1

  0
LINE
  5
60
330
5F
100
AcDbEntity
  8
ASHADE
  6
Continuous
 62
     7
100
AcDbLine
 10
0.25
 20
0.26
 30
0.0
 11
-0.25
 21
0.26
 31
0.0
  0
LINE
  5
61
330
5F
100
AcDbEntity
  8
ASHADE
  6
Continuous
 62
     7
100
AcDbLine
 10
-0.25
 20
-0.3399999999999999
 30
0.0
 11
0.25
 21
-0.3399999999999999
 31
0.0
  0
ATTDEF
  5
62
330
5F
100
AcDbEntity
  8
ASHADE
  6
Continuous
 62
     1
100
AcDbText
 10
0.0
 20
-0.1
 30
0.0
 40
0.2
  1

  7
ASHADE
 72
     1
 11
0.0
 21
-0.1
 31
0.0
100
AcDbAttributeDefinition
280
     0
  3
Light Name
  2
SNAME
 70
     0
280
     0
  0
LINE
  5
63
330
5F
100
AcDbEntity
  8
ASHADE
  6
Continuous
 62
     7
100
AcDbLine
 10
-0.25
 20
-0.13
 30
0.0
 11
-0.25
 21
-0.3399999999999999
 31
0.0
  0
LINE
  5
64
330
5F
100
AcDbEntity
  8
ASHADE
  6
Continuous
 62
     7
100
AcDbLine
 10
-0.25
 20
-0.18
 30
0.0
 11
-0.29
 21
-0.18
 31
0.0
  0
LINE
  5
65
330
5F
100
AcDbEntity
  8
ASHADE
  6
Continuous
 62
     7
100
AcDbLine
 10
-0.29
 20
-0.22
 30
0.0
 11
-0.25
 21
-0.22
 31
0.0
  0
LINE
  5
66
330
5F
100
AcDbEntity
  8
ASHADE
  6
Continuous
 62
     7
100
AcDbLine
 10
-0.29
 20
-0.18
 30
0.0
 11
-0.29
 21
-0.22
 31
0.0
  0
LINE
  5
67
330
5F
100
AcDbEntity
  8
ASHADE
  6
Continuous
 62
     7
100
AcDbLine
 10
-0.1045454545454545
 20
0.26
 30
0.0
 11
-0.15
 21
0.46
 31
0.0
  0
LINE
  5
68
330
5F
100
AcDbEntity
  8
ASHADE
  6
Continuous
 62
     7
100
AcDbLine
 10
-0.21
 20
0.26
 30
0.0
 11
-0.301304347826087
 21
0.46
 31
0.0
  0
LINE
  5
69
330
5F
100
AcDbEntity
  8
ASHADE
  6
Continuous
 62
     7
100
AcDbLine
 10
-0.25
 20
0.26
 30
0.0
 11
-0.25
 21
0.13
 31
0.0
  0
LINE
  5
6A
330
5F
100
AcDbEntity
  8
ASHADE
  6
Continuous
 62
     7
100
AcDbLine
 10
-0.25
 20
0.22
 30
0.0
 11
-0.29
 21
0.22
 31
0.0
  0
LINE
  5
6B
330
5F
100
AcDbEntity
  8
ASHADE
  6
Continuous
 62
     7
100
AcDbLine
 10
-0.29
 20
0.1799999999999999
 30
0.0
 11
-0.25
 21
0.1799999999999999
 31
0.0
  0
LINE
  5
6C
330
5F
100
AcDbEntity
  8
ASHADE
  6
Continuous
 62
     7
100
AcDbLine
 10
-0.29
 20
0.22
 30
0.0
 11
-0.29
 21
0.1799999999999999
 31
0.0
  0
ATTDEF
  5
6D
330
5F
100
AcDbEntity
  8
ASHADE
  6
Continuous
 62
     7
100
AcDbText
 10
0.0
 20
-0.24
 30
0.0
 40
0.01
  1
0
100
AcDbAttributeDefinition
280
     0
  3
Depth Map Size
  2
ZSIZE
 70
     1
280
     0
  0
ATTDEF
  5
6E
330
5F
100
AcDbEntity
  8
ASHADE
  6
Continuous
 62
     7
100
AcDbText
 10
0.0
 20
-0.3300000000000001
 30
0.0
 40
0.01
  1
0,0,0
100
AcDbAttributeDefinition
280
     0
  3
Look-from XYZ
  2
LFXYZ
 70
     1
280
     0
  0
ATTDEF
  5
6F
330
5F
100
AcDbEntity
  8
ASHADE
  6
Continuous
 62
     7
100
AcDbText
 10
0.0
 20
-0.315
 30
0.0
 40
0.01
  1
0.0
100
AcDbAttributeDefinition
280
     0
  3
Beam Distribution
  2
BEAMDI
 70
     1
280
     0
  0
ATTDEF
  5
70
330
5F
100
AcDbEntity
  8
ASHADE
  6
Continuous
 62
     7
100
AcDbText
 10
0.0
 20
-0.3
 30
0.0
 40
0.01
  1
0.0
100
AcDbAttributeDefinition
280
     0
  3
Cone Delta
  2
CONEDE
 70
     1
280
     0
  0
ATTDEF
  5
71
330
5F
100
AcDbEntity
  8
ASHADE
  6
Continuous
 62
     7
100
AcDbText
 10
0.0
 20
-0.2850000000000001
 30
0.0
 40
0.01
  1
10.0
100
AcDbAttributeDefinition
280
     0
  3
Cone Angle
  2
CONEAN
 70
     1
280
     0
  0
ATTDEF
  5
72
330
5F
100
AcDbEntity
  8
ASHADE
  6
Continuous
 62
     7
100
AcDbText
 10
0.0
 20
-0.27
 30
0.0
 40
0.01
  1
-1
100
AcDbAttributeDefinition
280
     0
  3
*not used*
  2
BIASMAX
 70
     1
280
     0
  0
ATTDEF
  5
73
330
5F
100
AcDbEntity
  8
ASHADE
  6
Continuous
 62
     7
100
AcDbText
 10
0.0
 20
-0.255
 30
0.0
 40
0.01
  1
-1
100
AcDbAttributeDefinition
280
     0
  3
*not used*
  2
BIASMIN
 70
     1
280
     0
  0
ATTDEF
  5
74
330
5F
100
AcDbEntity
  8
ASHADE
  6
Continuous
 62
     7
100
AcDbText
 10
0.0
 20
-0.225
 30
0.0
 40
0.01
  1
1,1,1
100
AcDbAttributeDefinition
280
     0
  3
Light Color (RGB)
  2
COLOR
 70
     1
280
     0
  0
ATTDEF
  5
75
330
5F
100
AcDbEntity
  8
ASHADE
  6
Continuous
 62
     7
100
AcDbText
 10
0.0
 20
-0.21
 30
0.0
 40
0.01
  1
1
100
AcDbAttributeDefinition
280
     0
  3
Light Intensity
  2
INTENSITY
 70
     1
280
     0
  0
ATTDEF
  5
76
330
5F
100
AcDbEntity
  8
ASHADE
  6
Continuous
 62
     7
100
AcDbText
 10
0.0
 20
-0.15
 30
0.0
 40
0.01
  1

100
AcDbAttributeDefinition
280
     0
  3

  2
GNAME
 70
     1
280
     0
  0
ATTDEF
  5
77
330
5F
100
AcDbEntity
  8
ASHADE
  6
Continuous
 62
     7
100
AcDbText
 10
0.0
 20
-0.195
 30
0.0
 40
0.01
  1

100
AcDbAttributeDefinition
280
     0
  3
Look-at Z
  2
LAZ
 70
     1
280
     0
  0
ATTDEF
  5
78
330
5F
100
AcDbEntity
  8
ASHADE
  6
Continuous
 62
     7
100
AcDbText
 10
0.0
 20
-0.18
 30
0.0
 40
0.01
  1

100
AcDbAttributeDefinition
280
     0
  3
Look-at Y
  2
LAY
 70
     1
280
     0
  0
ATTDEF
  5
79
330
5F
100
AcDbEntity
  8
ASHADE
  6
Continuous
 62
     7
100
AcDbText
 10
0.0
 20
-0.165
 30
0.0
 40
0.01
  1

100
AcDbAttributeDefinition
280
     0
  3
Look-at X
  2
LAX
 70
     1
280
     0
  0
LINE
  5
7A
330
5F
100
AcDbEntity
  8
ASHADE
  6
Continuous
 62
     7
100
AcDbLine
 10
0.25
 20
-0.3399999999999999
 30
0.0
 11
0.25
 21
-0.13
 31
0.0
  0
LINE
  5
7B
330
5F
100
AcDbEntity
  8
ASHADE
  6
Continuous
 62
     7
100
AcDbLine
 10
0.25
 20
-0.18
 30
0.0
 11
0.29
 21
-0.18
 31
0.0
  0
LINE
  5
7C
330
5F
100
AcDbEntity
  8
ASHADE
  6
Continuous
 62
     7
100
AcDbLine
 10
0.29
 20
-0.22
 30
0.0
 11
0.25
 21
-0.22
 31
0.0
  0
LINE
  5
7D
330
5F
100
AcDbEntity
  8
ASHADE
  6
Continuous
 62
     7
100
AcDbLine
 10
0.29
 20
-0.18
 30
0.0
 11
0.29
 21
-0.22
 31
0.0
  0
LINE
  5
7E
330
5F
100
AcDbEntity
  8
ASHADE
  6
Continuous
 62
     7
100
AcDbLine
 10
0.21
 20
0.26
 30
0.0
 11
0.301304347826087
 21
0.46
 31
0.0
  0
LINE
  5
7F
330
5F
100
AcDbEntity
  8
ASHADE
  6
Continuous
 62
     7
100
AcDbLine
 10
0.1045454545454545
 20
0.26
 30
0.0
 11
0.15
 21
0.46
 31
0.0
  0
LINE
  5
80
330
5F
100
AcDbEntity
  8
ASHADE
  6
Continuous
 62
     7
100
AcDbLine
 10
0.0
 20
0.26
 30
0.0
 11
0.0
 21
0.46
 31
0.0
  0
LINE
  5
81
330
5F
100
AcDbEntity
  8
ASHADE
  6
Continuous
 62
     7
100
AcDbLine
 10
0.25
 20
0.13
 30
0.0
 11
0.25
 21
0.26
 31
0.0
  0
LINE
  5
82
330
5F
100
AcDbEntity
  8
ASHADE
  6
Continuous
 62
     7
100
AcDbLine
 10
0.25
 20
0.22
 30
0.0
 11
0.29
 21
0.22
 31
0.0
  0
LINE
  5
83
330
5F
100
AcDbEntity
  8
ASHADE
  6
Continuous
 62
     7
100
AcDbLine
 10
0.29
 20
0.1799999999999999
 30
0.0
 11
0.25
 21
0.1799999999999999
 31
0.0
  0
LINE
  5
84
330
5F
100
AcDbEntity
  8
ASHADE
  6
Continuous
 62
     7
100
AcDbLine
 10
0.29
 20
0.22
 30
0.0
 11
0.29
 21
0.1799999999999999
 31
0.0
  0
ENDBLK
  5
86
330
5F
100
AcDbEntity
  8
0
100
AcDbBlockEnd
  0
BLOCK
  5
92
330
91
100
AcDbEntity
  8
ASHADE
100
AcDbBlockBegin
  2
AVE_RENDER
 70
     0
 10
0.0
 20
0.0
 30
0.0
  3
AVE_RENDER
  1
AVE_RENDER
  0
ENDBLK
  5
93
330
91
100
AcDbEntity
  8
0
100
AcDbBlockEnd
  0
BLOCK
  5
A0
330
9F
100
AcDbEntity
  8
ASHADE
100
AcDbBlockBegin
  2
AVE_GLOBAL
 70
     0
 10
0.0
 20
0.0
 30
0.0
  3
AVE_GLOBAL
  1
AVE_GLOBAL
  0
ENDBLK
  5
A1
330
9F
100
AcDbEntity
  8
0
100
AcDbBlockEnd
  0
ENDSEC
  0
SECTION
  2
ENTITIES
  0
INSERT
  5
94
330
1F
100
AcDbEntity
  8
ASHADE
 62
     1
100
AcDbBlockReference
  2
AVE_RENDER
 10
0.0
 20
0.0
 30
0.0
1001
AVE_RENDER
1002
{
1070
     7
1000
Pref
1070
    30
1070
    20
1070
     1
1070
     0
1000

1070
    10
1070
     1
1070
    10
1040
1.0
1070
     1
1040
0.3
1040
0.7
1040
0.0
1040
10.0
1010
-1.0
1020
-1.0
1030
-1.0
1040
0.3
1070
    49
1070
     0
1070
     0
1010
1.0
1020
1.0
1030
1.0
1040
45.0
1070
     1
1070
     0
1000
WCS
1040
0.0
1070
     0
1040
10.0
1002
}
  0
INSERT
  5
95
330
1F
100
AcDbEntity
  8
ASHADE
 62
     3
100
AcDbBlockReference
  2
AVE_RENDER
 10
0.0
 20
0.0
 30
0.0
1001
AVE_RENDER
1002
{
1070
     0
1000
Full Opt
1070
     0
1070
     1
1070
     1
1070
     1
1070
     0
1070
     0
1070
     0
1070
     1
1070
     1
1040
0.0001
1040
0.0001
1002
}
  0
INSERT
  5
96
330
1F
100
AcDbEntity
  8
ASHADE
 62
     4
100
AcDbBlockReference
  2
AVE_RENDER
 10
0.0
 20
0.0
 30
0.0
1001
AVE_RENDER
1002
{
1070
     0
1000
Quick Opt
1070
     0
1070
     1
1070
     1
1070
     1
1070
     0
1070
     0
1070
     1
1002
}
  0
INSERT
  5
97
330
1F
100
AcDbEntity
  8
ASHADE
 62
     5
100
AcDbBlockReference
  2
AVE_RENDER
 10
0.0
 20
0.0
 30
0.0
1001
AVE_RENDER
1002
{
1070
     1
1000
Scanl Opt
1070
     2
1070
     0
1070
     2
1040
2.0
1040
4.0
1070
     0
1070
     1
1070
     0
1040
0.03
1002
}
  0
INSERT
  5
98
330
1F
100
AcDbEntity
  8
ASHADE
 62
     6
100
AcDbBlockReference
  2
AVE_RENDER
 10
0.0
 20
0.0
 30
0.0
1001
AVE_RENDER
1002
{
1070
     2
1000
Raytr Opt
1070
     2
1070
     0
1070
     2
1040
2.0
1040
4.0
1070
     0
1070
     1
1070
     1
1040
0.03
1070
     3
1040
0.03
1002
}
  0
INSERT
  5
99
330
1F
100
AcDbEntity
  8
ASHADE
 62
     7
100
AcDbBlockReference
  2
AVE_RENDER
 10
0.0
 20
0.0
 30
0.0
1001
AVE_RENDER
1002
{
1070
     0
1000
RFile Opt
1070
     1
1070
   640
1070
   480
1070
 10000
1070
     1
1070
     8
1070
     8
1070
     0
1070
     0
1070
     0
1070
     0
1070
     0
1070
     0
1070
     0
1002
}
  0
INSERT
  5
9A
330
1F
100
AcDbEntity
  8
ASHADE
 62
     8
100
AcDbBlockReference
  2
AVE_RENDER
 10
0.0
 20
0.0
 30
0.0
1001
AVE_RENDER
1002
{
1070
     0
1000
Fog Opt
1070
     0
1070
     0
1040
0.0
1040
1.0
1040
0.0
1040
1.0
1010
0.5
1020
0.5
1030
0.5
1002
}
  0
INSERT
  5
9B
330
1F
100
AcDbEntity
  8
ASHADE
 62
     9
100
AcDbBlockReference
  2
AVE_RENDER
 10
0.0
 20
0.0
 30
0.0
1001
AVE_RENDER
1002
{
1070
     0
1000
BG Opt
1070
     0
1070
     1
1010
0.0
1020
0.0
1030
0.0
1010
1.0
1020
0.0
1030
0.0
1010
0.0
1020
1.0
1030
0.0
1010
0.0
1020
0.0
1030
1.0
1040
0.5
1040
0.33
1040
0.0
1000

1070
     1
1000

1070
     1
1070
     1
1040
1.0
1040
1.0
1040
0.0
1040
0.0
1070
     0
1002
}
  0
INSERT
  5
A2
330
1F
100
AcDbEntity
  8
ASHADE
 62
     1
100
AcDbBlockReference
  2
AVE_GLOBAL
 10
0.0
 20
0.0
 30
0.0
1001
AVE_MATERIAL
1002
{
1000
*GLOBAL*
1000
2
1000
Global finish.
1002
{
1002
}
1002
{
1070
    63
1002
{
1002
{
1010
-1.0
1020
-1.0
1030
-1.0
1002
}
1040
0.1000000014901161
1000

1040
0.0
1002
{
1002
}
1040
0.0
1002
{
1002
}
1040
0.0
1002
}
1002
{
1002
{
1010
-1.0
1020
-1.0
1030
-1.0
1002
}
1040
0.6999999880790711
1000

1040
0.0
1002
{
1002
}
1040
0.0
1002
{
1002
}
1040
0.0
1002
}
1002
{
1002
{
1010
-1.0
1020
-1.0
1030
-1.0
1002
}
1040
0.2000000029802322
1000

1040
0.0
1002
{
1002
}
1040
0.0
1002
{
1002
}
1040
0.0
1002
}
1002
{
1070
     0
1002
{
1070
     1
1002
{
1040
1.0
1040
1.0
1000

1040
0.0
1002
{
1002
}
1040
0.0
1002
{
1002
}
1040
0.0
1002
}
1002
}
1040
1.0
1040
0.0
1040
0.0
1002
}
1002
{
1040
1.0
1040
1.0
1000

1040
0.0
1002
{
1002
}
1040
0.0
1002
{
1002
}
1040
0.0
1002
}
1002
{
1040
0.5
1040
1.0
1000

1040
0.0
1002
{
1002
}
1040
0.0
1002
{
1002
}
1040
0.0
1002
}
1002
{
1070
     0
1040
0.0
1002
{
1002
}
1040
1.0
1002
{
1002
}
1040
0.0
1002
}
1002
{
1040
0.0
1002
{
1002
{
1010
0.0
1020
0.0
1030
0.0
1002
}
1040
1.0
1000

1040
0.0
1002
{
1002
}
1040
0.0
1002
{
1002
}
1040
0.0
1002
}
1002
}
1002
{
1002
{
1070
     1
1002
{
1040
0.0
1040
1.0
1000

1040
0.0
1002
{
1002
}
1040
0.0
1002
{
1002
}
1040
0.0
1002
}
1002
}
1040
0.0
1002
{
1002
}
1010
1.0
1020
0.0
1030
0.0
1010
0.0
1020
1.0
1030
0.0
1010
0.0
1020
0.0
1030
1.0
1070
     0
1002
}
1002
{
1002
{
1040
1.0
1040
1.0
1002
{
1070
     1
1002
{
1040
1.0
1040
1.0
1000

1040
0.0
1002
{
1002
}
1040
0.0
1002
{
1002
}
1040
0.0
1002
}
1002
}
1002
}
1070
     0
1040
0.0
1002
{
1002
}
1002
}
1002
{
1002
}
1002
}
1002
{
1071
        3
1070
     3
1070
     0
1002
{
1070
     2
1070
     0
1070
     0
1040
0.0
1002
}
1070
     0
1070
     2
1002
{
1002
}
1002
}
1002
{
1040
8030.0
1040
190.3000030517578
1040
0.3050000071525574
1040
228.0
1040
545.0
1040
14.0
1040
17.39999961853027
1040
0.4560000002384186
1002
}
1002
}
  0
MESH
  5
F9
330
1F
100
AcDbEntity
  8
OracDecor_cornice_mouldings
 62
    36
420
  8862472
160
             30968
310
F87800005C0300000C00000013000000020000003C00000006000000020000000000002000408FC0000000E0FEFF56C000000000F22212C00000002000408FC0000000E0FEFF56C0000000000000E0BE0C000000130000000A0000003C00000006000000020000000000002000408FC0000000E0FEFF56C000000000F22212
310
C00000002000408F4000000040000057C000000000F22212C00C00000013000000120000003C00000006000000020000000000002000408F4000000040000057C000000000F22212C00000002000408F4000000040000057C0000000000000E0BE0C000000130000001A0000003C0000000600000002000000000000200040
310
8F4000000040000057C0000000000000E0BE0000002000408FC0000000E0FEFF56C0000000000000E0BE0C00000013000000220000003C00000006000000020000000000002000408FC0000000E0FEFF56C000000000F22212C00000002000408FC0000000C05DFD56C00000000020B712C00C000000130000002A0000003C
310
00000006000000020000000000002000408F40000000405FFD56C00000000020B712C00000002000408FC0000000C05DFD56C00000000020B712C00C00000013000000320000003C00000006000000020000000000002000408F4000000040000057C000000000F22212C00000002000408F40000000405FFD56C000000000
310
20B712C00C000000130000003A0000003C00000006000000020000000000002000408FC0000000C02EF656C000000000992313C00000002000408FC0000000C05DFD56C00000000020B712C00C00000013000000420000003C00000006000000020000000000002000408FC0000000C02EF656C000000000992313C0000000
310
2000408F400000004030F656C000000000992313C00C000000130000004A0000003C00000006000000020000000000002000408F40000000405FFD56C00000000020B712C00000002000408F400000004030F656C000000000992313C00C00000013000000520000003C00000006000000020000000000002000408FC00000
310
00C02EF656C000000000992313C00000002000408FC0000000805EEC56C0000000004E4B13C00C000000130000005A0000003C00000006000000020000000000002000408F400000000060EC56C0000000004E4B13C00000002000408FC0000000805EEC56C0000000004E4B13C00C00000013000000620000003C00000006
310
000000020000000000002000408F400000004030F656C000000000992313C00000002000408F400000000060EC56C0000000004E4B13C00C000000130000006A0000003C00000006000000020000000000002000408FC000000060B4BB55C000000000E07513C00000002000408FC0000000805EEC56C0000000004E4B13C0
310
0C00000013000000720000003C00000006000000020000000000002000408F40000000C0B5BB55C000000000E07513C00000002000408FC000000060B4BB55C000000000E07513C00C000000130000007A0000003C00000006000000020000000000002000408F400000000060EC56C0000000004E4B13C00000002000408F
310
40000000C0B5BB55C000000000E07513C00C00000013000000820000003C00000006000000020000000000002000408FC000000080E2B855C000000000E0CF22C00000002000408FC000000060B4BB55C000000000E07513C00C000000130000008A0000003C00000006000000020000000000002000408FC000000080E2B8
310
55C000000000E0CF22C00000002000408F4000000000E4B855C000000000E0CF22C00C00000013000000920000003C00000006000000020000000000002000408F4000000000E4B855C000000000E0CF22C00000002000408F40000000C0B5BB55C000000000E07513C00C000000130000009A0000003C0000000600000002
310
0000000000002000408FC000000080E2B855C000000000E0CF22C00000002000408FC0000000404EB655C0000000804D1923C00C00000013000000A20000003C00000006000000020000000000002000408F40000000C04FB655C0000000804D1923C00000002000408FC0000000404EB655C0000000804D1923C00C000000
310
13000000AA0000003C00000006000000020000000000002000408F4000000000E4B855C000000000E0CF22C00000002000408F40000000C04FB655C0000000804D1923C00C00000013000000B20000003C00000006000000020000000000002000408FC0000000203FAF55C0000000006E4F23C00000002000408FC0000000
310
404EB655C0000000804D1923C00C00000013000000BA0000003C00000006000000020000000000002000408F400000008040AF55C0000000006E4F23C00000002000408FC0000000203FAF55C0000000006E4F23C00C00000013000000C20000003C00000006000000020000000000002000408F400000008040AF55C00000
310
00006E4F23C00000002000408F40000000C04FB655C0000000804D1923C00C00000013000000CA0000003C00000006000000020000000000002000408FC0000000E08FA555C000000080096423C00000002000408FC0000000203FAF55C0000000006E4F23C00C00000013000000D20000003C000000060000000200000000
310
00002000408F400000004091A555C000000080096423C00000002000408FC0000000E08FA555C000000080096423C00C00000013000000DA0000003C00000006000000020000000000002000408F400000008040AF55C0000000006E4F23C00000002000408F400000004091A555C000000080096423C00C00000013000000
310
E20000003C00000006000000020000000000002000408FC0000000E04D7454C000000040B38224C00000002000408FC0000000E08FA555C000000080096423C00C00000013000000EA0000003C00000006000000020000000000002000408FC0000000E04D7454C000000040B38224C00000002000408F40000000404F7454
310
C000000040B38224C00C00000013000000F20000003C00000006000000020000000000002000408F400000004091A555C000000080096423C00000002000408F40000000404F7454C000000040B38224C00C00000013000000FA0000003C00000006000000020000000000002000408FC000000040E3A353C0000000C0ECF6
310
25C00000002000408FC00000000042E852C0000000C06AEC27C00C00000013000000020100003C00000006000000020000000000002000408F400000008043E852C0000000C06AEC27C00000002000408FC00000000042E852C0000000C06AEC27C00C000000130000000A0100003C00000006000000020000000000002000
310
408F400000008043E852C0000000C06AEC27C00000002000408F40000000C0E4A353C0000000C0ECF625C00C00000013000000120100003C00000006000000020000000000002000408F40000000C0E4A353C0000000C0ECF625C00000002000408FC000000040E3A353C0000000C0ECF625C00C000000130000001A010000
310
3C00000006000000020000000000002000408FC000000060E52552C00000008075AF2AC00000002000408FC0000000A0A47E51C0000000806BC12DC00C00000013000000220100003C00000006000000020000000000002000408F4000000000A67E51C0000000806BC12DC00000002000408FC0000000A0A47E51C0000000
310
806BC12DC00C000000130000002A0100003C00000006000000020000000000002000408F40000000C0E62552C00000008075AF2AC00000002000408F4000000000A67E51C0000000806BC12DC00C00000013000000320100003C00000006000000020000000000002000408FC000000060E52552C00000008075AF2AC00000
310
002000408F40000000C0E62552C00000008075AF2AC00C000000130000003A0100003C00000006000000020000000000002000408FC00000000023D350C0000000600FDD30C00000002000408FC000000020054850C0000000009BDD32C00C00000013000000420100003C00000006000000020000000000002000408FC000
310
000020054850C0000000009BDD32C00000002000408F4000000080064850C0000000009BDD32C00C000000130000004A0100003C00000006000000020000000000002000408F400000008024D350C0000000600FDD30C00000002000408F4000000080064850C0000000009BDD32C00C00000013000000520100003C000000
310
06000000020000000000002000408FC00000000023D350C0000000600FDD30C00000002000408F400000008024D350C0000000600FDD30C00C000000130000005A0100003C00000006000000020000000000002000408FC0000000A01DA54EC000000080ADBD37C00000002000408FC00000008084774FC0000000C0EC6035
310
C00C00000013000000620100003C00000006000000020000000000002000408FC0000000A01DA54EC000000080ADBD37C00000002000408F400000008020A54EC000000080ADBD37C00C000000130000006A0100003C00000006000000020000000000002000408F400000006087774FC0000000C0EC6035C0000000200040
310
8F400000008020A54EC000000080ADBD37C00C00000013000000720100003C00000006000000020000000000002000408F400000006087774FC0000000C0EC6035C00000002000408FC00000008084774FC0000000C0EC6035C00C000000130000007A0100003C00000006000000020000000000002000408FC0000000C006
310
534DC0000000E0D9473DC00000002000408FC00000006005DA4DC00000008029AC3AC00C00000013000000820100003C00000006000000020000000000002000408FC0000000C006534DC0000000E0D9473DC00000002000408F40000000A009534DC0000000E0D9473DC00C000000130000008A0100003C00000006000000
310
020000000000002000408F400000004008DA4DC00000008029AC3AC00000002000408F40000000A009534DC0000000E0D9473DC00C00000013000000920100003C00000006000000020000000000002000408F400000004008DA4DC00000008029AC3AC00000002000408FC00000006005DA4DC00000008029AC3AC00C0000
310
00130000009A0100003C00000006000000020000000000002000408FC00000008021B44CC0000000C0CB3240C00000002000408FC000000040E1FD4BC000000020420342C00C00000013000000A20100003C00000006000000020000000000002000408F4000000000E4FD4BC000000040420342C00000002000408FC00000
310
0040E1FD4BC000000020420342C00C00000013000000AA0100003C00000006000000020000000000002000408F400000006024B44CC0000000C0CB3240C00000002000408F4000000000E4FD4BC000000040420342C00C00000013000000B20100003C00000006000000020000000000002000408F400000006024B44CC000
310
0000C0CB3240C00000002000408FC00000008021B44CC0000000C0CB3240C00C00000013000000BA0100003C00000006000000020000000000002000408FC0000000C0413A4BC000000040F77E43C00000002000408FC00000000027254AC0000000A0342845C00C00000013000000C20100003C0000000600000002000000
310
0000002000408FC00000000027254AC0000000A0342845C00000002000408F40000000E029254AC0000000A0342845C00C00000013000000CA0100003C00000006000000020000000000002000408F4000000080443A4BC000000040F77E43C00000002000408F40000000E029254AC0000000A0342845C00C000000130000
310
00D20100003C00000006000000020000000000002000408FC0000000C0413A4BC000000040F77E43C00000002000408F4000000080443A4BC000000040F77E43C00C00000013000000DA0100003C00000006000000020000000000002000408FC00000008041AE47C0000000A079E647C00000002000408FC0000000606D19
310
49C000000000247546C00C00000013000000E20100003C00000006000000020000000000002000408FC00000008041AE47C0000000A079E647C00000002000408F400000006044AE47C0000000A079E647C00C00000013000000EA0100003C00000006000000020000000000002000408F4000000040701949C00000000024
310
7546C00000002000408F400000006044AE47C0000000A079E647C00C00000013000000F20100003C00000006000000020000000000002000408F4000000040701949C000000000247546C00000002000408FC0000000606D1949C000000000247546C00C00000013000000FA0100003C000000060000000200000000000020
310
00408FC000000020686646C0000000208DF848C00000002000408FC000000000C7B144C0000000A07D224AC00C00000013000000020200003C00000006000000020000000000002000408FC000000000C7B144C0000000A07D224AC00000002000408F40000000E0C9B144C0000000A07D224AC00C000000130000000A0200
310
003C00000006000000020000000000002000408F40000000006B6646C0000000208DF848C00000002000408F40000000E0C9B144C0000000A07D224AC00C00000013000000120200003C00000006000000020000000000002000408FC000000020686646C0000000208DF848C00000002000408F40000000006B6646C00000
310
00208DF848C00C000000130000001A0200003C00000006000000020000000000002000408FC0000000A0AC4D41C000000060EFC54BC00000002000408FC0000000C05F3B43C000000020A3F04AC00C00000013000000220200003C00000006000000020000000000002000408FC0000000A0AC4D41C000000060EFC54BC000
310
00002000408F4000000080AF4D41C000000060EFC54BC00C000000130000002A0200003C00000006000000020000000000002000408F4000000080AF4D41C000000060EFC54BC00000002000408F40000000A0623B43C000000020A3F04AC00C00000013000000320200003C00000006000000020000000000002000408F40
310
000000A0623B43C000000020A3F04AC00000002000408FC0000000C05F3B43C000000020A3F04AC00C000000130000003A0200003C00000006000000020000000000002000408FC0000000802F6E3FC000000040EB494CC00000002000408FC000000000EB9739C000000080F5F44CC00C00000013000000420200003C0000
310
0006000000020000000000002000408F40000000E0F09739C000000080F5F44CC00000002000408FC000000000EB9739C000000080F5F44CC00C000000130000004A0200003C00000006000000020000000000002000408F40000000E0F09739C000000080F5F44CC00000002000408F4000000040356E3FC000000040EB49
310
4CC00C00000013000000520200003C00000006000000020000000000002000408FC0000000802F6E3FC000000040EB494CC00000002000408F4000000040356E3FC000000040EB494CC00C000000130000005A0200003C00000006000000020000000000002000408FC000000020358E39C00000002095354FC00000002000
310
408FC000000000EB9739C000000080F5F44CC00C00000013000000620200003C00000006000000020000000000002000408F40000000003B8E39C00000002095354FC00000002000408FC000000020358E39C00000002095354FC00C000000130000006A0200003C00000006000000020000000000002000408F40000000E0
310
F09739C000000080F5F44CC00000002000408F40000000003B8E39C00000002095354FC00C00000013000000720200003C00000006000000020000000000002000408FC0000000C0CF8139C0000000E08F494FC00000002000408FC000000020358E39C00000002095354FC00C000000130000007A0200003C000000060000
310
00020000000000002000408FC0000000C0CF8139C0000000E08F494FC00000002000408F40000000A0D58139C0000000E08F494FC00C00000013000000820200003C00000006000000020000000000002000408F40000000003B8E39C00000002095354FC00000002000408F40000000A0D58139C0000000E08F494FC00C00
310
0000130000008A0200003C00000006000000020000000000002000408FC000000080896039C0000000603B574FC00000002000408FC0000000C0CF8139C0000000E08F494FC00C00000013000000920200003C00000006000000020000000000002000408FC000000080896039C0000000603B574FC00000002000408F4000
310
0000608F6039C0000000603B574FC00C000000130000009A0200003C00000006000000020000000000002000408F40000000608F6039C0000000603B574FC00000002000408F40000000A0D58139C0000000E08F494FC00C00000013000000A20200003C00000006000000020000000000002000408FC0000000E0E43439C0
310
00000060465A4FC00000002000408FC000000080896039C0000000603B574FC00C00000013000000AA0200003C00000006000000020000000000002000408FC0000000E0E43439C000000060465A4FC00000002000408F40000000C0EA3439C000000060465A4FC00C00000013000000B20200003C00000006000000020000
310
000000002000408F40000000C0EA3439C000000060465A4FC00000002000408F40000000608F6039C0000000603B574FC00C00000013000000BA0200003C00000006000000020000000000002000408FC0000000E0E43439C000000060465A4FC00000002000408FC000000000AB1A36C0000000E0C6514FC00C0000001300
310
0000C20200003C00000006000000020000000000002000408FC000000000AB1A36C0000000E0C6514FC00000002000408F40000000E0B01A36C0000000E0C6514FC00C00000013000000CA0200003C00000006000000020000000000002000408F40000000E0B01A36C0000000E0C6514FC00000002000408F40000000C0EA
310
3439C000000060465A4FC00C00000013000000D20200003C00000006000000020000000000002000408FC000000000AB1F34C0000000E010684FC00000002000408FC000000000E21132C0000000207B9C4FC00C00000013000000DA0200003C00000006000000020000000000002000408FC000000000E21132C000000020
310
7B9C4FC00000002000408F40000000E0E71132C0000000207B9C4FC00C00000013000000E20200003C00000006000000020000000000002000408F40000000E0E71132C0000000207B9C4FC00000002000408F40000000E0B01F34C0000000E010684FC00C00000013000000EA0200003C0000000600000002000000000000
310
2000408FC000000000AB1F34C0000000E010684FC00000002000408F40000000E0B01F34C0000000E010684FC00C00000013000000F20200003C00000006000000020000000000002000408FC000000080C82C30C00000004060E94FC00000002000408FC0000000C01D942CC0000000802D2A50C00C00000013000000FA02
310
00003C00000006000000020000000000002000408F400000008029942CC0000000802D2A50C00000002000408FC0000000C01D942CC0000000802D2A50C00C00000013000000020300003C00000006000000020000000000002000408F400000008029942CC0000000802D2A50C00000002000408F4000000060CE2C30C000
310
00004060E94FC00C000000130000000A0300003C00000006000000020000000000002000408FC000000080C82C30C00000004060E94FC00000002000408F4000000060CE2C30C00000004060E94FC00C00000013000000120300003C00000006000000020000000000002000408FC000000080F62529C0000000C06E6A50C0
310
0000002000408FC00000008027EB25C0000000E0B2B750C00C000000130000001A0300003C00000006000000020000000000002000408F400000000033EB25C0000000E0B2B750C00000002000408FC00000008027EB25C0000000E0B2B750C00C00000013000000220300003C00000006000000020000000000002000408F
310
400000000033EB25C0000000E0B2B750C00000002000408F4000000040022629C0000000C06E6A50C00C000000130000002A0300003C00000006000000020000000000002000408FC000000080F62529C0000000C06E6A50C00000002000408F4000000040022629C0000000C06E6A50C00C00000013000000320300003C00
310
000006000000020000000000002000408FC000000080E60723C0000000000A0F51C00000002000408FC000000000928120C0000000E0486F51C00C000000130000003A0300003C00000006000000020000000000002000408F40000000809D8120C0000000E0486F51C00000002000408FC000000000928120C0000000E048
310
6F51C00C00000013000000420300003C00000006000000020000000000002000408F40000000809D8120C0000000E0486F51C00000002000408F4000000040F20723C0000000000A0F51C00C000000130000004A0300003C00000006000000020000000000002000408FC000000080E60723C0000000000A0F51C000000020
310
00408F4000000040F20723C0000000000A0F51C00C00000013000000520300003C00000006000000020000000000002000408FC000000000B43E19C000000080574752C00000002000408FC0000000008AA81CC0000000C099D951C00C000000130000005A0300003C00000006000000020000000000002000408FC0000000
310
00B43E19C000000080574752C00000002000408F4000000000CB3E19C000000080574752C00C00000013000000620300003C00000006000000020000000000002000408F4000000000CB3E19C000000080574752C00000002000408F4000000000A1A81CC0000000C099D951C00C000000130000006A0300003C0000000600
310
0000020000000000002000408F4000000000A1A81CC0000000C099D951C00000002000408FC0000000008AA81CC0000000C099D951C00C00000013000000720300003C00000006000000020000000000002000408FC000000000C59616C0000000C017BF52C00000002000408FC00000000085F114C000000020B33453C00C
310
000000130000007A0300003C00000006000000020000000000002000408FC00000000085F114C000000020B33453C00000002000408F40000000009CF114C000000020B33453C00C00000013000000820300003C00000006000000020000000000002000408F40000000009CF114C000000020B33453C00000002000408F40
310
00000000DC9616C0000000C017BF52C00C000000130000008A0300003C00000006000000020000000000002000408FC000000000C59616C0000000C017BF52C00000002000408F4000000000DC9616C0000000C017BF52C00C00000013000000920300003C00000006000000020000000000002000408FC0000000000E7114
310
C000000080ED6A54C00000002000408FC000000000692A14C0000000A022B353C00C000000130000009A0300003C00000006000000020000000000002000408FC0000000000E7114C000000080ED6A54C00000002000408F4000000000257114C000000080ED6A54C00C00000013000000A20300003C000000060000000200
310
00000000002000408F4000000000257114C000000080ED6A54C00000002000408F4000000000812A14C0000000A022B353C00C00000013000000AA0300003C00000006000000020000000000002000408F4000000000812A14C0000000A022B353C00000002000408FC000000000692A14C0000000A022B353C00C00000013
310
000000B20300003C00000006000000020000000000002000408FC000000000425714C000000080397554C00000002000408FC0000000000E7114C000000080ED6A54C00C00000013000000BA0300003C00000006000000020000000000002000408FC000000000425714C000000080397554C00000002000408F4000000000
310
595714C000000080397554C00C00000013000000C20300003C00000006000000020000000000002000408F4000000000595714C000000080397554C00000002000408F4000000000257114C000000080ED6A54C00C00000013000000CA0300003C00000006000000020000000000002000408FC000000000425714C0000000
310
80397554C00000002000408FC00000000061E313C000000060137D54C00C00000013000000D20300003C00000006000000020000000000002000408F400000000079E313C000000060137D54C00000002000408FC00000000061E313C000000060137D54C00C00000013000000DA0300003C00000006000000020000000000
310
002000408F400000000079E313C000000060137D54C00000002000408F4000000000595714C000000080397554C00C00000013000000E20300003C00000006000000020000000000002000408FC000000000053A13C000000000008054C00000002000408FC00000000061E313C000000060137D54C00C00000013000000EA
310
0300003C00000006000000020000000000002000408F40000000001D3A13C000000000008054C00000002000408FC000000000053A13C000000000008054C00C00000013000000F20300003C00000006000000020000000000002000408F40000000001D3A13C000000000008054C00000002000408F400000000079E313C0
310
00000060137D54C00C00000013000000FA0300003C00000006000000020000000000002000408FC00000000000000A3F00000000008054C00000002000408FC000000000053A13C000000000008054C00C00000013000000020400003C00000006000000020000000000002000408F4000000000000004BF00000000008054
310
C00000002000408FC00000000000000A3F00000000008054C00C000000130000000A0400003C00000006000000020000000000002000408F4000000000000004BF00000000008054C00000002000408F40000000001D3A13C000000000008054C00C00000013000000120400003C0000000600000002000000000000200040
310
8FC00000000000000A3F000000408AC752C00000002000408FC00000000000000A3F00000000008054C00C000000130000001A0400003C00000006000000020000000000002000408FC00000000000000A3F000000408AC752C00000002000408F4000000000000006BF000000408AC752C00C00000013000000220400003C
310
00000006000000020000000000002000408F4000000000000006BF000000408AC752C00000002000408F4000000000000004BF00000000008054C00C000000130000002A0400003C00000006000000020000000000002000408FC00000000000CFA1BF000000808FB752C00000002000408FC00000000000000A3F00000040
310
8AC752C00C00000013000000320400003C00000006000000020000000000002000408FC00000000000CFA1BF000000808FB752C00000002000408F400000000000DBA1BF000000808FB752C00C000000130000003A0400003C00000006000000020000000000002000408F4000000000000006BF000000408AC752C0000000
310
2000408F400000000000DBA1BF000000808FB752C00C00000013000000420400003C00000006000000020000000000002000408FC00000000000CFA1BF000000808FB752C00000002000408FC0000000000086C1BF00000060ABA852C00C000000130000004A0400003C00000006000000020000000000002000408F400000
310
00000089C1BF00000060ABA852C00000002000408FC0000000000086C1BF00000060ABA852C00C00000013000000520400003C00000006000000020000000000002000408F400000000000DBA1BF000000808FB752C00000002000408F40000000000089C1BF00000060ABA852C00C000000130000005A0400003C00000006
310
000000020000000000002000408FC000000000A4CFF3BF00000080753552C00000002000408FC0000000000086C1BF00000060ABA852C00C00000013000000620400003C00000006000000020000000000002000408F400000000004D0F3BF00000080753552C00000002000408FC000000000A4CFF3BF00000080753552C0
310
0C000000130000006A0400003C00000006000000020000000000002000408F40000000000089C1BF00000060ABA852C00000002000408F400000000004D0F3BF00000080753552C00C00000013000000720400003C00000006000000020000000000002000408FC000000000FCC0F5BF000000404F2152C00000002000408F
310
C000000000A4CFF3BF00000080753552C00C000000130000007A0400003C00000006000000020000000000002000408FC000000000FCC0F5BF000000404F2152C00000002000408F40000000005CC1F5BF000000404F2152C00C00000013000000820400003C00000006000000020000000000002000408F400000000004D0
310
F3BF00000080753552C00000002000408F40000000005CC1F5BF000000404F2152C00C000000130000008A0400003C00000006000000020000000000002000408FC000000000FCC0F5BF000000404F2152C00000002000408FC000000000FCC0F5BF00000000DE0B52C00C00000013000000920400003C0000000600000002
310
0000000000002000408F40000000005CC1F5BF00000000DE0B52C00000002000408FC000000000FCC0F5BF00000000DE0B52C00C000000130000009A0400003C00000006000000020000000000002000408F40000000005CC1F5BF000000404F2152C00000002000408F40000000005CC1F5BF00000000DE0B52C00C000000
310
13000000A20400003C00000006000000020000000000002000408FC000000000A4CFF3BF000000C0B7F751C00000002000408FC000000000FCC0F5BF00000000DE0B52C00C00000013000000AA0400003C00000006000000020000000000002000408FC000000000A4CFF3BF000000C0B7F751C00000002000408F40000000
310
0004D0F3BF000000C0B7F751C00C00000013000000B20400003C00000006000000020000000000002000408F40000000005CC1F5BF00000000DE0B52C00000002000408F400000000004D0F3BF000000C0B7F751C00C00000013000000BA0400003C00000006000000020000000000002000408FC000000000A4CFF3BF0000
310
00C0B7F751C00000002000408FC0000000000086C1BF000000E0818451C00C00000013000000C20400003C00000006000000020000000000002000408F40000000000089C1BF000000E0818451C00000002000408FC0000000000086C1BF000000E0818451C00C00000013000000CA0400003C000000060000000200000000
310
00002000408F400000000004D0F3BF000000C0B7F751C00000002000408F40000000000089C1BF000000E0818451C00C00000013000000D20400003C00000006000000020000000000002000408FC00000000000CFA1BF000000C09D7551C00000002000408FC0000000000086C1BF000000E0818451C00C00000013000000
310
DA0400003C00000006000000020000000000002000408FC00000000000CFA1BF000000C09D7551C00000002000408F400000000000DBA1BF000000C09D7551C00C00000013000000E20400003C00000006000000020000000000002000408F400000000000DBA1BF000000C09D7551C00000002000408F40000000000089C1
310
BF000000E0818451C00C00000013000000EA0400003C00000006000000020000000000002000408FC00000000000000A3F00000000A36551C00000002000408FC00000000000CFA1BF000000C09D7551C00C00000013000000F20400003C00000006000000020000000000002000408FC00000000000000A3F00000000A365
310
51C00000002000408F4000000000000006BF00000000A36551C00C00000013000000FA0400003C00000006000000020000000000002000408F400000000000DBA1BF000000C09D7551C00000002000408F4000000000000006BF00000000A36551C00C00000013000000020500003C00000006000000020000000000002000
310
408FC00000000000000A3F00000000A36551C00000002000408FC0000000000000083F000000A0BBC24FC00C000000130000000A0500003C00000006000000020000000000002000408F4000000000000006BF000000A0BBC24FC00000002000408FC0000000000000083F000000A0BBC24FC00C0000001300000012050000
310
3C00000006000000020000000000002000408F4000000000000006BF00000000A36551C00000002000408F4000000000000006BF000000A0BBC24FC00C000000130000001A0500003C00000006000000020000000000002000408FC000000000C08ECFBF00000080CC194FC00000002000408FC0000000000000083F000000
310
A0BBC24FC00C00000013000000220500003C00000006000000020000000000002000408F4000000000A091CFBF00000080CC194FC00000002000408FC000000000C08ECFBF00000080CC194FC00C000000130000002A0500003C00000006000000020000000000002000408F4000000000000006BF000000A0BBC24FC00000
310
002000408F4000000000A091CFBF00000080CC194FC00C00000013000000320500003C00000006000000020000000000002000408FC000000000409CEEBF000000C03D854EC00000002000408FC000000000C08ECFBF00000080CC194FC00C000000130000003A0500003C00000006000000020000000000002000408FC000
310
000000409CEEBF000000C03D854EC00000002000408F4000000000F89CEEBF000000C03D854EC00C00000013000000420500003C00000006000000020000000000002000408F4000000000A091CFBF00000080CC194FC00000002000408F4000000000F89CEEBF000000C03D854EC00C000000130000004A0500003C000000
310
06000000020000000000002000408FC000000000EE5A00C000000020FA164EC00000002000408FC000000000409CEEBF000000C03D854EC00C00000013000000520500003C00000006000000020000000000002000408FC000000000EE5A00C000000020FA164EC00000002000408F40000000001C5B00C000000020FA164E
310
C00C000000130000005A0500003C00000006000000020000000000002000408F4000000000F89CEEBF000000C03D854EC00000002000408F40000000001C5B00C000000020FA164EC00C00000013000000620500003C00000006000000020000000000002000408FC000000000B1F41AC0000000E090CF4CC0000000200040
310
8FC000000000EE5A00C000000020FA164EC00C000000130000006A0500003C00000006000000020000000000002000408FC000000000B1F41AC0000000E090CF4CC00000002000408F4000000000C8F41AC0000000E090CF4CC00C00000013000000720500003C00000006000000020000000000002000408F40000000001C
310
5B00C000000020FA164EC00000002000408F4000000000C8F41AC0000000E090CF4CC00C000000130000007A0500003C00000006000000020000000000002000408FC000000000B1F41AC0000000E090CF4CC00000002000408FC0000000005A0E22C000000000E4104CC00C00000013000000820500003C00000006000000
310
020000000000002000408F4000000080650E22C000000000E4104CC00000002000408FC0000000005A0E22C000000000E4104CC00C000000130000008A0500003C00000006000000020000000000002000408F4000000000C8F41AC0000000E090CF4CC00000002000408F4000000080650E22C000000000E4104CC00C0000
310
0013000000920500003C00000006000000020000000000002000408FC000000000751226C0000000C08D284BC00000002000408FC0000000005A0E22C000000000E4104CC00C000000130000009A0500003C00000006000000020000000000002000408F40000000C0801226C0000000C08D284BC00000002000408FC00000
310
0000751226C0000000C08D284BC00C00000013000000A20500003C00000006000000020000000000002000408F4000000080650E22C000000000E4104CC00000002000408F40000000C0801226C0000000C08D284BC00C00000013000000AA0500003C00000006000000020000000000002000408FC00000008083852FC000
310
000040B81649C00000002000408FC000000000751226C0000000C08D284BC00C00000013000000B20500003C00000006000000020000000000002000408F40000000008F852FC000000040B81649C00000002000408FC00000008083852FC000000040B81649C00C00000013000000BA0500003C0000000600000002000000
310
0000002000408F40000000008F852FC000000040B81649C00000002000408F40000000C0801226C0000000C08D284BC00C00000013000000C20500003C00000006000000020000000000002000408FC0000000A0CA3B35C000000000237B47C00000002000408FC00000008083852FC000000040B81649C00C000000130000
310
00CA0500003C00000006000000020000000000002000408F4000000080D03B35C000000000237B47C00000002000408FC0000000A0CA3B35C000000000237B47C00C00000013000000D20500003C00000006000000020000000000002000408F4000000080D03B35C000000000237B47C00000002000408F40000000008F85
310
2FC000000040B81649C00C00000013000000DA0500003C00000006000000020000000000002000408FC0000000002F413BC0000000A0D56446C00000002000408FC0000000A0CA3B35C000000000237B47C00C00000013000000E20500003C00000006000000020000000000002000408F40000000E034413BC0000000A0D5
310
6446C00000002000408FC0000000002F413BC0000000A0D56446C00C00000013000000EA0500003C00000006000000020000000000002000408F4000000080D03B35C000000000237B47C00000002000408F40000000E034413BC0000000A0D56446C00C00000013000000F20500003C000000060000000200000000000020
310
00408FC00000004032DA3FC000000000D18F45C00000002000408FC0000000002F413BC0000000A0D56446C00C00000013000000FA0500003C00000006000000020000000000002000408F400000002038DA3FC000000000D18F45C00000002000408FC00000004032DA3FC000000000D18F45C00C00000013000000020600
310
003C00000006000000020000000000002000408F40000000E034413BC0000000A0D56446C00000002000408F400000002038DA3FC000000000D18F45C00C000000130000000A0600003C00000006000000020000000000002000408FC000000060630342C0000000403B5444C00000002000408FC00000004032DA3FC00000
310
0000D18F45C00C00000013000000120600003C00000006000000020000000000002000408F4000000040660342C0000000403B5444C00000002000408FC000000060630342C0000000403B5444C00C000000130000001A0600003C00000006000000020000000000002000408F4000000040660342C0000000403B5444C000
310
00002000408F400000002038DA3FC000000000D18F45C00C00000013000000220600003C00000006000000020000000000002000408FC0000000E09FCF43C000000020CCBD42C00000002000408FC000000060630342C0000000403B5444C00C000000130000002A0600003C00000006000000020000000000002000408FC0
310
000000E09FCF43C000000020CCBD42C00000002000408F40000000C0A2CF43C000000020CCBD42C00C00000013000000320600003C00000006000000020000000000002000408F40000000C0A2CF43C000000020CCBD42C00000002000408F4000000040660342C0000000403B5444C00C000000130000003A0600003C0000
310
0006000000020000000000002000408FC0000000E09FCF43C000000020CCBD42C00000002000408FC000000080B74045C0000000009BDB40C00C00000013000000420600003C00000006000000020000000000002000408F4000000060BA4045C0000000009BDB40C00000002000408FC000000080B74045C0000000009BDB
310
40C00C000000130000004A0600003C00000006000000020000000000002000408F4000000060BA4045C0000000009BDB40C00000002000408F40000000C0A2CF43C000000020CCBD42C00C00000013000000520600003C00000006000000020000000000002000408FC000000040F64846C0000000801E7F3DC00000002000
310
408FC000000080B74045C0000000009BDB40C00C000000130000005A0600003C00000006000000020000000000002000408FC000000040F64846C0000000801E7F3DC00000002000408F4000000020F94846C0000000801E7F3DC00C00000013000000620600003C00000006000000020000000000002000408F4000000020
310
F94846C0000000801E7F3DC00000002000408F4000000060BA4045C0000000009BDB40C00C000000130000006A0600003C00000006000000020000000000002000408FC000000040F64846C0000000801E7F3DC00000002000408FC000000040843948C000000000FB6E35C00C00000013000000720600003C000000060000
310
00020000000000002000408F4000000020873948C000000000FB6E35C00000002000408FC000000040843948C000000000FB6E35C00C000000130000007A0600003C00000006000000020000000000002000408F4000000020873948C000000000FB6E35C00000002000408F4000000020F94846C0000000801E7F3DC00C00
310
000013000000820600003C00000006000000020000000000002000408FC0000000600FE64AC0000000808F502CC00000002000408FC000000040843948C000000000FB6E35C00C000000130000008A0600003C00000006000000020000000000002000408FC0000000600FE64AC0000000808F502CC00000002000408F4000
310
00004012E64AC0000000808F502CC00C00000013000000920600003C00000006000000020000000000002000408F400000004012E64AC0000000808F502CC00000002000408F4000000020873948C000000000FB6E35C00C000000130000009A0600003C00000006000000020000000000002000408FC0000000600FE64AC0
310
000000808F502CC00000002000408FC0000000206B384EC0000000006D9D1FC00C00000013000000A20600003C00000006000000020000000000002000408F40000000006E384EC0000000006E9D1FC00000002000408FC0000000206B384EC0000000006D9D1FC00C00000013000000AA0600003C00000006000000020000
310
000000002000408F40000000006E384EC0000000006E9D1FC00000002000408F400000004012E64AC0000000808F502CC00C00000013000000B20600003C00000006000000020000000000002000408FC000000080921E51C000000000343C05C00000002000408FC0000000206B384EC0000000006D9D1FC00C0000001300
310
0000BA0600003C00000006000000020000000000002000408FC000000080921E51C000000000343C05C00000002000408F4000000000941E51C000000000343C05C00C00000013000000C20600003C00000006000000020000000000002000408F4000000000941E51C000000000343C05C00000002000408F40000000006E
310
384EC0000000006E9D1FC00C00000013000000CA0600003C00000006000000020000000000002000408FC000000040D75151C0000000005CB4FDBF0000002000408FC000000080921E51C000000000343C05C00C00000013000000D20600003C00000006000000020000000000002000408FC000000040D75151C000000000
310
5CB4FDBF0000002000408F40000000C0D85151C0000000005CB4FDBF0C00000013000000DA0600003C00000006000000020000000000002000408F40000000C0D85151C0000000005CB4FDBF0000002000408F4000000000941E51C000000000343C05C00C00000013000000E20600003C0000000600000002000000000000
310
2000408FC000000040D75151C0000000005CB4FDBF0000002000408FC0000000E0488C51C000000000F8BCEBBF0C00000013000000EA0600003C00000006000000020000000000002000408F40000000404A8C51C000000000F8BCEBBF0000002000408FC0000000E0488C51C000000000F8BCEBBF0C00000013000000F206
310
00003C00000006000000020000000000002000408F40000000404A8C51C000000000F8BCEBBF0000002000408F40000000C0D85151C0000000005CB4FDBF0C00000013000000FA0600003C00000006000000020000000000002000408FC000000080D7D951C000000000A090CCBF0000002000408FC0000000E0488C51C000
310
000000F8BCEBBF0C00000013000000020700003C00000006000000020000000000002000408FC000000080D7D951C000000000A090CCBF0000002000408F4000000000D9D951C000000000A090CCBF0C000000130000000A0700003C00000006000000020000000000002000408F4000000000D9D951C000000000A090CCBF
310
0000002000408F40000000404A8C51C000000000F8BCEBBF0C00000013000000120700003C00000006000000020000000000002000408FC0000000208B3152C0000000000000E0BE0000002000408FC000000080D7D951C000000000A090CCBF0C000000130000001A0700003C00000006000000020000000000002000408F
310
C0000000208B3152C0000000000000E0BE0000002000408F40000000808C3152C0000000000000E0BE0C00000013000000220700003C00000006000000020000000000002000408F40000000808C3152C0000000000000E0BE0000002000408F4000000000D9D951C000000000A090CCBF0C000000130000002A0700003C00
310
000006000000020000000000002000408FC0000000A045B653C0000000000000E0BE0000002000408FC0000000208B3152C0000000000000E0BE0C00000013000000320700003C00000006000000020000000000002000408FC0000000A045B653C0000000000000E0BE0000002000408F400000000047B653C00000000000
310
00E0BE0C000000130000003A0700003C00000006000000020000000000002000408F400000000047B653C0000000000000E0BE0000002000408F40000000808C3152C0000000000000E0BE0C00000013000000420700003C00000006000000020000000000002000408FC0000000A045B653C0000000000000E0BE00000020
310
00408FC00000006034C753C00000000080D5A0BF0C000000130000004A0700003C00000006000000020000000000002000408F40000000C035C753C00000000080D5A0BF0000002000408FC00000006034C753C00000000080D5A0BF0C00000013000000520700003C00000006000000020000000000002000408F40000000
310
C035C753C00000000080D5A0BF0000002000408F400000000047B653C0000000000000E0BE0C000000130000005A0700003C00000006000000020000000000002000408FC0000000A0FBD653C000000000608BC0BF0000002000408FC00000006034C753C00000000080D5A0BF0C00000013000000620700003C0000000600
310
0000020000000000002000408FC0000000A0FBD653C000000000608BC0BF0000002000408F4000000000FDD653C000000000608BC0BF0C000000130000006A0700003C00000006000000020000000000002000408F4000000000FDD653C000000000608BC0BF0000002000408F40000000C035C753C00000000080D5A0BF0C
310
00000013000000720700003C00000006000000020000000000002000408FC000000000105154C00000000080B2F2BF0000002000408FC0000000A0FBD653C000000000608BC0BF0C000000130000007A0700003C00000006000000020000000000002000408FC000000000105154C00000000080B2F2BF0000002000408F40
310
00000080115154C00000000080B2F2BF0C00000013000000820700003C00000006000000020000000000002000408F4000000080115154C00000000080B2F2BF0000002000408F4000000000FDD653C000000000608BC0BF0C000000130000008A0700003C00000006000000020000000000002000408FC000000000105154
310
C00000000080B2F2BF0000002000408FC000000020C67154C000000000E4C3F4BF0C00000013000000920700003C00000006000000020000000000002000408F4000000080C77154C000000000E4C3F4BF0000002000408FC000000020C67154C000000000E4C3F4BF0C000000130000009A0700003C000000060000000200
310
00000000002000408F4000000080C77154C000000000E4C3F4BF0000002000408F4000000080115154C00000000080B2F2BF0C00000013000000A20700003C00000006000000020000000000002000408FC0000000207C9254C00000000080B2F2BF0000002000408FC000000020C67154C000000000E4C3F4BF0C00000013
310
000000AA0700003C00000006000000020000000000002000408FC0000000207C9254C00000000080B2F2BF0000002000408F40000000807D9254C00000000080B2F2BF0C00000013000000B20700003C00000006000000020000000000002000408F40000000807D9254C00000000080B2F2BF0000002000408F4000000080
310
C77154C000000000E4C3F4BF0C00000013000000BA0700003C00000006000000020000000000002000408FC0000000207C9254C00000000080B2F2BF0000002000408FC000000080900C55C000000000608BC0BF0C00000013000000C20700003C00000006000000020000000000002000408F4000000000920C55C0000000
310
00608BC0BF0000002000408FC000000080900C55C000000000608BC0BF0C00000013000000CA0700003C00000006000000020000000000002000408F4000000000920C55C000000000608BC0BF0000002000408F40000000807D9254C00000000080B2F2BF0C00000013000000D20700003C00000006000000020000000000
310
002000408FC0000000C0571C55C00000000080D5A0BF0000002000408FC000000080900C55C000000000608BC0BF0C00000013000000DA0700003C00000006000000020000000000002000408FC0000000C0571C55C00000000080D5A0BF0000002000408F4000000040591C55C00000000080D5A0BF0C00000013000000E2
310
0700003C00000006000000020000000000002000408F4000000000920C55C000000000608BC0BF0000002000408F4000000040591C55C00000000080D5A0BF0C00000013000000EA0700003C00000006000000020000000000002000408FC0000000C0571C55C00000000080D5A0BF0000002000408FC000000080462D55C0
310
000000000000E0BE0C00000013000000F20700003C00000006000000020000000000002000408F4000000000482D55C0000000000000E0BE0000002000408FC000000080462D55C0000000000000E0BE0C00000013000000FA0700003C00000006000000020000000000002000408F4000000000482D55C0000000000000E0
310
BE0000002000408F4000000040591C55C00000000080D5A0BF0C00000013000000020800003C00000006000000020000000000002000408FC0000000E0FEFF56C0000000000000E0BE0000002000408FC000000080462D55C0000000000000E0BE0C000000130000000A0800003C0000000600000002000000000000200040
310
8F4000000040000057C0000000000000E0BE0000002000408F4000000000482D55C0000000000000E0BE0C00000013000000120800003C00000006000000020000000000002000408FC000000000AB1F34C0000000E010684FC00000002000408FC000000000AB1A36C0000000E0C6514FC00C000000130000001A0800003C
310
00000006000000020000000000002000408F40000000E0B01F34C0000000E010684FC00000002000408F40000000E0B01A36C0000000E0C6514FC00C00000013000000220800003C00000006000000020000000000002000408FC000000080C82C30C00000004060E94FC00000002000408FC000000000E21132C000000020
310
7B9C4FC00C000000130000002A0800003C00000006000000020000000000002000408F4000000060CE2C30C00000004060E94FC00000002000408F40000000E0E71132C0000000207B9C4FC00C00000013000000320800003C00000006000000020000000000002000408FC000000080F62529C0000000C06E6A50C0000000
310
2000408FC0000000C01D942CC0000000802D2A50C00C000000130000003A0800003C00000006000000020000000000002000408F4000000040022629C0000000C06E6A50C00000002000408F400000008029942CC0000000802D2A50C00C00000013000000420800003C00000006000000020000000000002000408FC00000
310
0080E60723C0000000000A0F51C00000002000408FC00000008027EB25C0000000E0B2B750C00C000000130000004A0800003C00000006000000020000000000002000408F4000000040F20723C0000000000A0F51C00000002000408F400000000033EB25C0000000E0B2B750C00C00000013000000520800003C00000006
310
000000020000000000002000408FC0000000008AA81CC0000000C099D951C00000002000408FC000000000928120C0000000E0486F51C00C000000130000005A0800003C00000006000000020000000000002000408F4000000000A1A81CC0000000C099D951C00000002000408F40000000809D8120C0000000E0486F51C0
310
0C00000013000000620800003C00000006000000020000000000002000408FC000000000C59616C0000000C017BF52C00000002000408FC000000000B43E19C000000080574752C00C000000130000006A0800003C00000006000000020000000000002000408F4000000000DC9616C0000000C017BF52C00000002000408F
310
4000000000CB3E19C000000080574752C00C00000013000000720800003C00000006000000020000000000002000408FC00000000085F114C000000020B33453C00000002000408FC000000000692A14C0000000A022B353C00C000000130000007A0800003C00000006000000020000000000002000408F4000000000812A
310
14C0000000A022B353C00000002000408F40000000009CF114C000000020B33453C00C00000013000000820800003C00000006000000020000000000002000408FC0000000E04D7454C000000040B38224C00000002000408FC000000040E3A353C0000000C0ECF625C00C000000130000008A0800003C0000000600000002
310
0000000000002000408F40000000404F7454C000000040B38224C00000002000408F40000000C0E4A353C0000000C0ECF625C00C00000013000000920800003C00000006000000020000000000002000408FC000000060E52552C00000008075AF2AC00000002000408FC00000000042E852C0000000C06AEC27C00C000000
310
130000009A0800003C00000006000000020000000000002000408F400000008043E852C0000000C06AEC27C00000002000408F40000000C0E62552C00000008075AF2AC00C00000013000000A20800003C00000006000000020000000000002000408FC00000000023D350C0000000600FDD30C00000002000408FC0000000
310
A0A47E51C0000000806BC12DC00C00000013000000AA0800003C00000006000000020000000000002000408F400000008024D350C0000000600FDD30C00000002000408F4000000000A67E51C0000000806BC12DC00C00000013000000B20800003C00000006000000020000000000002000408FC000000020054850C00000
310
00009BDD32C00000002000408FC00000008084774FC0000000C0EC6035C00C00000013000000BA0800003C00000006000000020000000000002000408F400000006087774FC0000000C0EC6035C00000002000408F4000000080064850C0000000009BDD32C00C00000013000000C20800003C000000060000000200000000
310
00002000408FC0000000A01DA54EC000000080ADBD37C00000002000408FC00000006005DA4DC00000008029AC3AC00C00000013000000CA0800003C00000006000000020000000000002000408F400000004008DA4DC00000008029AC3AC00000002000408F400000008020A54EC000000080ADBD37C00C00000013000000
310
D20800003C00000006000000020000000000002000408FC0000000C006534DC0000000E0D9473DC00000002000408FC00000008021B44CC0000000C0CB3240C00C00000013000000DA0800003C00000006000000020000000000002000408F400000006024B44CC0000000C0CB3240C00000002000408F40000000A009534D
310
C0000000E0D9473DC00C00000013000000E20800003C00000006000000020000000000002000408FC0000000C0413A4BC000000040F77E43C00000002000408FC000000040E1FD4BC000000020420342C00C00000013000000EA0800003C00000006000000020000000000002000408F4000000080443A4BC000000040F77E
310
43C00000002000408F4000000000E4FD4BC000000040420342C00C00000013000000F20800003C00000006000000020000000000002000408FC00000000027254AC0000000A0342845C00000002000408FC0000000606D1949C000000000247546C00C00000013000000FA0800003C00000006000000020000000000002000
310
408F4000000040701949C000000000247546C00000002000408F40000000E029254AC0000000A0342845C00C00000013000000020900003C00000006000000020000000000002000408FC000000020686646C0000000208DF848C00000002000408FC00000008041AE47C0000000A079E647C00C000000130000000A090000
310
3C00000006000000020000000000002000408F40000000006B6646C0000000208DF848C00000002000408F400000006044AE47C0000000A079E647C00C00000013000000120900003C00000006000000020000000000002000408FC000000000C7B144C0000000A07D224AC00000002000408FC0000000C05F3B43C0000000
310
20A3F04AC00C000000130000001A0900003C00000006000000020000000000002000408F40000000E0C9B144C0000000A07D224AC00000002000408F40000000A0623B43C000000020A3F04AC00C00000013000000220900003C00000006000000020000000000002000408FC0000000802F6E3FC000000040EB494CC00000
310
002000408FC0000000A0AC4D41C000000060EFC54BC00C000000130000002A0900003C00000006000000020000000000002000408F4000000040356E3FC000000040EB494CC00000002000408F4000000080AF4D41C000000060EFC54BC00C00000013000000320900003C00000006000000020000000000002000408FC000
310
000060B4BB55C000000000E07513C00000002000408FC000000080900C55C000000000608BC0BF0C000000130000003A0900003C00000006000000020000000000002000408FC000000080E2B855C000000000E0CF22C00000002000408FC0000000207C9254C00000000080B2F2BF0C00000013000000420900003C000000
310
06000000020000000000002000408FC0000000E0FEFF56C000000000F22212C00000002000408FC000000080462D55C0000000000000E0BE0C000000130000004A0900003C00000006000000020000000000002000408FC0000000C05DFD56C00000000020B712C00000002000408FC000000080462D55C0000000000000E0
310
BE0C00000013000000520900003C00000006000000020000000000002000408FC0000000C02EF656C000000000992313C00000002000408FC000000080462D55C0000000000000E0BE0C000000130000005A0900003C00000006000000020000000000002000408FC0000000805EEC56C0000000004E4B13C0000000200040
310
8FC000000080462D55C0000000000000E0BE0C00000013000000620900003C00000006000000020000000000002000408FC0000000C0571C55C00000000080D5A0BF0000002000408FC000000060B4BB55C000000000E07513C00C000000130000006A0900003C00000006000000020000000000002000408FC0000000207C
310
9254C00000000080B2F2BF0000002000408FC0000000203FAF55C0000000006E4F23C00C00000013000000720900003C00000006000000020000000000002000408FC0000000207C9254C00000000080B2F2BF0000002000408FC0000000404EB655C0000000804D1923C00C000000130000007A0900003C00000006000000
310
020000000000002000408FC0000000207C9254C00000000080B2F2BF0000002000408FC0000000E08FA555C000000080096423C00C00000013000000820900003C00000006000000020000000000002000408FC0000000E04D7454C000000040B38224C00000002000408FC000000020C67154C000000000E4C3F4BF0C0000
310
00130000008A0900003C00000006000000020000000000002000408FC000000000105154C00000000080B2F2BF0000002000408FC0000000E04D7454C000000040B38224C00C00000013000000920900003C00000006000000020000000000002000408FC0000000A0FBD653C000000000608BC0BF0000002000408FC00000
310
00E04D7454C000000040B38224C00C000000130000009A0900003C00000006000000020000000000002000408FC0000000E04D7454C000000040B38224C00000002000408FC00000006034C753C00000000080D5A0BF0C00000013000000A20900003C00000006000000020000000000002000408FC0000000A045B653C000
310
0000000000E0BE0000002000408FC0000000E04D7454C000000040B38224C00C00000013000000AA0900003C00000006000000020000000000002000408FC000000080D7D951C000000000A090CCBF0000002000408FC00000000042E852C0000000C06AEC27C00C00000013000000B20900003C0000000600000002000000
310
0000002000408FC0000000208B3152C0000000000000E0BE0000002000408FC000000040E3A353C0000000C0ECF625C00C00000013000000BA0900003C00000006000000020000000000002000408FC0000000E0488C51C000000000F8BCEBBF0000002000408FC00000000042E852C0000000C06AEC27C00C000000130000
310
00C20900003C00000006000000020000000000002000408FC000000040D75151C0000000005CB4FDBF0000002000408FC00000000042E852C0000000C06AEC27C00C00000013000000CA0900003C00000006000000020000000000002000408FC000000080921E51C000000000343C05C00000002000408FC00000000042E8
310
52C0000000C06AEC27C00C00000013000000D20900003C00000006000000020000000000002000408FC000000060E52552C00000008075AF2AC00000002000408FC0000000206B384EC0000000006D9D1FC00C00000013000000DA0900003C00000006000000020000000000002000408FC00000000023D350C0000000600F
310
DD30C00000002000408FC0000000206B384EC0000000006D9D1FC00C00000013000000E20900003C00000006000000020000000000002000408FC0000000206B384EC0000000006D9D1FC00000002000408FC0000000A0A47E51C0000000806BC12DC00C00000013000000EA0900003C000000060000000200000000000020
310
00408FC0000000600FE64AC0000000808F502CC00000002000408FC00000008084774FC0000000C0EC6035C00C00000013000000F20900003C00000006000000020000000000002000408FC000000020054850C0000000009BDD32C00000002000408FC0000000206B384EC0000000006D9D1FC00C00000013000000FA0900
310
003C00000006000000020000000000002000408FC000000040843948C000000000FB6E35C00000002000408FC00000006005DA4DC00000008029AC3AC00C00000013000000020A00003C00000006000000020000000000002000408FC0000000600FE64AC0000000808F502CC00000002000408FC0000000A01DA54EC00000
310
0080ADBD37C00C000000130000000A0A00003C00000006000000020000000000002000408FC000000040F64846C0000000801E7F3DC00000002000408FC00000008021B44CC0000000C0CB3240C00C00000013000000120A00003C00000006000000020000000000002000408FC0000000C006534DC0000000E0D9473DC000
310
00002000408FC000000040843948C000000000FB6E35C00C000000130000001A0A00003C00000006000000020000000000002000408FC0000000C0413A4BC000000040F77E43C00000002000408FC000000080B74045C0000000009BDB40C00C00000013000000220A00003C00000006000000020000000000002000408FC0
310
00000040F64846C0000000801E7F3DC00000002000408FC000000040E1FD4BC000000020420342C00C000000130000002A0A00003C00000006000000020000000000002000408FC0000000E09FCF43C000000020CCBD42C00000002000408FC0000000606D1949C000000000247546C00C00000013000000320A00003C0000
310
0006000000020000000000002000408FC00000000027254AC0000000A0342845C00000002000408FC000000080B74045C0000000009BDB40C00C000000130000003A0A00003C00000006000000020000000000002000408FC00000008083852FC000000040B81649C00000002000408FC000000000EB9739C000000080F5F4
310
4CC00C00000013000000420A00003C00000006000000020000000000002000408FC0000000A0CA3B35C000000000237B47C00000002000408FC000000000EB9739C000000080F5F44CC00C000000130000004A0A00003C00000006000000020000000000002000408FC00000008083852FC000000040B81649C00000002000
310
408FC000000020358E39C00000002095354FC00C00000013000000520A00003C00000006000000020000000000002000408FC0000000802F6E3FC000000040EB494CC00000002000408FC0000000002F413BC0000000A0D56446C00C000000130000005A0A00003C00000006000000020000000000002000408FC0000000A0
310
AC4D41C000000060EFC54BC00000002000408FC0000000002F413BC0000000A0D56446C00C00000013000000620A00003C00000006000000020000000000002000408FC000000020686646C0000000208DF848C00000002000408FC000000060630342C0000000403B5444C00C000000130000006A0A00003C000000060000
310
00020000000000002000408FC0000000E09FCF43C000000020CCBD42C00000002000408FC00000008041AE47C0000000A079E647C00C00000013000000720A00003C00000006000000020000000000002000408FC000000000C7B144C0000000A07D224AC00000002000408FC00000004032DA3FC000000000D18F45C00C00
310
0000130000007A0A00003C00000006000000020000000000002000408FC000000000C7B144C0000000A07D224AC00000002000408FC000000060630342C0000000403B5444C00C00000013000000820A00003C00000006000000020000000000002000408FC00000004032DA3FC000000000D18F45C00000002000408FC000
310
0000C05F3B43C000000020A3F04AC00C000000130000008A0A00003C00000006000000020000000000002000408FC00000000000000A3F000000408AC752C00000002000408FC000000000053A13C000000000008054C00C00000013000000920A00003C00000006000000020000000000002000408FC00000000000000A3F
310
000000408AC752C00000002000408FC00000000061E313C000000060137D54C00C000000130000009A0A00003C00000006000000020000000000002000408FC00000000000000A3F000000408AC752C00000002000408FC000000000425714C000000080397554C00C00000013000000A20A00003C00000006000000020000
310
000000002000408FC00000000000000A3F000000408AC752C00000002000408FC0000000000E7114C000000080ED6A54C00C00000013000000AA0A00003C00000006000000020000000000002000408FC00000000000CFA1BF000000808FB752C00000002000408FC000000000692A14C0000000A022B353C00C0000001300
310
0000B20A00003C00000006000000020000000000002000408FC00000000085F114C000000020B33453C00000002000408FC0000000000086C1BF00000060ABA852C00C00000013000000BA0A00003C00000006000000020000000000002000408FC000000000C59616C0000000C017BF52C00000002000408FC000000000A4
310
CFF3BF00000080753552C00C00000013000000C20A00003C00000006000000020000000000002000408FC000000000FCC0F5BF000000404F2152C00000002000408FC000000000B43E19C000000080574752C00C00000013000000CA0A00003C00000006000000020000000000002000408FC000000000B43E19C000000080
310
574752C00000002000408FC000000000FCC0F5BF00000000DE0B52C00C00000013000000D20A00003C00000006000000020000000000002000408FC000000000A4CFF3BF000000C0B7F751C00000002000408FC0000000008AA81CC0000000C099D951C00C00000013000000DA0A00003C0000000600000002000000000000
310
2000408FC0000000000086C1BF000000E0818451C00000002000408FC0000000008AA81CC0000000C099D951C00C00000013000000E20A00003C00000006000000020000000000002000408FC00000000000CFA1BF000000C09D7551C00000002000408FC0000000008AA81CC0000000C099D951C00C00000013000000EA0A
310
00003C00000006000000020000000000002000408FC00000000000000A3F00000000A36551C00000002000408FC0000000008AA81CC0000000C099D951C00C00000013000000F20A00003C00000006000000020000000000002000408FC0000000000000083F000000A0BBC24FC00000002000408FC000000000928120C000
310
0000E0486F51C00C00000013000000FA0A00003C00000006000000020000000000002000408FC000000080E60723C0000000000A0F51C00000002000408FC000000000C08ECFBF00000080CC194FC00C00000013000000020B00003C00000006000000020000000000002000408FC000000000409CEEBF000000C03D854EC0
310
0000002000408FC00000008027EB25C0000000E0B2B750C00C000000130000000A0B00003C00000006000000020000000000002000408FC000000000EE5A00C000000020FA164EC00000002000408FC000000080F62529C0000000C06E6A50C00C00000013000000120B00003C00000006000000020000000000002000408F
310
C000000000B1F41AC0000000E090CF4CC00000002000408FC0000000C01D942CC0000000802D2A50C00C000000130000001A0B00003C00000006000000020000000000002000408FC000000080C82C30C00000004060E94FC00000002000408FC0000000005A0E22C000000000E4104CC00C00000013000000220B00003C00
310
000006000000020000000000002000408FC000000000E21132C0000000207B9C4FC00000002000408FC000000000751226C0000000C08D284BC00C000000130000002A0B00003C00000006000000020000000000002000408FC000000000AB1F34C0000000E010684FC00000002000408FC000000000751226C0000000C08D
310
284BC00C00000013000000320B00003C00000006000000020000000000002000408FC000000000AB1A36C0000000E0C6514FC00000002000408FC000000000751226C0000000C08D284BC00C000000130000003A0B00003C00000006000000020000000000002000408FC0000000E0E43439C000000060465A4FC000000020
310
00408FC000000000751226C0000000C08D284BC00C00000013000000420B00003C00000006000000020000000000002000408FC000000080896039C0000000603B574FC00000002000408FC000000000751226C0000000C08D284BC00C000000130000004A0B00003C00000006000000020000000000002000408FC0000000
310
C0CF8139C0000000E08F494FC00000002000408FC00000008083852FC000000040B81649C00C00000013000000520B00003C00000006000000020000000000002000408F40000000807D9254C00000000080B2F2BF0000002000408F4000000000E4B855C000000000E0CF22C00C000000130000005A0B00003C0000000600
310
0000020000000000002000408F4000000000920C55C000000000608BC0BF0000002000408F40000000C0B5BB55C000000000E07513C00C00000013000000620B00003C00000006000000020000000000002000408F4000000040000057C000000000F22212C00000002000408F4000000000482D55C0000000000000E0BE0C
310
000000130000006A0B00003C00000006000000020000000000002000408F4000000000482D55C0000000000000E0BE0000002000408F40000000405FFD56C00000000020B712C00C00000013000000720B00003C00000006000000020000000000002000408F4000000000482D55C0000000000000E0BE0000002000408F40
310
0000004030F656C000000000992313C00C000000130000007A0B00003C00000006000000020000000000002000408F4000000000482D55C0000000000000E0BE0000002000408F400000000060EC56C0000000004E4B13C00C00000013000000820B00003C00000006000000020000000000002000408F40000000C0B5BB55
310
C000000000E07513C00000002000408F4000000040591C55C00000000080D5A0BF0C000000130000008A0B00003C00000006000000020000000000002000408F40000000807D9254C00000000080B2F2BF0000002000408F40000000C04FB655C0000000804D1923C00C00000013000000920B00003C000000060000000200
310
00000000002000408F40000000807D9254C00000000080B2F2BF0000002000408F400000008040AF55C0000000006E4F23C00C000000130000009A0B00003C00000006000000020000000000002000408F40000000807D9254C00000000080B2F2BF0000002000408F400000004091A555C000000080096423C00C00000013
310
000000A20B00003C00000006000000020000000000002000408F4000000080C77154C000000000E4C3F4BF0000002000408F40000000404F7454C000000040B38224C00C00000013000000AA0B00003C00000006000000020000000000002000408F40000000404F7454C000000040B38224C00000002000408F4000000080
310
115154C00000000080B2F2BF0C00000013000000B20B00003C00000006000000020000000000002000408F40000000404F7454C000000040B38224C00000002000408F4000000000FDD653C000000000608BC0BF0C00000013000000BA0B00003C00000006000000020000000000002000408F40000000404F7454C0000000
310
40B38224C00000002000408F40000000C035C753C00000000080D5A0BF0C00000013000000C20B00003C00000006000000020000000000002000408F40000000404F7454C000000040B38224C00000002000408F400000000047B653C0000000000000E0BE0C00000013000000CA0B00003C00000006000000020000000000
310
002000408F40000000808C3152C0000000000000E0BE0000002000408F40000000C0E4A353C0000000C0ECF625C00C00000013000000D20B00003C00000006000000020000000000002000408F4000000000D9D951C000000000A090CCBF0000002000408F400000008043E852C0000000C06AEC27C00C00000013000000DA
310
0B00003C00000006000000020000000000002000408F400000008043E852C0000000C06AEC27C00000002000408F40000000404A8C51C000000000F8BCEBBF0C00000013000000E20B00003C00000006000000020000000000002000408F400000008043E852C0000000C06AEC27C00000002000408F40000000C0D85151C0
310
000000005CB4FDBF0C00000013000000EA0B00003C00000006000000020000000000002000408F400000008043E852C0000000C06AEC27C00000002000408F4000000000941E51C000000000343C05C00C00000013000000F20B00003C00000006000000020000000000002000408F40000000006E384EC0000000006E9D1F
310
C00000002000408F40000000C0E62552C00000008075AF2AC00C00000013000000FA0B00003C00000006000000020000000000002000408F40000000006E384EC0000000006E9D1FC00000002000408F4000000000A67E51C0000000806BC12DC00C00000013000000020C00003C0000000600000002000000000000200040
310
8F40000000006E384EC0000000006E9D1FC00000002000408F400000008024D350C0000000600FDD30C00C000000130000000A0C00003C00000006000000020000000000002000408F40000000006E384EC0000000006E9D1FC00000002000408F4000000080064850C0000000009BDD32C00C00000013000000120C00003C
310
00000006000000020000000000002000408F400000004012E64AC0000000808F502CC00000002000408F400000006087774FC0000000C0EC6035C00C000000130000001A0C00003C00000006000000020000000000002000408F400000004012E64AC0000000808F502CC00000002000408F400000008020A54EC000000080
310
ADBD37C00C00000013000000220C00003C00000006000000020000000000002000408F4000000020873948C000000000FB6E35C00000002000408F400000004008DA4DC00000008029AC3AC00C000000130000002A0C00003C00000006000000020000000000002000408F4000000020873948C000000000FB6E35C0000000
310
2000408F40000000A009534DC0000000E0D9473DC00C00000013000000320C00003C00000006000000020000000000002000408F4000000020F94846C0000000801E7F3DC00000002000408F400000006024B44CC0000000C0CB3240C00C000000130000003A0C00003C00000006000000020000000000002000408F400000
310
0020F94846C0000000801E7F3DC00000002000408F4000000000E4FD4BC000000040420342C00C00000013000000420C00003C00000006000000020000000000002000408F4000000060BA4045C0000000009BDB40C00000002000408F4000000080443A4BC000000040F77E43C00C000000130000004A0C00003C00000006
310
000000020000000000002000408F4000000060BA4045C0000000009BDB40C00000002000408F40000000E029254AC0000000A0342845C00C00000013000000520C00003C00000006000000020000000000002000408F40000000C0A2CF43C000000020CCBD42C00000002000408F4000000040701949C000000000247546C0
310
0C000000130000005A0C00003C00000006000000020000000000002000408F4000000080D03B35C000000000237B47C00000002000408F40000000E0F09739C000000080F5F44CC00C00000013000000620C00003C00000006000000020000000000002000408F40000000008F852FC000000040B81649C00000002000408F
310
40000000E0F09739C000000080F5F44CC00C000000130000006A0C00003C00000006000000020000000000002000408F40000000008F852FC000000040B81649C00000002000408F40000000003B8E39C00000002095354FC00C00000013000000720C00003C00000006000000020000000000002000408F40000000E03441
310
3BC0000000A0D56446C00000002000408F4000000040356E3FC000000040EB494CC00C000000130000007A0C00003C00000006000000020000000000002000408F40000000E034413BC0000000A0D56446C00000002000408F4000000080AF4D41C000000060EFC54BC00C00000013000000820C00003C0000000600000002
310
0000000000002000408F40000000C0A2CF43C000000020CCBD42C00000002000408F400000006044AE47C0000000A079E647C00C000000130000008A0C00003C00000006000000020000000000002000408F4000000040660342C0000000403B5444C00000002000408F40000000006B6646C0000000208DF848C00C000000
310
13000000920C00003C00000006000000020000000000002000408F4000000040660342C0000000403B5444C00000002000408F40000000E0C9B144C0000000A07D224AC00C000000130000009A0C00003C00000006000000020000000000002000408F400000002038DA3FC000000000D18F45C00000002000408F40000000
310
E0C9B144C0000000A07D224AC00C00000013000000A20C00003C00000006000000020000000000002000408F400000002038DA3FC000000000D18F45C00000002000408F40000000A0623B43C000000020A3F04AC00C00000013000000AA0C00003C00000006000000020000000000002000408F4000000000000006BF0000
310
00408AC752C00000002000408F40000000001D3A13C000000000008054C00C00000013000000B20C00003C00000006000000020000000000002000408F4000000000000006BF000000408AC752C00000002000408F400000000079E313C000000060137D54C00C00000013000000BA0C00003C000000060000000200000000
310
00002000408F4000000000000006BF000000408AC752C00000002000408F4000000000595714C000000080397554C00C00000013000000C20C00003C00000006000000020000000000002000408F4000000000000006BF000000408AC752C00000002000408F4000000000257114C000000080ED6A54C00C00000013000000
310
CA0C00003C00000006000000020000000000002000408F400000000000DBA1BF000000808FB752C00000002000408F4000000000812A14C0000000A022B353C00C00000013000000D20C00003C00000006000000020000000000002000408F40000000000089C1BF00000060ABA852C00000002000408F40000000009CF114
310
C000000020B33453C00C00000013000000DA0C00003C00000006000000020000000000002000408F400000000004D0F3BF00000080753552C00000002000408F4000000000DC9616C0000000C017BF52C00C00000013000000E20C00003C00000006000000020000000000002000408F40000000005CC1F5BF000000404F21
310
52C00000002000408F4000000000CB3E19C000000080574752C00C00000013000000EA0C00003C00000006000000020000000000002000408F4000000000CB3E19C000000080574752C00000002000408F40000000005CC1F5BF00000000DE0B52C00C00000013000000F20C00003C00000006000000020000000000002000
310
408F400000000004D0F3BF000000C0B7F751C00000002000408F4000000000A1A81CC0000000C099D951C00C00000013000000FA0C00003C00000006000000020000000000002000408F4000000000A1A81CC0000000C099D951C00000002000408F400000000000DBA1BF000000C09D7551C00C00000013000000020D0000
310
3C00000006000000020000000000002000408F4000000000A1A81CC0000000C099D951C00000002000408F40000000000089C1BF000000E0818451C00C000000130000000A0D00003C00000006000000020000000000002000408F4000000000A1A81CC0000000C099D951C00000002000408F4000000000000006BF000000
310
00A36551C00C00000013000000120D00003C00000006000000020000000000002000408F4000000000000006BF000000A0BBC24FC00000002000408F40000000809D8120C0000000E0486F51C00C000000130000001A0D00003C00000006000000020000000000002000408F4000000000A091CFBF00000080CC194FC00000
310
002000408F4000000040F20723C0000000000A0F51C00C00000013000000220D00003C00000006000000020000000000002000408F4000000000F89CEEBF000000C03D854EC00000002000408F400000000033EB25C0000000E0B2B750C00C000000130000002A0D00003C00000006000000020000000000002000408F4000
310
0000001C5B00C000000020FA164EC00000002000408F4000000040022629C0000000C06E6A50C00C00000013000000320D00003C00000006000000020000000000002000408F4000000000C8F41AC0000000E090CF4CC00000002000408F400000008029942CC0000000802D2A50C00C000000130000003A0D00003C000000
310
06000000020000000000002000408F4000000080650E22C000000000E4104CC00000002000408F4000000060CE2C30C00000004060E94FC00C00000013000000420D00003C00000006000000020000000000002000408F40000000C0801226C0000000C08D284BC00000002000408F40000000E0E71132C0000000207B9C4F
310
C00C000000130000004A0D00003C00000006000000020000000000002000408F40000000C0801226C0000000C08D284BC00000002000408F40000000E0B01F34C0000000E010684FC00C00000013000000520D00003C00000006000000020000000000002000408F40000000C0801226C0000000C08D284BC0000000200040
310
8F40000000E0B01A36C0000000E0C6514FC00C000000130000005A0D00003C00000006000000020000000000002000408F40000000C0801226C0000000C08D284BC00000002000408F40000000C0EA3439C000000060465A4FC00C00000013000000620D00003C00000006000000020000000000002000408F40000000C080
310
1226C0000000C08D284BC00000002000408F40000000608F6039C0000000603B574FC00C000000130000006A0D00003C00000006000000020000000000002000408F40000000008F852FC000000040B81649C00000002000408F40000000A0D58139C0000000E08F494FC0
100
AcDbSubDMesh
 71
     2
 72
     0
 91
        0
 92
      196
 10
-1000.000061035156
 20
-86.88882446289062
 30
-9.406005859375
 10
-1000.000061035156
 20
-91.84660339355469
 30
-4.78476333618164
 10
-1000.000061035156
 20
-91.99993133544921
 30
-4.534126281738281
 10
-1000.000061035156
 20
-84.44285583496094
 30
-0.0328788757324219
 10
-1000.000061035156
 20
-82.28882598876953
 30
-1.1685791015625
 10
-1000.000061035156
 20
-81.2666015625
 30
-1.1685791015625
 10
-1000.000061035156
 20
-79.35910797119141
 30
-0.1292533874511719
 10
-1000.000061035156
 20
-78.8479995727539
 30
-0.0000076293945313
 10
-1000.000061035156
 20
-72.77411651611328
 30
-0.0000076293945313
 10
-1000.000061035156
 20
-71.40377807617188
 30
-0.2231636047363281
 10
-1000.000061035156
 20
-69.27876281738281
 30
-1.856533050537109
 10
-1000.000061035156
 20
-68.47769165039062
 30
-2.654396057128906
 10
-1000.000061035156
 20
-53.79734420776367
 30
-14.15734481811523
 10
-1000.000061035156
 20
-44.57001495361327
 30
-29.49655914306641
 10
-1000.000061035156
 20
-39.62206649780274
 30
-37.48279190063477
 10
-1000.000061035156
 20
-6.738956451416015
 30
-57.62160873413086
 10
-1000.000061035156
 20
-2.044399261474609
 30
-60.17950820922852
 10
-1000.000061035156
 20
-0.956573486328125
 30
-61.04094696044922
 10
-1000.000061035156
 20
0.0000495910644531
 30
-69.58807373046875
 10
-1000.000061035156
 20
-0.0347824096679688
 30
-69.83775329589843
 10
-1000.000061035156
 20
-1.23819351196289
 30
-71.87059020996094
 10
-1000.000061035156
 20
-1.359615325927734
 30
-72.52046203613281
 10
-1000.000061035156
 20
-0.0347824096679688
 30
-74.86813354492188
 10
-1000.000061035156
 20
0.0000495910644531
 30
-75.11781311035156
 10
-1000.000061035156
 20
-5.085212707519531
 30
-81.83163452148438
 10
-1000.000061035156
 20
-5.110404968261718
 30
-81.67074584960937
 10
-1000.000061035156
 20
-5.647235870361328
 30
-74.98582458496094
 10
-1000.000061035156
 20
-9.515430450439453
 30
-68.2349853515625
 10
-1000.000061035156
 20
-12.57414627075195
 30
-65.66300964355469
 10
-1000.000061035156
 20
-16.17493438720703
 30
-63.82324981689453
 10
-1000.000061035156
 20
-20.12370300292969
 30
-62.81301498413085
 10
-1000.000061035156
 20
-25.20661735534668
 30
-62.70527267456055
 10
-1000.000061035156
 20
-25.37709808349609
 30
-62.68149948120117
 10
-1000.000061035156
 20
-25.50707626342774
 30
-62.57470321655273
 10
-1000.000061035156
 20
-31.43041229248047
 30
-56.5774917602539
 10
-1000.000061035156
 20
-44.80005264282226
 30
-49.94180679321289
 10
-1000.000061035156
 20
-54.45513153076172
 30
-38.99192047119141
 10
-1000.000061035156
 20
-67.29901123046875
 30
-16.86351585388183
 10
-1000.000061035156
 20
-72.59212493896484
 30
-13.34269332885742
 10
-1000.000061035156
 20
-5.235858917236328
 30
-76.82343292236328
 10
-1000.000061035156
 20
-6.311233520507812
 30
-73.11471557617188
 10
-1000.000061035156
 20
-18.06985473632812
 30
-63.22250747680664
 10
-1000.000061035156
 20
-22.10417175292969
 30
-62.63888168334961
 10
-1000.000061035156
 20
-34.60683059692383
 30
-55.54636764526367
 10
-1000.000061035156
 20
-41.38888549804687
 30
-52.26945877075195
 10
-1000.000061035156
 20
-47.36137390136718
 30
-47.80058670043945
 10
-1000.000061035156
 20
-52.29025268554687
 30
-42.31410598754883
 10
-1000.000061035156
 20
-58.64864349365234
 30
-29.28066825866699
 10
-1000.000061035156
 20
-61.28996658325196
 30
-23.74092864990235
 10
-1000.000061035156
 20
-65.12531280517578
 30
-18.86564636230469
 10
-1000.000061035156
 20
-81.81725311279297
 30
-10.25527381896973
 10
1000.000061035156
 20
-84.19641113281249
 30
-0.1292533874511719
 10
1000.000061035156
 20
-82.28890991210937
 30
-1.1685791015625
 10
1000.000061035156
 20
-86.88891601562501
 30
-9.406005859375
 10
1000.000061035156
 20
-92.00001525878906
 30
-4.534126281738281
 10
1000.000061035156
 20
-92.00001525878906
 30
-0.0000076293945313
 10
1000.000061035156
 20
-84.70751953125001
 30
-0.0000076293945313
 10
1000.000061035156
 20
-91.9589385986328
 30
-4.6788330078125
 10
1000.000061035156
 20
-91.84669494628906
 30
-4.78476333618164
 10
1000.000061035156
 20
-91.69335937499999
 30
-4.823539733886718
 10
1000.000061035156
 20
-86.93296813964844
 30
-4.8651123046875
 10
1000.000061035156
 20
-84.44294738769531
 30
-0.0328788757324219
 10
1000.000061035156
 20
-86.73831176757813
 30
-9.655136108398437
 10
1000.000061035156
 20
-86.84861755371093
 30
-9.549419403076171
 10
1000.000061035156
 20
-86.58699035644531
 30
-9.695384979248046
 10
1000.000061035156
 20
-81.77780151367187
 30
-1.29782485961914
 10
1000.000061035156
 20
-81.8173370361328
 30
-10.25527381896973
 10
1000.000061035156
 20
-81.26669311523437
 30
-1.1685791015625
 10
1000.000061035156
 20
-79.35919189453125
 30
-0.1292533874511719
 10
1000.000061035156
 20
-79.11265563964843
 30
-0.0328788757324219
 10
1000.000061035156
 20
-78.84808349609375
 30
-0.0000076293945313
 10
1000.000061035156
 20
-72.77420043945312
 30
-0.0000076293945313
 10
1000.000061035156
 20
-71.40386962890625
 30
-0.2231636047363281
 10
1000.000061035156
 20
-75.62911987304687
 30
-11.96175193786621
 10
1000.000061035156
 20
-78.56083679199219
 30
-10.98227500915527
 10
1000.000061035156
 20
-70.19203186035156
 30
-0.8668174743652343
 10
1000.000061035156
 20
-69.27885437011719
 30
-1.856533050537109
 10
1000.000061035156
 20
-68.477783203125
 30
-2.654396057128906
 10
1000.000061035156
 20
-60.44085693359375
 30
-7.903739929199218
 10
1000.000061035156
 20
-72.59220886230469
 30
-13.34269332885742
 10
1000.000061035156
 20
-67.29910278320312
 30
-16.86351585388183
 10
1000.000061035156
 20
-69.9788818359375
 30
-14.87777328491211
 10
1000.000061035156
 20
-53.79743194580078
 30
-14.15734481811523
 10
1000.000061035156
 20
-62.93381881713867
 30
-21.37861251831055
 10
1000.000061035156
 20
-65.12539672851563
 30
-18.86564636230469
 10
1000.000061035156
 20
-48.44943618774414
 30
-21.43351745605469
 10
1000.000061035156
 20
-59.70337677001953
 30
-26.67250823974609
 10
1000.000061035156
 20
-61.29005432128906
 30
-23.74092864990235
 10
1000.000061035156
 20
-44.57010269165039
 30
-29.49655914306641
 10
1000.000061035156
 20
-57.40736007690429
 30
-32.39684295654297
 10
1000.000061035156
 20
-58.64873123168945
 30
-29.28066825866699
 10
1000.000061035156
 20
-42.50568771362305
 30
-33.71566772460937
 10
1000.000061035156
 20
-54.45521545410156
 30
-38.99192047119141
 10
1000.000061035156
 20
-55.9835205078125
 30
-36.02545928955078
 10
1000.000061035156
 20
-39.62215423583984
 30
-37.48279190063477
 10
1000.000061035156
 20
-50.19873809814453
 30
-44.9151611328125
 10
1000.000061035156
 20
-52.29034042358398
 30
-42.31410598754883
 10
1000.000061035156
 20
-21.23365020751953
 30
-46.96200561523437
 10
1000.000061035156
 20
-15.76085662841797
 30
-50.17749786376953
 10
1000.000061035156
 20
-25.59351921081543
 30
-57.91374206542968
 10
1000.000061035156
 20
-25.55558776855469
 30
-62.41861343383789
 10
1000.000061035156
 20
-27.25471305847168
 30
-44.78776931762695
 10
1000.000061035156
 20
-31.43050003051758
 30
-56.5774917602539
 10
1000.000061035156
 20
-34.60691833496094
 30
-55.54636764526367
 10
1000.000061035156
 20
-36.02655792236328
 30
-40.6580581665039
 10
1000.000061035156
 20
-44.80014038085937
 30
-49.94180679321289
 10
1000.000061035156
 20
-47.36146163940429
 30
-47.80058670043945
 10
1000.000061035156
 20
-31.85241889953613
 30
-43.12356567382813
 10
1000.000061035156
 20
-41.38897323608398
 30
-52.26945877075195
 10
1000.000061035156
 20
-38.46394729614258
 30
-53.87997817993164
 10
1000.000061035156
 20
-0.0000419616699219
 30
-75.11781311035156
 10
1000.000061035156
 20
-0.0000381469726563
 30
-82.0
 10
1000.000061035156
 20
-4.806751251220703
 30
-82.0
 10
1000.000061035156
 20
-4.97214126586914
 30
-81.95430755615234
 10
1000.000061035156
 20
-5.08530044555664
 30
-81.83163452148438
 10
1000.000061035156
 20
-5.110492706298828
 30
-81.67074584960937
 10
1000.000061035156
 20
-0.0348739624023438
 30
-74.86813354492188
 10
1000.000061035156
 20
-5.041507720947265
 30
-78.79898834228516
 10
1000.000061035156
 20
-0.136993408203125
 30
-74.63545989990234
 10
1000.000061035156
 20
-5.235946655273437
 30
-76.82343292236328
 10
1000.000061035156
 20
-1.238285064697265
 30
-72.83529663085937
 10
1000.000061035156
 20
-5.647323608398437
 30
-74.98582458496094
 10
1000.000061035156
 20
-1.359706878662109
 30
-72.52046203613281
 10
1000.000061035156
 20
-6.311321258544921
 30
-73.11471557617188
 10
1000.000061035156
 20
-1.359706878662109
 30
-72.1854248046875
 10
1000.000061035156
 20
-1.238285064697265
 30
-71.87059020996094
 10
1000.000061035156
 20
-7.164676666259765
 30
-71.40000915527344
 10
1000.000061035156
 20
-0.0348739624023438
 30
-69.83775329589843
 10
1000.000061035156
 20
-0.136993408203125
 30
-70.07042694091797
 10
1000.000061035156
 20
-0.0000419616699219
 30
-69.58807373046875
 10
1000.000061035156
 20
-0.0000419616699219
 30
-63.5213508605957
 10
1000.000061035156
 20
-8.253154754638671
 30
-69.73882293701172
 10
1000.000061035156
 20
-0.2466316223144531
 30
-62.20155334472656
 10
1000.000061035156
 20
-9.515520095825195
 30
-68.2349853515625
 10
1000.000061035156
 20
-0.9566612243652343
 30
-61.04094696044922
 10
1000.000061035156
 20
-10.95937347412109
 30
-66.87029266357422
 10
1000.000061035156
 20
-2.044486999511718
 30
-60.17950820922852
 10
1000.000061035156
 20
-12.57423591613769
 30
-65.66300964355469
 10
1000.000061035156
 20
-6.739044189453125
 30
-57.62160873413086
 10
1000.000061035156
 20
-14.28937911987304
 30
-64.65902709960937
 10
1000.000061035156
 20
-9.028118133544921
 30
-56.1319580078125
 10
1000.000061035156
 20
-16.17502403259277
 30
-63.82324981689453
 10
1000.000061035156
 20
-11.0361385345459
 30
-54.31682586669921
 10
1000.000061035156
 20
-18.06994438171386
 30
-63.22250747680664
 10
1000.000061035156
 20
-20.12379264831543
 30
-62.81301498413085
 10
1000.000061035156
 20
-22.10426139831543
 30
-62.63888168334961
 10
1000.000061035156
 20
-25.20670700073242
 30
-62.70527267456055
 10
1000.000061035156
 20
-25.37718772888184
 30
-62.68149948120117
 10
1000.000061035156
 20
-25.50716590881348
 30
-62.57470321655273
 10
-1000.000061035156
 20
-86.93288421630859
 30
-4.8651123046875
 10
-1000.000061035156
 20
-91.69326782226562
 30
-4.823539733886718
 10
-1000.000061035156
 20
-91.95884704589843
 30
-4.6788330078125
 10
-1000.000061035156
 20
-91.99993133544921
 30
-0.0000076293945313
 10
-1000.000061035156
 20
-84.70742797851562
 30
-0.0000076293945313
 10
-1000.000061035156
 20
-84.19631958007812
 30
-0.1292533874511719
 10
-1000.000061035156
 20
-81.77771759033204
 30
-1.29782485961914
 10
-1000.000061035156
 20
-79.11257171630859
 30
-0.0328788757324219
 10
-1000.000061035156
 20
-70.19194793701172
 30
-0.8668174743652343
 10
-1000.000061035156
 20
-60.44076919555664
 30
-7.903736114501953
 10
-1000.000061035156
 20
-48.44934844970703
 30
-21.43351745605469
 10
-1000.000061035156
 20
-42.50559997558593
 30
-33.71566772460937
 10
-1000.000061035156
 20
-36.02647018432617
 30
-40.6580581665039
 10
-1000.000061035156
 20
-31.85232925415039
 30
-43.12356567382813
 10
-1000.000061035156
 20
-27.25462341308594
 30
-44.78776931762695
 10
-1000.000061035156
 20
-21.23356056213379
 30
-46.96200561523437
 10
-1000.000061035156
 20
-15.76076889038086
 30
-50.17749786376953
 10
-1000.000061035156
 20
-11.03604888916015
 30
-54.31682586669921
 10
-1000.000061035156
 20
-9.028030395507812
 30
-56.1319580078125
 10
-1000.000061035156
 20
-0.2465438842773437
 30
-62.20155334472656
 10
-1000.000061035156
 20
0.0000457763671875
 30
-63.5213508605957
 10
-1000.000061035156
 20
-0.13690185546875
 30
-70.07042694091797
 10
-1000.000061035156
 20
-1.359615325927734
 30
-72.1854248046875
 10
-1000.000061035156
 20
-1.23819351196289
 30
-72.83529663085937
 10
-1000.000061035156
 20
-0.13690185546875
 30
-74.63545989990234
 10
-1000.000061035156
 20
0.0000495910644531
 30
-82.0
 10
-1000.000061035156
 20
-4.806659698486328
 30
-82.0
 10
-1000.000061035156
 20
-4.972049713134765
 30
-81.95430755615234
 10
-1000.000061035156
 20
-5.04141616821289
 30
-78.79898834228516
 10
-1000.000061035156
 20
-7.164588928222656
 30
-71.40000915527344
 10
-1000.000061035156
 20
-25.55549812316895
 30
-62.41861343383789
 10
-1000.000061035156
 20
-25.59342956542969
 30
-57.91374206542968
 10
-1000.000061035156
 20
-38.46385955810547
 30
-53.87997817993164
 10
-1000.000061035156
 20
-50.19865036010742
 30
-44.9151611328125
 10
-1000.000061035156
 20
-57.40727233886719
 30
-32.39684295654297
 10
-1000.000061035156
 20
-59.70328903198242
 30
-26.67250823974609
 10
-1000.000061035156
 20
-62.93373107910156
 30
-21.37861251831055
 10
-1000.000061035156
 20
-78.56074523925781
 30
-10.98227500915527
 10
-1000.000061035156
 20
-86.58690643310547
 30
-9.695384979248046
 10
-1000.000061035156
 20
-86.73822784423828
 30
-9.655136108398437
 10
-1000.000061035156
 20
-86.84852600097656
 30
-9.549419403076171
 10
-1000.000061035156
 20
-8.253067016601562
 30
-69.73882293701172
 10
-1000.000061035156
 20
-10.95928573608398
 30
-66.87029266357422
 10
-1000.000061035156
 20
-14.2892894744873
 30
-64.65902709960937
 10
-1000.000061035156
 20
-55.98343658447266
 30
-36.02545547485352
 10
-1000.000061035156
 20
-69.97879791259766
 30
-14.87777328491211
 10
-1000.000061035156
 20
-75.6290283203125
 30
-11.96175193786621
 93
     1096
 90
        4
 90
      152
 90
        2
 90
       54
 90
       55
 90
        4
 90
        2
 90
      151
 90
       57
 90
       54
 90
        4
 90
      151
 90
        1
 90
       58
 90
       57
 90
        4
 90
        1
 90
      150
 90
       59
 90
       58
 90
        4
 90
      150
 90
      149
 90
       60
 90
       59
 90
        4
 90
      149
 90
        0
 90
       53
 90
       60
 90
        4
 90
        0
 90
      189
 90
       63
 90
       53
 90
        4
 90
      189
 90
      188
 90
       62
 90
       63
 90
        4
 90
      188
 90
      187
 90
       64
 90
       62
 90
        4
 90
      187
 90
       50
 90
       66
 90
       64
 90
        4
 90
      186
 90
      195
 90
       73
 90
       74
 90
        4
 90
       38
 90
      194
 90
       81
 90
       79
 90
        4
 90
       37
 90
       49
 90
       84
 90
       80
 90
        4
 90
      185
 90
       48
 90
       87
 90
       83
 90
        4
 90
      184
 90
       47
 90
       90
 90
       86
 90
        4
 90
      183
 90
      193
 90
       93
 90
       89
 90
        4
 90
       36
 90
       46
 90
       96
 90
       92
 90
        4
 90
      182
 90
       45
 90
      106
 90
       95
 90
        4
 90
       35
 90
       44
 90
      108
 90
      105
 90
        4
 90
      181
 90
       43
 90
      103
 90
      109
 90
        4
 90
       34
 90
      180
 90
       99
 90
      102
 90
        4
 90
      180
 90
      179
 90
      100
 90
       99
 90
        4
 90
      179
 90
       33
 90
      148
 90
      100
 90
        4
 90
       33
 90
       32
 90
      147
 90
      148
 90
        4
 90
       32
 90
       31
 90
      146
 90
      147
 90
        4
 90
       31
 90
       42
 90
      145
 90
      146
 90
        4
 90
       30
 90
       41
 90
      143
 90
      144
 90
        4
 90
       29
 90
      192
 90
      139
 90
      141
 90
        4
 90
       28
 90
      191
 90
      135
 90
      137
 90
        4
 90
       27
 90
      190
 90
      131
 90
      133
 90
        4
 90
      178
 90
       40
 90
      123
 90
      126
 90
        4
 90
       26
 90
       39
 90
      119
 90
      121
 90
        4
 90
      177
 90
       25
 90
      115
 90
      117
 90
        4
 90
       25
 90
       24
 90
      114
 90
      115
 90
        4
 90
       24
 90
      176
 90
      113
 90
      114
 90
        4
 90
      176
 90
      175
 90
      112
 90
      113
 90
        4
 90
      175
 90
      174
 90
      111
 90
      112
 90
        4
 90
      174
 90
       23
 90
      110
 90
      111
 90
        4
 90
       23
 90
       22
 90
      116
 90
      110
 90
        4
 90
       22
 90
      173
 90
      118
 90
      116
 90
        4
 90
      173
 90
      172
 90
      120
 90
      118
 90
        4
 90
      172
 90
       21
 90
      122
 90
      120
 90
        4
 90
       21
 90
      171
 90
      124
 90
      122
 90
        4
 90
      171
 90
       20
 90
      125
 90
      124
 90
        4
 90
       20
 90
      170
 90
      128
 90
      125
 90
        4
 90
      170
 90
       19
 90
      127
 90
      128
 90
        4
 90
       19
 90
       18
 90
      129
 90
      127
 90
        4
 90
       18
 90
      169
 90
      130
 90
      129
 90
        4
 90
      169
 90
      168
 90
      132
 90
      130
 90
        4
 90
      168
 90
       17
 90
      134
 90
      132
 90
        4
 90
       17
 90
       16
 90
      136
 90
      134
 90
        4
 90
       16
 90
       15
 90
      138
 90
      136
 90
        4
 90
       15
 90
      167
 90
      140
 90
      138
 90
        4
 90
      167
 90
      166
 90
      142
 90
      140
 90
        4
 90
      166
 90
      165
 90
       98
 90
      142
 90
        4
 90
      165
 90
      164
 90
       97
 90
       98
 90
        4
 90
      164
 90
      163
 90
      101
 90
       97
 90
        4
 90
      163
 90
      162
 90
      107
 90
      101
 90
        4
 90
      162
 90
      161
 90
      104
 90
      107
 90
        4
 90
      161
 90
       14
 90
       94
 90
      104
 90
        4
 90
       14
 90
      160
 90
       91
 90
       94
 90
        4
 90
      160
 90
       13
 90
       88
 90
       91
 90
        4
 90
       13
 90
      159
 90
       85
 90
       88
 90
        4
 90
      159
 90
       12
 90
       82
 90
       85
 90
        4
 90
       12
 90
      158
 90
       78
 90
       82
 90
        4
 90
      158
 90
       11
 90
       77
 90
       78
 90
        4
 90
       11
 90
       10
 90
       76
 90
       77
 90
        4
 90
       10
 90
      157
 90
       75
 90
       76
 90
        4
 90
      157
 90
        9
 90
       72
 90
       75
 90
        4
 90
        9
 90
        8
 90
       71
 90
       72
 90
        4
 90
        8
 90
        7
 90
       70
 90
       71
 90
        4
 90
        7
 90
      156
 90
       69
 90
       70
 90
        4
 90
      156
 90
        6
 90
       68
 90
       69
 90
        4
 90
        6
 90
        5
 90
       67
 90
       68
 90
        4
 90
        5
 90
      155
 90
       65
 90
       67
 90
        4
 90
      155
 90
        4
 90
       52
 90
       65
 90
        4
 90
        4
 90
      154
 90
       51
 90
       52
 90
        4
 90
      154
 90
        3
 90
       61
 90
       51
 90
        4
 90
        3
 90
      153
 90
       56
 90
       61
 90
        4
 90
      153
 90
      152
 90
       55
 90
       56
 90
        4
 90
       42
 90
       30
 90
      144
 90
      145
 90
        4
 90
       41
 90
       29
 90
      141
 90
      143
 90
        4
 90
      192
 90
       28
 90
      137
 90
      139
 90
        4
 90
      191
 90
       27
 90
      133
 90
      135
 90
        4
 90
      190
 90
      178
 90
      126
 90
      131
 90
        4
 90
       40
 90
       26
 90
      121
 90
      123
 90
        4
 90
       39
 90
      177
 90
      117
 90
      119
 90
        4
 90
       50
 90
      186
 90
       74
 90
       66
 90
        4
 90
      195
 90
       38
 90
       79
 90
       73
 90
        4
 90
      194
 90
       37
 90
       80
 90
       81
 90
        4
 90
       49
 90
      185
 90
       83
 90
       84
 90
        4
 90
       48
 90
      184
 90
       86
 90
       87
 90
        4
 90
       47
 90
      183
 90
       89
 90
       90
 90
        4
 90
      193
 90
       36
 90
       92
 90
       93
 90
        4
 90
       46
 90
      182
 90
       95
 90
       96
 90
        4
 90
       45
 90
       35
 90
      105
 90
      106
 90
        4
 90
       44
 90
      181
 90
      109
 90
      108
 90
        4
 90
       43
 90
       34
 90
      102
 90
      103
 90
        4
 90
      149
 90
      154
 90
        4
 90
        0
 90
        3
 90
        2
 90
      152
 90
      153
 90
        3
 90
      151
 90
        2
 90
      153
 90
        3
 90
        1
 90
      151
 90
      153
 90
        3
 90
      150
 90
        1
 90
      153
 90
        4
 90
      149
 90
      150
 90
      153
 90
        3
 90
        3
 90
      149
 90
        3
 90
      154
 90
        3
 90
        4
 90
      188
 90
      189
 90
        3
 90
        4
 90
      189
 90
        0
 90
        3
 90
        4
 90
      187
 90
      188
 90
        4
 90
        4
 90
      155
 90
       50
 90
      187
 90
        3
 90
      155
 90
        5
 90
       50
 90
        3
 90
        5
 90
        6
 90
       50
 90
        3
 90
        6
 90
      156
 90
       50
 90
        3
 90
      156
 90
        7
 90
       50
 90
        4
 90
        8
 90
        9
 90
      195
 90
      186
 90
        4
 90
        7
 90
        8
 90
      186
 90
       50
 90
        3
 90
        9
 90
      157
 90
      195
 90
        3
 90
      157
 90
       10
 90
      195
 90
        3
 90
       10
 90
       11
 90
      195
 90
        4
 90
       11
 90
      158
 90
       38
 90
      195
 90
        3
 90
      158
 90
       37
 90
      194
 90
        3
 90
      158
 90
      194
 90
       38
 90
        4
 90
      158
 90
       12
 90
      185
 90
       49
 90
        3
 90
      158
 90
       49
 90
       37
 90
        4
 90
       12
 90
      159
 90
      184
 90
       48
 90
        3
 90
       12
 90
       48
 90
      185
 90
        4
 90
      159
 90
       13
 90
      183
 90
       47
 90
        3
 90
      159
 90
       47
 90
      184
 90
        4
 90
       13
 90
      160
 90
       36
 90
      193
 90
        3
 90
       13
 90
      193
 90
      183
 90
        4
 90
      160
 90
       14
 90
      182
 90
       46
 90
        3
 90
      160
 90
       46
 90
       36
 90
        3
 90
      164
 90
      165
 90
      180
 90
        3
 90
      165
 90
      179
 90
      180
 90
        4
 90
      163
 90
      164
 90
      180
 90
       34
 90
        3
 90
      163
 90
       34
 90
       43
 90
        4
 90
       14
 90
      161
 90
       35
 90
       45
 90
        3
 90
       14
 90
       45
 90
      182
 90
        3
 90
      161
 90
      162
 90
       44
 90
        3
 90
      161
 90
       44
 90
       35
 90
        4
 90
      162
 90
      163
 90
       43
 90
      181
 90
        3
 90
      162
 90
      181
 90
       44
 90
        3
 90
       23
 90
      174
 90
      175
 90
        3
 90
       23
 90
      175
 90
      176
 90
        3
 90
       23
 90
      176
 90
       24
 90
        3
 90
       23
 90
       24
 90
       25
 90
        4
 90
       22
 90
       23
 90
       25
 90
      177
 90
        4
 90
      173
 90
       22
 90
      177
 90
       39
 90
        4
 90
      172
 90
      173
 90
       39
 90
       26
 90
        4
 90
       21
 90
      172
 90
       26
 90
       40
 90
        3
 90
      171
 90
       21
 90
       40
 90
        4
 90
       20
 90
      171
 90
       40
 90
      178
 90
        3
 90
       19
 90
      170
 90
      178
 90
        3
 90
      170
 90
       20
 90
      178
 90
        3
 90
       18
 90
       19
 90
      178
 90
        4
 90
      169
 90
       18
 90
      178
 90
      190
 90
        4
 90
      168
 90
      169
 90
      190
 90
       27
 90
        4
 90
       17
 90
      168
 90
       27
 90
      191
 90
        4
 90
       16
 90
       17
 90
      191
 90
       28
 90
        4
 90
       15
 90
       16
 90
       28
 90
      192
 90
        4
 90
      167
 90
       15
 90
      192
 90
       29
 90
        4
 90
      166
 90
      167
 90
       29
 90
       41
 90
        3
 90
      166
 90
       41
 90
       30
 90
        3
 90
      166
 90
       30
 90
       42
 90
        3
 90
      166
 90
       42
 90
       31
 90
        3
 90
      166
 90
       31
 90
       32
 90
        4
 90
      165
 90
      166
 90
       32
 90
       33
 90
        3
 90
      165
 90
       33
 90
      179
 90
        4
 90
       60
 90
       53
 90
       52
 90
       51
 90
        3
 90
       54
 90
       56
 90
       55
 90
        3
 90
       57
 90
       56
 90
       54
 90
        3
 90
       58
 90
       56
 90
       57
 90
        3
 90
       59
 90
       56
 90
       58
 90
        4
 90
       60
 90
       61
 90
       56
 90
       59
 90
        3
 90
       51
 90
       61
 90
       60
 90
        3
 90
       52
 90
       63
 90
       62
 90
        3
 90
       52
 90
       53
 90
       63
 90
        3
 90
       52
 90
       62
 90
       64
 90
        4
 90
       52
 90
       64
 90
       66
 90
       65
 90
        3
 90
       65
 90
       66
 90
       67
 90
        3
 90
       67
 90
       66
 90
       68
 90
        3
 90
       68
 90
       66
 90
       69
 90
        3
 90
       69
 90
       66
 90
       70
 90
        4
 90
       71
 90
       74
 90
       73
 90
       72
 90
        4
 90
       70
 90
       66
 90
       74
 90
       71
 90
        3
 90
       72
 90
       73
 90
       75
 90
        3
 90
       75
 90
       73
 90
       76
 90
        3
 90
       76
 90
       73
 90
       77
 90
        4
 90
       77
 90
       73
 90
       79
 90
       78
 90
        3
 90
       78
 90
       81
 90
       80
 90
        3
 90
       78
 90
       79
 90
       81
 90
        4
 90
       78
 90
       84
 90
       83
 90
       82
 90
        3
 90
       78
 90
       80
 90
       84
 90
        4
 90
       82
 90
       87
 90
       86
 90
       85
 90
        3
 90
       82
 90
       83
 90
       87
 90
        4
 90
       85
 90
       90
 90
       89
 90
       88
 90
        3
 90
       85
 90
       86
 90
       90
 90
        4
 90
       88
 90
       93
 90
       92
 90
       91
 90
        3
 90
       88
 90
       89
 90
       93
 90
        4
 90
       91
 90
       96
 90
       95
 90
       94
 90
        3
 90
       91
 90
       92
 90
       96
 90
        3
 90
       97
 90
       99
 90
       98
 90
        3
 90
       98
 90
       99
 90
      100
 90
        4
 90
      101
 90
      102
 90
       99
 90
       97
 90
        3
 90
      101
 90
      103
 90
      102
 90
        4
 90
       94
 90
      106
 90
      105
 90
      104
 90
        3
 90
       94
 90
       95
 90
      106
 90
        3
 90
      104
 90
      108
 90
      107
 90
        3
 90
      104
 90
      105
 90
      108
 90
        4
 90
      107
 90
      109
 90
      103
 90
      101
 90
        3
 90
      107
 90
      108
 90
      109
 90
        3
 90
      110
 90
      112
 90
      111
 90
        3
 90
      110
 90
      113
 90
      112
 90
        3
 90
      110
 90
      114
 90
      113
 90
        3
 90
      110
 90
      115
 90
      114
 90
        4
 90
      116
 90
      117
 90
      115
 90
      110
 90
        4
 90
      118
 90
      119
 90
      117
 90
      116
 90
        4
 90
      120
 90
      121
 90
      119
 90
      118
 90
        4
 90
      122
 90
      123
 90
      121
 90
      120
 90
        3
 90
      124
 90
      123
 90
      122
 90
        4
 90
      125
 90
      126
 90
      123
 90
      124
 90
        3
 90
      127
 90
      126
 90
      128
 90
        3
 90
      128
 90
      126
 90
      125
 90
        3
 90
      129
 90
      126
 90
      127
 90
        4
 90
      130
 90
      131
 90
      126
 90
      129
 90
        4
 90
      132
 90
      133
 90
      131
 90
      130
 90
        4
 90
      134
 90
      135
 90
      133
 90
      132
 90
        4
 90
      136
 90
      137
 90
      135
 90
      134
 90
        4
 90
      138
 90
      139
 90
      137
 90
      136
 90
        4
 90
      140
 90
      141
 90
      139
 90
      138
 90
        4
 90
      142
 90
      143
 90
      141
 90
      140
 90
        3
 90
      142
 90
      144
 90
      143
 90
        3
 90
      142
 90
      145
 90
      144
 90
        3
 90
      142
 90
      146
 90
      145
 90
        3
 90
      142
 90
      147
 90
      146
 90
        4
 90
       98
 90
      148
 90
      147
 90
      142
 90
        3
 90
       98
 90
      100
 90
      148
 94
      430
 90
        2
 90
      152
 90
        2
 90
       54
 90
       54
 90
       55
 90
       55
 90
      152
 90
        2
 90
      151
 90
       57
 90
      151
 90
       54
 90
       57
 90
        1
 90
      151
 90
        1
 90
       58
 90
       57
 90
       58
 90
        1
 90
      150
 90
       59
 90
      150
 90
       58
 90
       59
 90
      149
 90
      150
 90
       60
 90
      149
 90
       59
 90
       60
 90
        0
 90
      149
 90
        0
 90
       53
 90
       53
 90
       60
 90
        0
 90
      189
 90
       63
 90
      189
 90
       53
 90
       63
 90
      188
 90
      189
 90
       62
 90
      188
 90
       62
 90
       63
 90
      187
 90
      188
 90
       64
 90
      187
 90
       62
 90
       64
 90
       50
 90
      187
 90
       50
 90
       66
 90
       64
 90
       66
 90
      186
 90
      195
 90
       73
 90
      195
 90
       73
 90
       74
 90
       74
 90
      186
 90
       38
 90
      194
 90
       81
 90
      194
 90
       79
 90
       81
 90
       38
 90
       79
 90
       37
 90
       49
 90
       49
 90
       84
 90
       80
 90
       84
 90
       37
 90
       80
 90
       48
 90
      185
 90
       48
 90
       87
 90
       83
 90
       87
 90
       83
 90
      185
 90
       47
 90
      184
 90
       47
 90
       90
 90
       86
 90
       90
 90
       86
 90
      184
 90
      183
 90
      193
 90
       93
 90
      193
 90
       89
 90
       93
 90
       89
 90
      183
 90
       36
 90
       46
 90
       46
 90
       96
 90
       92
 90
       96
 90
       36
 90
       92
 90
       45
 90
      182
 90
       45
 90
      106
 90
       95
 90
      106
 90
       95
 90
      182
 90
       35
 90
       44
 90
       44
 90
      108
 90
      105
 90
      108
 90
       35
 90
      105
 90
       43
 90
      181
 90
       43
 90
      103
 90
      103
 90
      109
 90
      109
 90
      181
 90
       34
 90
      180
 90
       99
 90
      180
 90
       99
 90
      102
 90
       34
 90
      102
 90
      179
 90
      180
 90
      100
 90
      179
 90
       99
 90
      100
 90
       33
 90
      179
 90
       33
 90
      148
 90
      100
 90
      148
 90
       32
 90
       33
 90
       32
 90
      147
 90
      147
 90
      148
 90
       31
 90
       32
 90
       31
 90
      146
 90
      146
 90
      147
 90
       31
 90
       42
 90
       42
 90
      145
 90
      145
 90
      146
 90
       30
 90
       41
 90
       41
 90
      143
 90
      143
 90
      144
 90
       30
 90
      144
 90
       29
 90
      192
 90
      139
 90
      192
 90
      139
 90
      141
 90
       29
 90
      141
 90
       28
 90
      191
 90
      135
 90
      191
 90
      135
 90
      137
 90
       28
 90
      137
 90
       27
 90
      190
 90
      131
 90
      190
 90
      131
 90
      133
 90
       27
 90
      133
 90
       40
 90
      178
 90
       40
 90
      123
 90
      123
 90
      126
 90
      126
 90
      178
 90
       26
 90
       39
 90
       39
 90
      119
 90
      119
 90
      121
 90
       26
 90
      121
 90
       25
 90
      177
 90
       25
 90
      115
 90
      115
 90
      117
 90
      117
 90
      177
 90
       24
 90
       25
 90
       24
 90
      114
 90
      114
 90
      115
 90
       24
 90
      176
 90
      113
 90
      176
 90
      113
 90
      114
 90
      175
 90
      176
 90
      112
 90
      175
 90
      112
 90
      113
 90
      174
 90
      175
 90
      111
 90
      174
 90
      111
 90
      112
 90
       23
 90
      174
 90
       23
 90
      110
 90
      110
 90
      111
 90
       22
 90
       23
 90
       22
 90
      116
 90
      110
 90
      116
 90
       22
 90
      173
 90
      118
 90
      173
 90
      116
 90
      118
 90
      172
 90
      173
 90
      120
 90
      172
 90
      118
 90
      120
 90
       21
 90
      172
 90
       21
 90
      122
 90
      120
 90
      122
 90
       21
 90
      171
 90
      124
 90
      171
 90
      122
 90
      124
 90
       20
 90
      171
 90
       20
 90
      125
 90
      124
 90
      125
 90
       20
 90
      170
 90
      128
 90
      170
 90
      125
 90
      128
 90
       19
 90
      170
 90
       19
 90
      127
 90
      127
 90
      128
 90
       18
 90
       19
 90
       18
 90
      129
 90
      127
 90
      129
 90
       18
 90
      169
 90
      130
 90
      169
 90
      129
 90
      130
 90
      168
 90
      169
 90
      132
 90
      168
 90
      130
 90
      132
 90
       17
 90
      168
 90
       17
 90
      134
 90
      132
 90
      134
 90
       16
 90
       17
 90
       16
 90
      136
 90
      134
 90
      136
 90
       15
 90
       16
 90
       15
 90
      138
 90
      136
 90
      138
 90
       15
 90
      167
 90
      140
 90
      167
 90
      138
 90
      140
 90
      166
 90
      167
 90
      142
 90
      166
 90
      140
 90
      142
 90
      165
 90
      166
 90
       98
 90
      165
 90
       98
 90
      142
 90
      164
 90
      165
 90
       97
 90
      164
 90
       97
 90
       98
 90
      163
 90
      164
 90
      101
 90
      163
 90
       97
 90
      101
 90
      162
 90
      163
 90
      107
 90
      162
 90
      101
 90
      107
 90
      161
 90
      162
 90
      104
 90
      161
 90
      104
 90
      107
 90
       14
 90
      161
 90
       14
 90
       94
 90
       94
 90
      104
 90
       14
 90
      160
 90
       91
 90
      160
 90
       91
 90
       94
 90
       13
 90
      160
 90
       13
 90
       88
 90
       88
 90
       91
 90
       13
 90
      159
 90
       85
 90
      159
 90
       85
 90
       88
 90
       12
 90
      159
 90
       12
 90
       82
 90
       82
 90
       85
 90
       12
 90
      158
 90
       78
 90
      158
 90
       78
 90
       82
 90
       11
 90
      158
 90
       11
 90
       77
 90
       77
 90
       78
 90
       10
 90
       11
 90
       10
 90
       76
 90
       76
 90
       77
 90
       10
 90
      157
 90
       75
 90
      157
 90
       75
 90
       76
 90
        9
 90
      157
 90
        9
 90
       72
 90
       72
 90
       75
 90
        8
 90
        9
 90
        8
 90
       71
 90
       71
 90
       72
 90
        7
 90
        8
 90
        7
 90
       70
 90
       70
 90
       71
 90
        7
 90
      156
 90
       69
 90
      156
 90
       69
 90
       70
 90
        6
 90
      156
 90
        6
 90
       68
 90
       68
 90
       69
 90
        5
 90
        6
 90
        5
 90
       67
 90
       67
 90
       68
 90
        5
 90
      155
 90
       65
 90
      155
 90
       65
 90
       67
 90
        4
 90
      155
 90
        4
 90
       52
 90
       52
 90
       65
 90
        4
 90
      154
 90
       51
 90
      154
 90
       51
 90
       52
 90
        3
 90
      154
 90
        3
 90
       61
 90
       51
 90
       61
 90
        3
 90
      153
 90
       56
 90
      153
 90
       56
 90
       61
 90
      152
 90
      153
 90
       55
 90
       56
 90
       30
 90
       42
 90
      144
 90
      145
 90
       29
 90
       41
 90
      141
 90
      143
 90
       28
 90
      192
 90
      137
 90
      139
 90
       27
 90
      191
 90
      133
 90
      135
 90
      178
 90
      190
 90
      126
 90
      131
 90
       26
 90
       40
 90
      121
 90
      123
 90
       39
 90
      177
 90
      117
 90
      119
 90
       50
 90
      186
 90
       66
 90
       74
 90
       38
 90
      195
 90
       73
 90
       79
 90
       37
 90
      194
 90
       80
 90
       81
 90
       49
 90
      185
 90
       83
 90
       84
 90
       48
 90
      184
 90
       86
 90
       87
 90
       47
 90
      183
 90
       89
 90
       90
 90
       36
 90
      193
 90
       92
 90
       93
 90
       46
 90
      182
 90
       95
 90
       96
 90
       35
 90
       45
 90
      105
 90
      106
 90
       44
 90
      181
 90
      108
 90
      109
 90
       34
 90
       43
 90
      102
 90
      103
 90
      149
 90
      154
 90
        0
 90
        4
 90
        2
 90
      153
 90
      151
 90
      153
 90
        1
 90
      153
 90
      150
 90
      153
 90
        3
 90
      149
 90
        4
 90
      188
 90
        4
 90
      189
 90
        4
 90
      187
 90
       50
 90
      155
 90
        5
 90
       50
 90
        6
 90
       50
 90
       50
 90
      156
 90
        7
 90
       50
 90
        9
 90
      195
 90
        8
 90
      186
 90
      157
 90
      195
 90
       10
 90
      195
 90
       11
 90
      195
 90
       38
 90
      158
 90
       37
 90
      158
 90
      158
 90
      194
 90
       12
 90
      185
 90
       49
 90
      158
 90
      159
 90
      184
 90
       12
 90
       48
 90
       13
 90
      183
 90
       47
 90
      159
 90
       36
 90
      160
 90
       13
 90
      193
 90
       14
 90
      182
 90
       46
 90
      160
 90
      165
 90
      180
 90
      164
 90
      180
 90
      165
 90
      179
 90
       34
 90
      163
 90
       43
 90
      163
 90
       35
 90
      161
 90
       14
 90
       45
 90
       44
 90
      162
 90
       44
 90
      161
 90
      162
 90
      181
 90
       23
 90
      175
 90
       23
 90
      176
 90
       23
 90
       24
 90
       23
 90
       25
 90
       22
 90
      177
 90
       39
 90
      173
 90
       26
 90
      172
 90
       21
 90
       40
 90
       40
 90
      171
 90
       20
 90
      178
 90
      170
 90
      178
 90
       19
 90
      178
 90
       18
 90
      178
 90
      169
 90
      190
 90
       27
 90
      168
 90
       17
 90
      191
 90
       16
 90
       28
 90
       15
 90
      192
 90
       29
 90
      167
 90
       41
 90
      166
 90
       30
 90
      166
 90
       42
 90
      166
 90
       31
 90
      166
 90
       32
 90
      166
 90
       33
 90
      165
 90
       52
 90
       53
 90
       51
 90
       60
 90
       54
 90
       56
 90
       56
 90
       57
 90
       56
 90
       58
 90
       56
 90
       59
 90
       60
 90
       61
 90
       52
 90
       63
 90
       52
 90
       62
 90
       52
 90
       64
 90
       65
 90
       66
 90
       66
 90
       67
 90
       66
 90
       68
 90
       66
 90
       69
 90
       66
 90
       70
 90
       71
 90
       74
 90
       72
 90
       73
 90
       73
 90
       75
 90
       73
 90
       76
 90
       73
 90
       77
 90
       78
 90
       79
 90
       78
 90
       81
 90
       78
 90
       80
 90
       78
 90
       84
 90
       82
 90
       83
 90
       82
 90
       87
 90
       85
 90
       86
 90
       85
 90
       90
 90
       88
 90
       89
 90
       88
 90
       93
 90
       91
 90
       92
 90
       91
 90
       96
 90
       94
 90
       95
 90
       97
 90
       99
 90
       98
 90
       99
 90
       98
 90
      100
 90
      101
 90
      102
 90
      101
 90
      103
 90
       94
 90
      106
 90
      104
 90
      105
 90
      104
 90
      108
 90
      107
 90
      108
 90
      107
 90
      109
 90
      110
 90
      112
 90
      110
 90
      113
 90
      110
 90
      114
 90
      110
 90
      115
 90
      116
 90
      117
 90
      118
 90
      119
 90
      120
 90
      121
 90
      122
 90
      123
 90
      123
 90
      124
 90
      125
 90
      126
 90
      126
 90
      127
 90
      126
 90
      128
 90
      126
 90
      129
 90
      130
 90
      131
 90
      132
 90
      133
 90
      134
 90
      135
 90
      136
 90
      137
 90
      138
 90
      139
 90
      140
 90
      141
 90
      142
 90
      143
 90
      142
 90
      144
 90
      142
 90
      145
 90
      142
 90
      146
 90
      142
 90
      147
 90
       98
 90
      148
 95
      430
140
0.0
140
0.0
140
0.0
140
0.0
140
0.0
140
0.0
140
0.0
140
0.0
140
0.0
140
0.0
140
0.0
140
0.0
140
0.0
140
0.0
140
0.0
140
0.0
140
0.0
140
0.0
140
0.0
140
0.0
140
0.0
140
0.0
140
0.0
140
0.0
140
0.0
140
0.0
140
0.0
140
0.0
140
0.0
140
0.0
140
0.0
140
0.0
140
0.0
140
0.0
140
0.0
140
0.0
140
0.0
140
0.0
140
0.0
140
0.0
140
0.0
140
0.0
140
0.0
140
0.0
140
0.0
140
0.0
140
0.0
140
0.0
140
0.0
140
0.0
140
0.0
140
0.0
140
0.0
140
0.0
140
0.0
140
0.0
140
0.0
140
0.0
140
0.0
140
0.0
140
0.0
140
0.0
140
0.0
140
0.0
140
0.0
140
0.0
140
0.0
140
0.0
140
0.0
140
0.0
140
0.0
140
0.0
140
0.0
140
0.0
140
0.0
140
0.0
140
0.0
140
0.0
140
0.0
140
0.0
140
0.0
140
0.0
140
0.0
140
0.0
140
0.0
140
0.0
140
0.0
140
0.0
140
0.0
140
0.0
140
0.0
140
0.0
140
0.0
140
0.0
140
0.0
140
0.0
140
0.0
140
0.0
140
0.0
140
0.0
140
0.0
140
0.0
140
0.0
140
0.0
140
0.0
140
0.0
140
0.0
140
0.0
140
0.0
140
0.0
140
0.0
140
0.0
140
0.0
140
0.0
140
0.0
140
0.0
140
0.0
140
0.0
140
0.0
140
0.0
140
0.0
140
0.0
140
0.0
140
0.0
140
0.0
140
0.0
140
0.0
140
0.0
140
0.0
140
0.0
140
0.0
140
0.0
140
0.0
140
0.0
140
0.0
140
0.0
140
0.0
140
0.0
140
0.0
140
0.0
140
0.0
140
0.0
140
0.0
140
0.0
140
0.0
140
0.0
140
0.0
140
0.0
140
0.0
140
0.0
140
0.0
140
0.0
140
0.0
140
0.0
140
0.0
140
0.0
140
0.0
140
0.0
140
0.0
140
0.0
140
0.0
140
0.0
140
0.0
140
0.0
140
0.0
140
0.0
140
0.0
140
0.0
140
0.0
140
0.0
140
0.0
140
0.0
140
0.0
140
0.0
140
0.0
140
0.0
140
0.0
140
0.0
140
0.0
140
0.0
140
0.0
140
0.0
140
0.0
140
0.0
140
0.0
140
0.0
140
0.0
140
0.0
140
0.0
140
0.0
140
0.0
140
0.0
140
0.0
140
0.0
140
0.0
140
0.0
140
0.0
140
0.0
140
0.0
140
0.0
140
0.0
140
0.0
140
0.0
140
0.0
140
0.0
140
0.0
140
0.0
140
0.0
140
0.0
140
0.0
140
0.0
140
0.0
140
0.0
140
0.0
140
0.0
140
0.0
140
0.0
140
0.0
140
0.0
140
0.0
140
0.0
140
0.0
140
0.0
140
0.0
140
0.0
140
0.0
140
0.0
140
0.0
140
0.0
140
0.0
140
0.0
140
0.0
140
0.0
140
0.0
140
0.0
140
0.0
140
0.0
140
0.0
140
0.0
140
0.0
140
0.0
140
0.0
140
0.0
140
0.0
140
0.0
140
0.0
140
0.0
140
0.0
140
0.0
140
0.0
140
0.0
140
0.0
140
0.0
140
0.0
140
0.0
140
0.0
140
0.0
140
0.0
140
0.0
140
0.0
140
0.0
140
0.0
140
0.0
140
0.0
140
0.0
140
0.0
140
0.0
140
0.0
140
0.0
140
0.0
140
0.0
140
0.0
140
0.0
140
0.0
140
0.0
140
0.0
140
0.0
140
0.0
140
0.0
140
0.0
140
0.0
140
0.0
140
0.0
140
0.0
140
0.0
140
0.0
140
0.0
140
0.0
140
0.0
140
0.0
140
0.0
140
0.0
140
0.0
140
0.0
140
0.0
140
0.0
140
0.0
140
0.0
140
0.0
140
0.0
140
0.0
140
0.0
140
0.0
140
0.0
140
0.0
140
0.0
140
0.0
140
0.0
140
0.0
140
0.0
140
0.0
140
0.0
140
0.0
140
0.0
140
0.0
140
0.0
140
0.0
140
0.0
140
0.0
140
0.0
140
0.0
140
0.0
140
0.0
140
0.0
140
0.0
140
0.0
140
0.0
140
0.0
140
0.0
140
0.0
140
0.0
140
0.0
140
0.0
140
0.0
140
0.0
140
0.0
140
0.0
140
0.0
140
0.0
140
0.0
140
0.0
140
0.0
140
0.0
140
0.0
140
0.0
140
0.0
140
0.0
140
0.0
140
0.0
140
0.0
140
0.0
140
0.0
140
0.0
140
0.0
140
0.0
140
0.0
140
0.0
140
0.0
140
0.0
140
0.0
140
0.0
140
0.0
140
0.0
140
0.0
140
0.0
140
0.0
140
0.0
140
0.0
140
0.0
140
0.0
140
0.0
140
0.0
140
0.0
140
0.0
140
0.0
140
0.0
140
0.0
140
0.0
140
0.0
140
0.0
140
0.0
140
0.0
140
0.0
140
0.0
140
0.0
140
0.0
140
0.0
140
0.0
140
0.0
140
0.0
140
0.0
140
0.0
140
0.0
140
0.0
140
0.0
140
0.0
140
0.0
140
0.0
140
0.0
140
0.0
140
0.0
140
0.0
140
0.0
140
0.0
140
0.0
140
0.0
140
0.0
140
0.0
140
0.0
140
0.0
140
0.0
140
0.0
140
0.0
140
0.0
140
0.0
140
0.0
140
0.0
140
0.0
140
0.0
140
0.0
140
0.0
140
0.0
140
0.0
140
0.0
140
0.0
140
0.0
140
0.0
140
0.0
140
0.0
140
0.0
 90
        0
  0
POLYLINE
  5
FA
330
1F
100
AcDbEntity
  8
OracDecor_cornice_mouldings
 62
    71
420
 12117145
100
AcDb2dPolyline
 66
     1
 10
0.0
 20
0.0
 30
0.0000099488006526
 70
     1
210
-0.9999999999999769
220
0.0000001788139343
230
-0.0000001192092896
  0
VERTEX
  5
FB
330
FA
100
AcDbEntity
  8
OracDecor_cornice_mouldings
 62
    71
420
 12117145
100
AcDbVertex
100
AcDb2dVertex
 10
-86.88882446289062
 20
-9.406010627746582
 30
0.0000099488006526
  0
VERTEX
  5
FC
330
FA
100
AcDbEntity
  8
OracDecor_cornice_mouldings
 62
    71
420
 12117145
100
AcDbVertex
100
AcDb2dVertex
 10
-86.93288421630859
 20
-4.86511754989624
 30
0.0000099488006526
  0
VERTEX
  5
FD
330
FA
100
AcDbEntity
  8
OracDecor_cornice_mouldings
 62
    71
420
 12117145
100
AcDbVertex
100
AcDb2dVertex
 10
-91.69326782226562
 20
-4.823544979095458
 30
0.0000099488006526
  0
VERTEX
  5
FE
330
FA
100
AcDbEntity
  8
OracDecor_cornice_mouldings
 62
    71
420
 12117145
100
AcDbVertex
100
AcDb2dVertex
 10
-91.84660339355469
 20
-4.78476858139038
 30
0.0000099488006526
  0
VERTEX
  5
FF
330
FA
100
AcDbEntity
  8
OracDecor_cornice_mouldings
 62
    71
420
 12117145
100
AcDbVertex
100
AcDb2dVertex
 10
-91.95884704589843
 20
-4.67883825302124
 30
0.0000099488006526
  0
VERTEX
  5
100
330
FA
100
AcDbEntity
  8
OracDecor_cornice_mouldings
 62
    71
420
 12117145
100
AcDbVertex
100
AcDb2dVertex
 10
-91.99993133544921
 20
-4.534131526947021
 30
0.0000099488006526
  0
VERTEX
  5
101
330
FA
100
AcDbEntity
  8
OracDecor_cornice_mouldings
 62
    71
420
 12117145
100
AcDbVertex
100
AcDb2dVertex
 10
-91.99993133544921
 20
-0.0000131130182126
 30
0.0000099488006526
  0
VERTEX
  5
102
330
FA
100
AcDbEntity
  8
OracDecor_cornice_mouldings
 62
    71
420
 12117145
100
AcDbVertex
100
AcDb2dVertex
 10
-84.70742797851562
 20
-0.0000126783506857
 30
0.0000099488006526
  0
VERTEX
  5
103
330
FA
100
AcDbEntity
  8
OracDecor_cornice_mouldings
 62
    71
420
 12117145
100
AcDbVertex
100
AcDb2dVertex
 10
-84.44285583496094
 20
-0.0328839085996151
 30
0.0000099488006526
  0
VERTEX
  5
104
330
FA
100
AcDbEntity
  8
OracDecor_cornice_mouldings
 62
    71
420
 12117145
100
AcDbVertex
100
AcDb2dVertex
 10
-84.19631958007812
 20
-0.1292584091424942
 30
0.0000099488006526
  0
VERTEX
  5
105
330
FA
100
AcDbEntity
  8
OracDecor_cornice_mouldings
 62
    71
420
 12117145
100
AcDbVertex
100
AcDb2dVertex
 10
-82.28882598876953
 20
-1.168583989143371
 30
0.0000099488006526
  0
VERTEX
  5
106
330
FA
100
AcDbEntity
  8
OracDecor_cornice_mouldings
 62
    71
420
 12117145
100
AcDbVertex
100
AcDb2dVertex
 10
-81.77771759033204
 20
-1.297829747200012
 30
0.0000099488006526
  0
VERTEX
  5
107
330
FA
100
AcDbEntity
  8
OracDecor_cornice_mouldings
 62
    71
420
 12117145
100
AcDbVertex
100
AcDb2dVertex
 10
-81.2666015625
 20
-1.168583989143371
 30
0.0000099488006526
  0
VERTEX
  5
108
330
FA
100
AcDbEntity
  8
OracDecor_cornice_mouldings
 62
    71
420
 12117145
100
AcDbVertex
100
AcDb2dVertex
 10
-79.35910797119141
 20
-0.1292581111192703
 30
0.0000099488006526
  0
VERTEX
  5
109
330
FA
100
AcDbEntity
  8
OracDecor_cornice_mouldings
 62
    71
420
 12117145
100
AcDbVertex
100
AcDb2dVertex
 10
-79.11257171630859
 20
-0.0328835919499397
 30
0.0000099488006526
  0
VERTEX
  5
10A
330
FA
100
AcDbEntity
  8
OracDecor_cornice_mouldings
 62
    71
420
 12117145
100
AcDbVertex
100
AcDb2dVertex
 10
-78.8479995727539
 20
-0.0000123291010823
 30
0.0000099488006526
  0
VERTEX
  5
10B
330
FA
100
AcDbEntity
  8
OracDecor_cornice_mouldings
 62
    71
420
 12117145
100
AcDbVertex
100
AcDb2dVertex
 10
-72.77411651611328
 20
-0.0000119670694403
 30
0.0000099488006526
  0
VERTEX
  5
10C
330
FA
100
AcDbEntity
  8
OracDecor_cornice_mouldings
 62
    71
420
 12117145
100
AcDbVertex
100
AcDb2dVertex
 10
-71.40377807617188
 20
-0.2231678664684296
 30
0.0000099488006526
  0
VERTEX
  5
10D
330
FA
100
AcDbEntity
  8
OracDecor_cornice_mouldings
 62
    71
420
 12117145
100
AcDbVertex
100
AcDb2dVertex
 10
-70.19194793701172
 20
-0.8668216466903686
 30
0.0000099488006526
  0
VERTEX
  5
10E
330
FA
100
AcDbEntity
  8
OracDecor_cornice_mouldings
 62
    71
420
 12117145
100
AcDbVertex
100
AcDb2dVertex
 10
-69.27876281738281
 20
-1.856537222862243
 30
0.0000099488006526
  0
VERTEX
  5
10F
330
FA
100
AcDbEntity
  8
OracDecor_cornice_mouldings
 62
    71
420
 12117145
100
AcDbVertex
100
AcDb2dVertex
 10
-68.47769165039062
 20
-2.65440011024475
 30
0.0000099488006526
  0
VERTEX
  5
110
330
FA
100
AcDbEntity
  8
OracDecor_cornice_mouldings
 62
    71
420
 12117145
100
AcDbVertex
100
AcDb2dVertex
 10
-60.44076919555664
 20
-7.903739929199218
 30
0.0000099488006526
  0
VERTEX
  5
111
330
FA
100
AcDbEntity
  8
OracDecor_cornice_mouldings
 62
    71
420
 12117145
100
AcDbVertex
100
AcDb2dVertex
 10
-53.79734420776367
 20
-14.15734767913818
 30
0.0000099488006526
  0
VERTEX
  5
112
330
FA
100
AcDbEntity
  8
OracDecor_cornice_mouldings
 62
    71
420
 12117145
100
AcDbVertex
100
AcDb2dVertex
 10
-48.44934844970703
 20
-21.43352127075195
 30
0.0000099488006526
  0
VERTEX
  5
113
330
FA
100
AcDbEntity
  8
OracDecor_cornice_mouldings
 62
    71
420
 12117145
100
AcDbVertex
100
AcDb2dVertex
 10
-44.57001495361327
 20
-29.49656105041504
 30
0.0000099488006526
  0
VERTEX
  5
114
330
FA
100
AcDbEntity
  8
OracDecor_cornice_mouldings
 62
    71
420
 12117145
100
AcDbVertex
100
AcDb2dVertex
 10
-42.50559997558593
 20
-33.71567153930664
 30
0.0000099488006526
  0
VERTEX
  5
115
330
FA
100
AcDbEntity
  8
OracDecor_cornice_mouldings
 62
    71
420
 12117145
100
AcDbVertex
100
AcDb2dVertex
 10
-39.62206649780274
 20
-37.48279571533203
 30
0.0000099488006526
  0
VERTEX
  5
116
330
FA
100
AcDbEntity
  8
OracDecor_cornice_mouldings
 62
    71
420
 12117145
100
AcDbVertex
100
AcDb2dVertex
 10
-36.02647018432617
 20
-40.65806198120117
 30
0.0000099488006526
  0
VERTEX
  5
117
330
FA
100
AcDbEntity
  8
OracDecor_cornice_mouldings
 62
    71
420
 12117145
100
AcDbVertex
100
AcDb2dVertex
 10
-31.85232925415039
 20
-43.12356567382813
 30
0.0000099488006526
  0
VERTEX
  5
118
330
FA
100
AcDbEntity
  8
OracDecor_cornice_mouldings
 62
    71
420
 12117145
100
AcDbVertex
100
AcDb2dVertex
 10
-27.25462341308594
 20
-44.78776931762695
 30
0.0000099488006526
  0
VERTEX
  5
119
330
FA
100
AcDbEntity
  8
OracDecor_cornice_mouldings
 62
    71
420
 12117145
100
AcDbVertex
100
AcDb2dVertex
 10
-21.23356056213379
 20
-46.96200561523437
 30
0.0000099488006526
  0
VERTEX
  5
11A
330
FA
100
AcDbEntity
  8
OracDecor_cornice_mouldings
 62
    71
420
 12117145
100
AcDbVertex
100
AcDb2dVertex
 10
-15.76076889038086
 20
-50.17749786376953
 30
0.0000099488006526
  0
VERTEX
  5
11B
330
FA
100
AcDbEntity
  8
OracDecor_cornice_mouldings
 62
    71
420
 12117145
100
AcDbVertex
100
AcDb2dVertex
 10
-11.03604888916015
 20
-54.31682586669921
 30
0.0000099488006526
  0
VERTEX
  5
11C
330
FA
100
AcDbEntity
  8
OracDecor_cornice_mouldings
 62
    71
420
 12117145
100
AcDbVertex
100
AcDb2dVertex
 10
-9.028030395507812
 20
-56.1319580078125
 30
0.0000099488006526
  0
VERTEX
  5
11D
330
FA
100
AcDbEntity
  8
OracDecor_cornice_mouldings
 62
    71
420
 12117145
100
AcDbVertex
100
AcDb2dVertex
 10
-6.738956451416015
 20
-57.62160873413086
 30
0.0000099488006526
  0
VERTEX
  5
11E
330
FA
100
AcDbEntity
  8
OracDecor_cornice_mouldings
 62
    71
420
 12117145
100
AcDbVertex
100
AcDb2dVertex
 10
-2.044399261474609
 20
-60.17950820922852
 30
0.0000099488006526
  0
VERTEX
  5
11F
330
FA
100
AcDbEntity
  8
OracDecor_cornice_mouldings
 62
    71
420
 12117145
100
AcDbVertex
100
AcDb2dVertex
 10
-0.956573486328125
 20
-61.04094696044922
 30
0.0000099488006526
  0
VERTEX
  5
120
330
FA
100
AcDbEntity
  8
OracDecor_cornice_mouldings
 62
    71
420
 12117145
100
AcDbVertex
100
AcDb2dVertex
 10
-0.2465438842773437
 20
-62.20155334472656
 30
0.0000099488006526
  0
VERTEX
  5
121
330
FA
100
AcDbEntity
  8
OracDecor_cornice_mouldings
 62
    71
420
 12117145
100
AcDbVertex
100
AcDb2dVertex
 10
0.0000457763671875
 20
-63.5213508605957
 30
0.0000099488006526
  0
VERTEX
  5
122
330
FA
100
AcDbEntity
  8
OracDecor_cornice_mouldings
 62
    71
420
 12117145
100
AcDbVertex
100
AcDb2dVertex
 10
0.0000495910644531
 20
-69.58807373046875
 30
0.0000099488006526
  0
VERTEX
  5
123
330
FA
100
AcDbEntity
  8
OracDecor_cornice_mouldings
 62
    71
420
 12117145
100
AcDbVertex
100
AcDb2dVertex
 10
-0.0347824096679688
 20
-69.83775329589843
 30
0.0000099488006526
  0
VERTEX
  5
124
330
FA
100
AcDbEntity
  8
OracDecor_cornice_mouldings
 62
    71
420
 12117145
100
AcDbVertex
100
AcDb2dVertex
 10
-0.13690185546875
 20
-70.07042694091797
 30
0.0000099488006526
  0
VERTEX
  5
125
330
FA
100
AcDbEntity
  8
OracDecor_cornice_mouldings
 62
    71
420
 12117145
100
AcDbVertex
100
AcDb2dVertex
 10
-1.23819351196289
 20
-71.87059020996094
 30
0.0000099488006526
  0
VERTEX
  5
126
330
FA
100
AcDbEntity
  8
OracDecor_cornice_mouldings
 62
    71
420
 12117145
100
AcDbVertex
100
AcDb2dVertex
 10
-1.359615325927734
 20
-72.1854248046875
 30
0.0000099488006526
  0
VERTEX
  5
127
330
FA
100
AcDbEntity
  8
OracDecor_cornice_mouldings
 62
    71
420
 12117145
100
AcDbVertex
100
AcDb2dVertex
 10
-1.359615325927734
 20
-72.52046203613281
 30
0.0000099488006526
  0
VERTEX
  5
128
330
FA
100
AcDbEntity
  8
OracDecor_cornice_mouldings
 62
    71
420
 12117145
100
AcDbVertex
100
AcDb2dVertex
 10
-1.23819351196289
 20
-72.83529663085937
 30
0.0000099488006526
  0
VERTEX
  5
129
330
FA
100
AcDbEntity
  8
OracDecor_cornice_mouldings
 62
    71
420
 12117145
100
AcDbVertex
100
AcDb2dVertex
 10
-0.13690185546875
 20
-74.63545989990234
 30
0.0000099488006526
  0
VERTEX
  5
12A
330
FA
100
AcDbEntity
  8
OracDecor_cornice_mouldings
 62
    71
420
 12117145
100
AcDbVertex
100
AcDb2dVertex
 10
-0.0347824096679688
 20
-74.86813354492188
 30
0.0000099488006526
  0
VERTEX
  5
12B
330
FA
100
AcDbEntity
  8
OracDecor_cornice_mouldings
 62
    71
420
 12117145
100
AcDbVertex
100
AcDb2dVertex
 10
0.0000495910644531
 20
-75.11781311035156
 30
0.0000099488006526
  0
VERTEX
  5
12C
330
FA
100
AcDbEntity
  8
OracDecor_cornice_mouldings
 62
    71
420
 12117145
100
AcDbVertex
100
AcDb2dVertex
 10
0.0000495910644531
 20
-82.0
 30
0.0000099488006526
  0
VERTEX
  5
12D
330
FA
100
AcDbEntity
  8
OracDecor_cornice_mouldings
 62
    71
420
 12117145
100
AcDbVertex
100
AcDb2dVertex
 10
-4.806659698486328
 20
-82.0
 30
0.0000099488006526
  0
VERTEX
  5
12E
330
FA
100
AcDbEntity
  8
OracDecor_cornice_mouldings
 62
    71
420
 12117145
100
AcDbVertex
100
AcDb2dVertex
 10
-4.972049713134765
 20
-81.95430755615234
 30
0.0000099488006526
  0
VERTEX
  5
12F
330
FA
100
AcDbEntity
  8
OracDecor_cornice_mouldings
 62
    71
420
 12117145
100
AcDbVertex
100
AcDb2dVertex
 10
-5.085212707519531
 20
-81.83163452148438
 30
0.0000099488006526
  0
VERTEX
  5
130
330
FA
100
AcDbEntity
  8
OracDecor_cornice_mouldings
 62
    71
420
 12117145
100
AcDbVertex
100
AcDb2dVertex
 10
-5.110404968261718
 20
-81.67074584960937
 30
0.0000099488006526
  0
VERTEX
  5
131
330
FA
100
AcDbEntity
  8
OracDecor_cornice_mouldings
 62
    71
420
 12117145
100
AcDbVertex
100
AcDb2dVertex
 10
-5.04141616821289
 20
-78.79898834228516
 30
0.0000099488006526
  0
VERTEX
  5
132
330
FA
100
AcDbEntity
  8
OracDecor_cornice_mouldings
 62
    71
420
 12117145
100
AcDbVertex
100
AcDb2dVertex
 10
-5.235858917236328
 20
-76.82343292236328
 30
0.0000099488006526
  0
VERTEX
  5
133
330
FA
100
AcDbEntity
  8
OracDecor_cornice_mouldings
 62
    71
420
 12117145
100
AcDbVertex
100
AcDb2dVertex
 10
-5.647235870361328
 20
-74.98582458496094
 30
0.0000099488006526
  0
VERTEX
  5
134
330
FA
100
AcDbEntity
  8
OracDecor_cornice_mouldings
 62
    71
420
 12117145
100
AcDbVertex
100
AcDb2dVertex
 10
-6.311233520507812
 20
-73.11471557617188
 30
0.0000099488006526
  0
VERTEX
  5
135
330
FA
100
AcDbEntity
  8
OracDecor_cornice_mouldings
 62
    71
420
 12117145
100
AcDbVertex
100
AcDb2dVertex
 10
-7.164588928222656
 20
-71.40000915527344
 30
0.0000099488006526
  0
VERTEX
  5
136
330
FA
100
AcDbEntity
  8
OracDecor_cornice_mouldings
 62
    71
420
 12117145
100
AcDbVertex
100
AcDb2dVertex
 10
-8.253067016601562
 20
-69.73882293701172
 30
0.0000099488006526
  0
VERTEX
  5
137
330
FA
100
AcDbEntity
  8
OracDecor_cornice_mouldings
 62
    71
420
 12117145
100
AcDbVertex
100
AcDb2dVertex
 10
-9.515430450439453
 20
-68.2349853515625
 30
0.0000099488006526
  0
VERTEX
  5
138
330
FA
100
AcDbEntity
  8
OracDecor_cornice_mouldings
 62
    71
420
 12117145
100
AcDbVertex
100
AcDb2dVertex
 10
-10.95928573608398
 20
-66.87029266357422
 30
0.0000099488006526
  0
VERTEX
  5
139
330
FA
100
AcDbEntity
  8
OracDecor_cornice_mouldings
 62
    71
420
 12117145
100
AcDbVertex
100
AcDb2dVertex
 10
-12.57414627075195
 20
-65.66300964355469
 30
0.0000099488006526
  0
VERTEX
  5
13A
330
FA
100
AcDbEntity
  8
OracDecor_cornice_mouldings
 62
    71
420
 12117145
100
AcDbVertex
100
AcDb2dVertex
 10
-14.2892894744873
 20
-64.65902709960937
 30
0.0000099488006526
  0
VERTEX
  5
13B
330
FA
100
AcDbEntity
  8
OracDecor_cornice_mouldings
 62
    71
420
 12117145
100
AcDbVertex
100
AcDb2dVertex
 10
-16.17493438720703
 20
-63.82324981689453
 30
0.0000099488006526
  0
VERTEX
  5
13C
330
FA
100
AcDbEntity
  8
OracDecor_cornice_mouldings
 62
    71
420
 12117145
100
AcDbVertex
100
AcDb2dVertex
 10
-18.06985473632812
 20
-63.22250747680664
 30
0.0000099488006526
  0
VERTEX
  5
13D
330
FA
100
AcDbEntity
  8
OracDecor_cornice_mouldings
 62
    71
420
 12117145
100
AcDbVertex
100
AcDb2dVertex
 10
-20.12370300292969
 20
-62.81301498413085
 30
0.0000099488006526
  0
VERTEX
  5
13E
330
FA
100
AcDbEntity
  8
OracDecor_cornice_mouldings
 62
    71
420
 12117145
100
AcDbVertex
100
AcDb2dVertex
 10
-22.10417175292969
 20
-62.63888168334961
 30
0.0000099488006526
  0
VERTEX
  5
13F
330
FA
100
AcDbEntity
  8
OracDecor_cornice_mouldings
 62
    71
420
 12117145
100
AcDbVertex
100
AcDb2dVertex
 10
-25.20661735534668
 20
-62.70527267456055
 30
0.0000099488006526
  0
VERTEX
  5
140
330
FA
100
AcDbEntity
  8
OracDecor_cornice_mouldings
 62
    71
420
 12117145
100
AcDbVertex
100
AcDb2dVertex
 10
-25.37709808349609
 20
-62.68149948120117
 30
0.0000099488006526
  0
VERTEX
  5
141
330
FA
100
AcDbEntity
  8
OracDecor_cornice_mouldings
 62
    71
420
 12117145
100
AcDbVertex
100
AcDb2dVertex
 10
-25.50707626342774
 20
-62.57470321655273
 30
0.0000099488006526
  0
VERTEX
  5
142
330
FA
100
AcDbEntity
  8
OracDecor_cornice_mouldings
 62
    71
420
 12117145
100
AcDbVertex
100
AcDb2dVertex
 10
-25.55549812316895
 20
-62.41861343383789
 30
0.0000099488006526
  0
VERTEX
  5
143
330
FA
100
AcDbEntity
  8
OracDecor_cornice_mouldings
 62
    71
420
 12117145
100
AcDbVertex
100
AcDb2dVertex
 10
-25.59342956542969
 20
-57.91374206542968
 30
0.0000099488006526
  0
VERTEX
  5
144
330
FA
100
AcDbEntity
  8
OracDecor_cornice_mouldings
 62
    71
420
 12117145
100
AcDbVertex
100
AcDb2dVertex
 10
-31.43041229248047
 20
-56.5774917602539
 30
0.0000099488006526
  0
VERTEX
  5
145
330
FA
100
AcDbEntity
  8
OracDecor_cornice_mouldings
 62
    71
420
 12117145
100
AcDbVertex
100
AcDb2dVertex
 10
-34.60683059692383
 20
-55.54637145996093
 30
0.0000099488006526
  0
VERTEX
  5
146
330
FA
100
AcDbEntity
  8
OracDecor_cornice_mouldings
 62
    71
420
 12117145
100
AcDbVertex
100
AcDb2dVertex
 10
-38.46385955810547
 20
-53.87998199462891
 30
0.0000099488006526
  0
VERTEX
  5
147
330
FA
100
AcDbEntity
  8
OracDecor_cornice_mouldings
 62
    71
420
 12117145
100
AcDbVertex
100
AcDb2dVertex
 10
-41.38888549804687
 20
-52.26946258544922
 30
0.0000099488006526
  0
VERTEX
  5
148
330
FA
100
AcDbEntity
  8
OracDecor_cornice_mouldings
 62
    71
420
 12117145
100
AcDbVertex
100
AcDb2dVertex
 10
-44.80005264282226
 20
-49.94181060791015
 30
0.0000099488006526
  0
VERTEX
  5
149
330
FA
100
AcDbEntity
  8
OracDecor_cornice_mouldings
 62
    71
420
 12117145
100
AcDbVertex
100
AcDb2dVertex
 10
-47.36137390136718
 20
-47.80059051513672
 30
0.0000099488006526
  0
VERTEX
  5
14A
330
FA
100
AcDbEntity
  8
OracDecor_cornice_mouldings
 62
    71
420
 12117145
100
AcDbVertex
100
AcDb2dVertex
 10
-50.19865036010742
 20
-44.91516494750976
 30
0.0000099488006526
  0
VERTEX
  5
14B
330
FA
100
AcDbEntity
  8
OracDecor_cornice_mouldings
 62
    71
420
 12117145
100
AcDbVertex
100
AcDb2dVertex
 10
-52.29025268554687
 20
-42.31410980224609
 30
0.0000099488006526
  0
VERTEX
  5
14C
330
FA
100
AcDbEntity
  8
OracDecor_cornice_mouldings
 62
    71
420
 12117145
100
AcDbVertex
100
AcDb2dVertex
 10
-54.45513153076172
 20
-38.99192428588867
 30
0.0000099488006526
  0
VERTEX
  5
14D
330
FA
100
AcDbEntity
  8
OracDecor_cornice_mouldings
 62
    71
420
 12117145
100
AcDbVertex
100
AcDb2dVertex
 10
-55.98343658447266
 20
-36.02545928955078
 30
0.0000099488006526
  0
VERTEX
  5
14E
330
FA
100
AcDbEntity
  8
OracDecor_cornice_mouldings
 62
    71
420
 12117145
100
AcDbVertex
100
AcDb2dVertex
 10
-57.40727233886719
 20
-32.39684677124023
 30
0.0000099488006526
  0
VERTEX
  5
14F
330
FA
100
AcDbEntity
  8
OracDecor_cornice_mouldings
 62
    71
420
 12117145
100
AcDbVertex
100
AcDb2dVertex
 10
-58.64864349365234
 20
-29.28067207336426
 30
0.0000099488006526
  0
VERTEX
  5
150
330
FA
100
AcDbEntity
  8
OracDecor_cornice_mouldings
 62
    71
420
 12117145
100
AcDbVertex
100
AcDb2dVertex
 10
-59.70328903198242
 20
-26.67251205444336
 30
0.0000099488006526
  0
VERTEX
  5
151
330
FA
100
AcDbEntity
  8
OracDecor_cornice_mouldings
 62
    71
420
 12117145
100
AcDbVertex
100
AcDb2dVertex
 10
-61.28996658325196
 20
-23.74093246459961
 30
0.0000099488006526
  0
VERTEX
  5
152
330
FA
100
AcDbEntity
  8
OracDecor_cornice_mouldings
 62
    71
420
 12117145
100
AcDbVertex
100
AcDb2dVertex
 10
-62.93373107910156
 20
-21.37861633300781
 30
0.0000099488006526
  0
VERTEX
  5
153
330
FA
100
AcDbEntity
  8
OracDecor_cornice_mouldings
 62
    71
420
 12117145
100
AcDbVertex
100
AcDb2dVertex
 10
-65.12531280517578
 20
-18.86565017700195
 30
0.0000099488006526
  0
VERTEX
  5
154
330
FA
100
AcDbEntity
  8
OracDecor_cornice_mouldings
 62
    71
420
 12117145
100
AcDbVertex
100
AcDb2dVertex
 10
-67.29901123046875
 20
-16.8635196685791
 30
0.0000099488006526
  0
VERTEX
  5
155
330
FA
100
AcDbEntity
  8
OracDecor_cornice_mouldings
 62
    71
420
 12117145
100
AcDbVertex
100
AcDb2dVertex
 10
-69.97879791259766
 20
-14.87777709960937
 30
0.0000099488006526
  0
VERTEX
  5
156
330
FA
100
AcDbEntity
  8
OracDecor_cornice_mouldings
 62
    71
420
 12117145
100
AcDbVertex
100
AcDb2dVertex
 10
-72.59212493896484
 20
-13.342698097229
 30
0.0000099488006526
  0
VERTEX
  5
157
330
FA
100
AcDbEntity
  8
OracDecor_cornice_mouldings
 62
    71
420
 12117145
100
AcDbVertex
100
AcDb2dVertex
 10
-75.6290283203125
 20
-11.96175670623779
 30
0.0000099488006526
  0
VERTEX
  5
158
330
FA
100
AcDbEntity
  8
OracDecor_cornice_mouldings
 62
    71
420
 12117145
100
AcDbVertex
100
AcDb2dVertex
 10
-78.56074523925781
 20
-10.98227977752685
 30
0.0000099488006526
  0
VERTEX
  5
159
330
FA
100
AcDbEntity
  8
OracDecor_cornice_mouldings
 62
    71
420
 12117145
100
AcDbVertex
100
AcDb2dVertex
 10
-81.81725311279297
 20
-10.25527858734131
 30
0.0000099488006526
  0
VERTEX
  5
15A
330
FA
100
AcDbEntity
  8
OracDecor_cornice_mouldings
 62
    71
420
 12117145
100
AcDbVertex
100
AcDb2dVertex
 10
-86.58690643310547
 20
-9.695389747619628
 30
0.0000099488006526
  0
VERTEX
  5
15B
330
FA
100
AcDbEntity
  8
OracDecor_cornice_mouldings
 62
    71
420
 12117145
100
AcDbVertex
100
AcDb2dVertex
 10
-86.73822784423828
 20
-9.655140876770019
 30
0.0000099488006526
  0
VERTEX
  5
15C
330
FA
100
AcDbEntity
  8
OracDecor_cornice_mouldings
 62
    71
420
 12117145
100
AcDbVertex
100
AcDb2dVertex
 10
-86.84852600097656
 20
-9.549424171447753
 30
0.0000099488006526
  0
SEQEND
  5
15D
330
FA
100
AcDbEntity
  8
OracDecor_cornice_mouldings
 62
    71
420
 12117145
  0
ENDSEC
  0
SECTION
  2
OBJECTS
  0
DICTIONARY
  5
C
330
0
100
AcDbDictionary
281
     1
  3
ACAD_COLOR
350
DC
  3
ACAD_DETAILVIEWSTYLE
350
F5
  3
ACAD_GROUP
350
D
  3
ACAD_LAYOUT
350
1A
  3
ACAD_MATERIAL
350
AA
  3
ACAD_MLEADERSTYLE
350
F1
  3
ACAD_MLINESTYLE
350
17
  3
ACAD_PLOTSETTINGS
350
19
  3
ACAD_PLOTSTYLENAME
350
E
  3
ACAD_SCALELIST
350
DF
  3
ACAD_SECTIONVIEWSTYLE
350
F3
  3
ACAD_TABLESTYLE
350
DD
  3
ACAD_VISUALSTYLE
350
C3
  3
ACDB_RECOMPOSE_DATA
350
16A
  3
AcDbVariableDictionary
350
15E
  0
DICTIONARY
  5
DC
102
{ACAD_REACTORS
330
C
102
}
330
C
100
AcDbDictionary
281
     1
  0
DICTIONARY
  5
F5
102
{ACAD_REACTORS
330
C
102
}
330
C
100
AcDbDictionary
281
     1
  3
Imperial24
350
F6
  0
DICTIONARY
  5
D
102
{ACAD_REACTORS
330
C
102
}
330
C
100
AcDbDictionary
281
     1
  0
DICTIONARY
  5
1A
102
{ACAD_REACTORS
330
C
102
}
330
C
100
AcDbDictionary
281
     1
  3
Layout1
350
1E
  3
Layout2
350
26
  3
Model
350
22
  0
DICTIONARY
  5
AA
102
{ACAD_REACTORS
330
C
102
}
330
C
100
AcDbDictionary
281
     1
  3
ByBlock
350
B3
  3
ByLayer
350
AB
  3
Global
350
BB
  0
DICTIONARY
  5
F1
102
{ACAD_REACTORS
330
C
102
}
330
C
100
AcDbDictionary
281
     1
  3
Standard
350
F2
  0
DICTIONARY
  5
17
102
{ACAD_REACTORS
330
C
102
}
330
C
100
AcDbDictionary
281
     1
  3
Standard
350
18
  0
DICTIONARY
  5
19
102
{ACAD_REACTORS
330
C
102
}
330
C
100
AcDbDictionary
281
     1
  0
ACDBDICTIONARYWDFLT
  5
E
102
{ACAD_REACTORS
330
C
102
}
330
C
100
AcDbDictionary
281
     1
  3
ByLayer
350
2D
  3
Normal
350
F
100
AcDbDictionaryWithDefault
340
F
  0
DICTIONARY
  5
DF
102
{ACAD_REACTORS
330
C
102
}
330
C
100
AcDbDictionary
281
     1
  3
A0
350
E0
  3
A1
350
E1
  3
A2
350
E2
  3
A3
350
E3
  3
A4
350
E4
  3
A5
350
E5
  3
A6
350
E6
  3
A7
350
E7
  3
A8
350
E8
  3
A9
350
E9
  3
B0
350
EA
  3
B1
350
EB
  3
B2
350
EC
  3
B3
350
ED
  3
B4
350
EE
  3
B5
350
EF
  3
B6
350
F0
  0
DICTIONARY
  5
F3
102
{ACAD_REACTORS
330
C
102
}
330
C
100
AcDbDictionary
281
     1
  3
Imperial24
350
F4
  0
DICTIONARY
  5
DD
102
{ACAD_REACTORS
330
C
102
}
330
C
100
AcDbDictionary
281
     1
  3
Standard
350
DE
  0
DICTIONARY
  5
C3
102
{ACAD_REACTORS
330
C
102
}
330
C
100
AcDbDictionary
281
     1
  3
2dWireframe
350
C9
  3
Basic
350
C8
  3
Brighten
350
CF
  3
ColorChange
350
D3
  3
Conceptual
350
CC
  3
Dim
350
CE
  3
EdgeColorOff
350
DB
  3
Facepattern
350
D2
  3
Flat
350
C4
  3
FlatWithEdges
350
C5
  3
Gouraud
350
C6
  3
GouraudWithEdges
350
C7
  3
Hidden
350
CB
  3
JitterOff
350
D9
  3
Linepattern
350
D1
  3
OverhangOff
350
DA
  3
Realistic
350
CD
  3
Shaded
350
D8
  3
Shaded with edges
350
D7
  3
Shades of Gray
350
D4
  3
Sketchy
350
D5
  3
Thicken
350
D0
  3
Wireframe
350
CA
  3
X-Ray
350
D6
  0
XRECORD
  5
16A
102
{ACAD_REACTORS
330
C
102
}
330
C
100
AcDbXrecord
280
     1
 90
        1
330
DE
  0
DICTIONARY
  5
15E
102
{ACAD_REACTORS
330
C
102
}
330
C
100
AcDbDictionary
281
     1
  3
CANNOSCALE
350
164
  3
CMLEADERSTYLE
350
160
  3
CTABLESTYLE
350
15F
  3
CVIEWDETAILSTYLE
350
161
  3
CVIEWSECTIONSTYLE
350
162
  3
LAYEREVAL
350
166
  3
LAYERNOTIFY
350
167
  3
LIGHTINGUNITS
350
165
  3
MSLTSCALE
350
163
  0
ACDBDETAILVIEWSTYLE
  5
F6
102
{ACAD_XDICTIONARY
360
19F
102
}
102
{ACAD_REACTORS
330
F5
102
}
330
F5
100
AcDbModelDocViewStyle
 70
     0
  3
Imperial24
290
     0
100
AcDbDetailViewStyle
 70
     0
 71
     0
 90
        3
 71
     1
340
11
 62
   256
 40
0.24
340
0
 62
   256
 40
0.24
300

 40
0.36
280
     3
 71
     2
340
16
 90
       25
 62
   256
 71
     3
340
11
 62
   256
 40
0.24
 90
        1
 40
0.75
 90
        1
300
%<\AcVar ViewType \f "%tc1">% %<\AcVar ViewDetailId>%\PSCALE %<\AcVar ViewScale \f "%sn">%
 71
     4
340
16
 90
       25
 62
   256
340
16
 90
       25
 62
   256
280
     0
  0
LAYOUT
  5
1E
102
{ACAD_REACTORS
330
1A
102
}
330
1A
100
AcDbPlotSettings
  1

  2
\\KTXNTBDC\CASF2PN1
  4

  6

 40
0.0
 41
0.0
 42
0.0
 43
0.0
 44
0.0
 45
0.0
 46
0.0
 47
0.0
 48
0.0
 49
0.0
140
0.0
141
0.0
142
1.0
143
1.0
 70
   688
 72
     0
 73
     0
 74
     5
  7

 75
    16
147
1.0
 76
     0
 77
     2
 78
   300
148
0.0
149
0.0
100
AcDbLayout
  1
Layout1
 70
     1
 71
     1
 10
0.0
 20
0.0
 11
12.0
 21
9.0
 12
0.0
 22
0.0
 32
0.0
 14
1.000000000000000E+20
 24
1.000000000000000E+20
 34
1.000000000000000E+20
 15
-1.000000000000000E+20
 25
-1.000000000000000E+20
 35
-1.000000000000000E+20
146
0.0
 13
0.0
 23
0.0
 33
0.0
 16
1.0
 26
0.0
 36
0.0
 17
0.0
 27
1.0
 37
0.0
 76
     0
330
1B
  0
LAYOUT
  5
26
102
{ACAD_REACTORS
330
1A
102
}
330
1A
100
AcDbPlotSettings
  1

  2
\\KTXNTBDC\CASF2PN1
  4

  6

 40
0.0
 41
0.0
 42
0.0
 43
0.0
 44
0.0
 45
0.0
 46
0.0
 47
0.0
 48
0.0
 49
0.0
140
0.0
141
0.0
142
1.0
143
1.0
 70
   688
 72
     0
 73
     0
 74
     5
  7

 75
    16
147
1.0
 76
     0
 77
     2
 78
   300
148
0.0
149
0.0
100
AcDbLayout
  1
Layout2
 70
     1
 71
     2
 10
0.0
 20
0.0
 11
12.0
 21
9.0
 12
0.0
 22
0.0
 32
0.0
 14
0.0
 24
0.0
 34
0.0
 15
0.0
 25
0.0
 35
0.0
146
0.0
 13
0.0
 23
0.0
 33
0.0
 16
1.0
 26
0.0
 36
0.0
 17
0.0
 27
1.0
 37
0.0
 76
     0
330
23
  0
LAYOUT
  5
22
102
{ACAD_REACTORS
330
1A
102
}
330
1A
100
AcDbPlotSettings
  1

  2
\\KTXNTBDC\CASF2PN1
  4

  6

 40
0.0
 41
0.0
 42
0.0
 43
0.0
 44
0.0
 45
0.0
 46
0.0
 47
0.0
 48
0.0
 49
0.0
140
0.0
141
0.0
142
1.0
143
1.0
 70
  1712
 72
     0
 73
     0
 74
     0
  7

 75
     0
147
1.0
 76
     0
 77
     2
 78
   300
148
0.0
149
0.0
100
AcDbLayout
  1
Model
 70
     1
 71
     0
 10
0.0
 20
0.0
 11
12.0
 21
9.0
 12
0.0
 22
0.0
 32
0.0
 14
0.0
 24
0.0
 34
0.0
 15
0.0
 25
0.0
 35
0.0
146
0.0
 13
0.0
 23
0.0
 33
0.0
 16
1.0
 26
0.0
 36
0.0
 17
0.0
 27
1.0
 37
0.0
 76
     0
330
1F
  0
MATERIAL
  5
B3
102
{ACAD_XDICTIONARY
360
B4
102
}
102
{ACAD_REACTORS
330
AA
102
}
330
AA
100
AcDbMaterial
  1
ByBlock
 72
     0
 43
0.0208333333333333
 43
0.0
 43
0.0
 43
0.0
 43
0.0
 43
0.0208333333333333
 43
0.0
 43
0.0
 43
0.0
 43
0.0
 43
1.0
 43
0.0
 43
0.0
 43
0.0
 43
0.0
 43
1.0
 77
     0
 47
0.0208333333333333
 47
0.0
 47
0.0
 47
0.0
 47
0.0
 47
0.0208333333333333
 47
0.0
 47
0.0
 47
0.0
 47
0.0
 47
1.0
 47
0.0
 47
0.0
 47
0.0
 47
0.0
 47
1.0
171
     0
 49
0.0208333333333333
 49
0.0
 49
0.0
 49
0.0
 49
0.0
 49
0.0208333333333333
 49
0.0
 49
0.0
 49
0.0
 49
0.0
 49
1.0
 49
0.0
 49
0.0
 49
0.0
 49
0.0
 49
1.0
175
     0
142
0.0208333333333333
142
0.0
142
0.0
142
0.0
142
0.0
142
0.0208333333333333
142
0.0
142
0.0
142
0.0
142
0.0
142
1.0
142
0.0
142
0.0
142
0.0
142
0.0
142
1.0
179
     0
144
0.0208333333333333
144
0.0
144
0.0
144
0.0
144
0.0
144
0.0208333333333333
144
0.0
144
0.0
144
0.0
144
0.0
144
1.0
144
0.0
144
0.0
144
0.0
144
0.0
144
1.0
147
0.0208333333333333
147
0.0
147
0.0
147
0.0
147
0.0
147
0.0208333333333333
147
0.0
147
0.0
147
0.0
147
0.0
147
1.0
147
0.0
147
0.0
147
0.0
147
0.0
147
1.0
  0
MATERIAL
  5
AB
102
{ACAD_XDICTIONARY
360
AC
102
}
102
{ACAD_REACTORS
330
AA
102
}
330
AA
100
AcDbMaterial
  1
ByLayer
 72
     0
 43
0.0208333333333333
 43
0.0
 43
0.0
 43
0.0
 43
0.0
 43
0.0208333333333333
 43
0.0
 43
0.0
 43
0.0
 43
0.0
 43
1.0
 43
0.0
 43
0.0
 43
0.0
 43
0.0
 43
1.0
 77
     0
 47
0.0208333333333333
 47
0.0
 47
0.0
 47
0.0
 47
0.0
 47
0.0208333333333333
 47
0.0
 47
0.0
 47
0.0
 47
0.0
 47
1.0
 47
0.0
 47
0.0
 47
0.0
 47
0.0
 47
1.0
171
     0
 49
0.0208333333333333
 49
0.0
 49
0.0
 49
0.0
 49
0.0
 49
0.0208333333333333
 49
0.0
 49
0.0
 49
0.0
 49
0.0
 49
1.0
 49
0.0
 49
0.0
 49
0.0
 49
0.0
 49
1.0
175
     0
142
0.0208333333333333
142
0.0
142
0.0
142
0.0
142
0.0
142
0.0208333333333333
142
0.0
142
0.0
142
0.0
142
0.0
142
1.0
142
0.0
142
0.0
142
0.0
142
0.0
142
1.0
179
     0
144
0.0208333333333333
144
0.0
144
0.0
144
0.0
144
0.0
144
0.0208333333333333
144
0.0
144
0.0
144
0.0
144
0.0
144
1.0
144
0.0
144
0.0
144
0.0
144
0.0
144
1.0
147
0.0208333333333333
147
0.0
147
0.0
147
0.0
147
0.0
147
0.0208333333333333
147
0.0
147
0.0
147
0.0
147
0.0
147
1.0
147
0.0
147
0.0
147
0.0
147
0.0
147
1.0
  0
MATERIAL
  5
BB
102
{ACAD_XDICTIONARY
360
BC
102
}
102
{ACAD_REACTORS
330
AA
102
}
330
AA
100
AcDbMaterial
  1
Global
 72
     0
 43
0.0208333333333333
 43
0.0
 43
0.0
 43
0.0
 43
0.0
 43
0.0208333333333333
 43
0.0
 43
0.0
 43
0.0
 43
0.0
 43
1.0
 43
0.0
 43
0.0
 43
0.0
 43
0.0
 43
1.0
 77
     0
 47
0.0208333333333333
 47
0.0
 47
0.0
 47
0.0
 47
0.0
 47
0.0208333333333333
 47
0.0
 47
0.0
 47
0.0
 47
0.0
 47
1.0
 47
0.0
 47
0.0
 47
0.0
 47
0.0
 47
1.0
171
     0
 49
0.0208333333333333
 49
0.0
 49
0.0
 49
0.0
 49
0.0
 49
0.0208333333333333
 49
0.0
 49
0.0
 49
0.0
 49
0.0
 49
1.0
 49
0.0
 49
0.0
 49
0.0
 49
0.0
 49
1.0
175
     0
142
0.0208333333333333
142
0.0
142
0.0
142
0.0
142
0.0
142
0.0208333333333333
142
0.0
142
0.0
142
0.0
142
0.0
142
1.0
142
0.0
142
0.0
142
0.0
142
0.0
142
1.0
179
     0
144
0.0208333333333333
144
0.0
144
0.0
144
0.0
144
0.0
144
0.0208333333333333
144
0.0
144
0.0
144
0.0
144
0.0
144
1.0
144
0.0
144
0.0
144
0.0
144
0.0
144
1.0
147
0.0208333333333333
147
0.0
147
0.0
147
0.0
147
0.0
147
0.0208333333333333
147
0.0
147
0.0
147
0.0
147
0.0
147
1.0
147
0.0
147
0.0
147
0.0
147
0.0
147
1.0
  0
MLEADERSTYLE
  5
F2
102
{ACAD_XDICTIONARY
360
19B
102
}
102
{ACAD_REACTORS
330
F1
102
}
330
F1
100
AcDbMLeaderStyle
179
     2
170
     2
171
     1
172
     0
 90
        2
 40
0.0
 41
0.0
173
     1
 91
-1056964608
340
14
 92
       -2
290
     1
 42
0.09
291
     1
 43
0.36
  3
Standard
 44
0.18
300

342
11
174
     1
178
     6
175
     1
176
     0
 93
-1056964608
 45
0.18
292
     0
297
     0
 46
0.18
 94
-1056964608
 47
1.0
 49
1.0
140
1.0
293
     1
141
0.0
294
     1
177
     0
142
1.0
295
     0
296
     0
143
0.125
271
     0
272
     9
273
     9
  0
MLINESTYLE
  5
18
102
{ACAD_REACTORS
330
17
102
}
330
17
100
AcDbMlineStyle
  2
STANDARD
 70
     0
  3

 62
   256
 51
90.0
 52
90.0
 71
     2
 49
0.5
 62
   256
  6
BYLAYER
 49
-0.5
 62
   256
  6
BYLAYER
  0
ACDBPLACEHOLDER
  5
2D
102
{ACAD_REACTORS
330
E
102
}
330
E
  0
ACDBPLACEHOLDER
  5
F
102
{ACAD_REACTORS
330
E
102
}
330
E
  0
SCALE
  5
E0
102
{ACAD_REACTORS
330
DF
102
}
330
DF
100
AcDbScale
 70
     0
300
1:1
140
1.0
141
1.0
290
     1
  0
SCALE
  5
E1
102
{ACAD_REACTORS
330
DF
102
}
330
DF
100
AcDbScale
 70
     0
300
1/128" = 1'-0"
140
0.0078125
141
12.0
290
     0
  0
SCALE
  5
E2
102
{ACAD_REACTORS
330
DF
102
}
330
DF
100
AcDbScale
 70
     0
300
1/64" = 1'-0"
140
0.015625
141
12.0
290
     0
  0
SCALE
  5
E3
102
{ACAD_REACTORS
330
DF
102
}
330
DF
100
AcDbScale
 70
     0
300
1/32" = 1'-0"
140
0.03125
141
12.0
290
     0
  0
SCALE
  5
E4
102
{ACAD_REACTORS
330
DF
102
}
330
DF
100
AcDbScale
 70
     0
300
1/16" = 1'-0"
140
0.0625
141
12.0
290
     0
  0
SCALE
  5
E5
102
{ACAD_REACTORS
330
DF
102
}
330
DF
100
AcDbScale
 70
     0
300
3/32" = 1'-0"
140
0.09375
141
12.0
290
     0
  0
SCALE
  5
E6
102
{ACAD_REACTORS
330
DF
102
}
330
DF
100
AcDbScale
 70
     0
300
1/8" = 1'-0"
140
0.125
141
12.0
290
     0
  0
SCALE
  5
E7
102
{ACAD_REACTORS
330
DF
102
}
330
DF
100
AcDbScale
 70
     0
300
3/16" = 1'-0"
140
0.1875
141
12.0
290
     0
  0
SCALE
  5
E8
102
{ACAD_REACTORS
330
DF
102
}
330
DF
100
AcDbScale
 70
     0
300
1/4" = 1'-0"
140
0.25
141
12.0
290
     0
  0
SCALE
  5
E9
102
{ACAD_REACTORS
330
DF
102
}
330
DF
100
AcDbScale
 70
     0
300
3/8" = 1'-0"
140
0.375
141
12.0
290
     0
  0
SCALE
  5
EA
102
{ACAD_REACTORS
330
DF
102
}
330
DF
100
AcDbScale
 70
     0
300
1/2" = 1'-0"
140
0.5
141
12.0
290
     0
  0
SCALE
  5
EB
102
{ACAD_REACTORS
330
DF
102
}
330
DF
100
AcDbScale
 70
     0
300
3/4" = 1'-0"
140
0.75
141
12.0
290
     0
  0
SCALE
  5
EC
102
{ACAD_REACTORS
330
DF
102
}
330
DF
100
AcDbScale
 70
     0
300
1" = 1'-0"
140
1.0
141
12.0
290
     0
  0
SCALE
  5
ED
102
{ACAD_REACTORS
330
DF
102
}
330
DF
100
AcDbScale
 70
     0
300
1-1/2" = 1'-0"
140
1.5
141
12.0
290
     0
  0
SCALE
  5
EE
102
{ACAD_REACTORS
330
DF
102
}
330
DF
100
AcDbScale
 70
     0
300
3" = 1'-0"
140
3.0
141
12.0
290
     0
  0
SCALE
  5
EF
102
{ACAD_REACTORS
330
DF
102
}
330
DF
100
AcDbScale
 70
     0
300
6" = 1'-0"
140
6.0
141
12.0
290
     0
  0
SCALE
  5
F0
102
{ACAD_REACTORS
330
DF
102
}
330
DF
100
AcDbScale
 70
     0
300
1'-0" = 1'-0"
140
12.0
141
12.0
290
     0
  0
ACDBSECTIONVIEWSTYLE
  5
F4
102
{ACAD_XDICTIONARY
360
19D
102
}
102
{ACAD_REACTORS
330
F3
102
}
330
F3
100
AcDbModelDocViewStyle
 70
     0
  3
Imperial24
290
     0
100
AcDbSectionViewStyle
 70
     0
 71
     0
 90
       78
 71
     1
340
11
 62
   256
 40
0.24
340
0
340
0
 62
   256
 40
0.24
300
I, O, Q, S, X, Z
 40
0.48
 90
        3
 40
0.18
 90
        1
 71
     2
340
16
 90
       25
 62
   256
340
16
 90
       50
 62
   256
 40
0.24
 40
0.0
 40
0.24
 71
     3
340
11
 62
   256
 40
0.24
 90
        1
 40
0.75
 90
        1
300
%<\AcVar ViewType \f "%tc1">% %<\AcVar ViewSectionStartId>%-%<\AcVar ViewSectionEndId>%\PSCALE %<\AcVar ViewScale \f "%sn">%
 71
     4
 62
   256
 62
   257
300
ANSI31
 40
1.0
 90
        0
290
     0
290
     0
 90
        6
 40
0.0
 40
1.570796326794896
 40
0.2617993877991494
 40
1.308996938995747
 40
-0.2617993877991494
 40
1.832595714594046
  0
TABLESTYLE
  5
DE
102
{ACAD_XDICTIONARY
360
168
102
}
102
{ACAD_REACTORS
330
DD
102
}
330
DD
100
AcDbTableStyle
280
     0
  3
Standard
 70
     0
 71
     0
 40
0.06
 41
0.06
280
     0
281
     0
  7
Standard
140
0.18
170
     2
 62
     0
 63
     7
283
     0
 90
      512
 91
        0
  1

274
    -2
284
     1
 64
     0
275
    -2
285
     1
 65
     0
276
    -2
286
     1
 66
     0
277
    -2
287
     1
 67
     0
278
    -2
288
     1
 68
     0
279
    -2
289
     1
 69
     0
  7
Standard
140
0.25
170
     5
 62
     0
 63
     7
283
     0
 90
      512
 91
        0
  1

274
    -2
284
     1
 64
     0
275
    -2
285
     1
 65
     0
276
    -2
286
     1
 66
     0
277
    -2
287
     1
 67
     0
278
    -2
288
     1
 68
     0
279
    -2
289
     1
 69
     0
  7
Standard
140
0.18
170
     5
 62
     0
 63
     7
283
     0
 90
      512
 91
        0
  1

274
    -2
284
     1
 64
     0
275
    -2
285
     1
 65
     0
276
    -2
286
     1
 66
     0
277
    -2
287
     1
 67
     0
278
    -2
288
     1
 68
     0
279
    -2
289
     1
 69
     0
  0
VISUALSTYLE
  5
C9
102
{ACAD_XDICTIONARY
360
175
102
}
102
{ACAD_REACTORS
330
C3
102
}
330
C3
100
AcDbVisualStyle
  2
2dWireframe
 70
     4
177
     2
291
     0
 71
     0
176
     1
 72
     2
176
     1
 73
     0
176
     1
 90
        0
176
     1
 40
0.6
176
     1
 41
30.0
176
     1
 63
     7
421
 16777215
176
     1
 74
     1
176
     1
 91
        4
176
     1
 64
     7
176
     1
 65
   257
176
     1
 75
     1
176
     1
175
     1
176
     1
 42
1.0
176
     1
 92
        0
176
     1
 66
   257
176
     1
 43
1.0
176
     1
 76
     1
176
     1
 77
     6
176
     1
 78
     2
176
     1
 67
     7
176
     1
 79
     5
176
     1
170
     0
176
     1
171
     0
176
     1
290
     0
176
     1
 93
        1
176
     1
 44
0.0
176
     1
173
     0
176
     1
1001
ACAD
1000
AcDbSavedByObjectVersion
1070
     0
  0
VISUALSTYLE
  5
C8
102
{ACAD_XDICTIONARY
360
173
102
}
102
{ACAD_REACTORS
330
C3
102
}
330
C3
100
AcDbVisualStyle
  2
Basic
 70
     7
177
     2
291
     1
 71
     1
176
     1
 72
     0
176
     1
 73
     1
176
     1
 90
        0
176
     1
 40
0.6
176
     1
 41
30.0
176
     1
 63
     7
421
 16777215
176
     1
 74
     0
176
     1
 91
        4
176
     1
 64
     7
176
     1
 65
   257
176
     1
 75
     1
176
     1
175
     1
176
     1
 42
1.0
176
     1
 92
        8
176
     1
 66
     7
176
     1
 43
1.0
176
     1
 76
     1
176
     1
 77
     6
176
     1
 78
     2
176
     1
 67
     7
176
     1
 79
     5
176
     1
170
     0
176
     1
171
     0
176
     1
290
     0
176
     1
 93
        1
176
     1
 44
0.0
176
     1
173
     0
176
     1
1001
ACAD
1000
AcDbSavedByObjectVersion
1070
     0
  0
VISUALSTYLE
  5
CF
102
{ACAD_XDICTIONARY
360
181
102
}
102
{ACAD_REACTORS
330
C3
102
}
330
C3
100
AcDbVisualStyle
  2
Brighten
 70
    12
177
     2
291
     1
 71
     2
176
     1
 72
     2
176
     1
 73
     0
176
     1
 90
        0
176
     1
 40
0.6
176
     1
 41
30.0
176
     1
 63
     7
421
 16777215
176
     1
 74
     1
176
     1
 91
        4
176
     1
 64
     7
176
     1
 65
   257
176
     1
 75
     1
176
     1
175
     1
176
     1
 42
1.0
176
     1
 92
        8
176
     1
 66
     7
176
     1
 43
1.0
176
     1
 76
     1
176
     1
 77
     6
176
     1
 78
     2
176
     1
 67
     7
176
     1
 79
     5
176
     1
170
     0
176
     1
171
     0
176
     1
290
     0
176
     1
 93
        1
176
     1
 44
50.0
176
     1
173
     0
176
     1
1001
ACAD
1000
AcDbSavedByObjectVersion
1070
     0
  0
VISUALSTYLE
  5
D3
102
{ACAD_XDICTIONARY
360
189
102
}
102
{ACAD_REACTORS
330
C3
102
}
330
C3
100
AcDbVisualStyle
  2
ColorChange
 70
    16
177
     2
291
     1
 71
     2
176
     1
 72
     2
176
     1
 73
     3
176
     1
 90
        0
176
     1
 40
0.6
176
     1
 41
30.0
176
     1
 63
     8
421
  8421504
176
     1
 74
     1
176
     1
 91
        4
176
     1
 64
     7
176
     1
 65
   257
176
     1
 75
     1
176
     1
175
     1
176
     1
 42
1.0
176
     1
 92
        8
176
     1
 66
     8
424
  8421504
176
     1
 43
1.0
176
     1
 76
     1
176
     1
 77
     6
176
     1
 78
     2
176
     1
 67
     7
176
     1
 79
     5
176
     1
170
     0
176
     1
171
     0
176
     1
290
     0
176
     1
 93
        1
176
     1
 44
0.0
176
     1
173
     0
176
     1
1001
ACAD
1000
AcDbSavedByObjectVersion
1070
     0
  0
VISUALSTYLE
  5
CC
102
{ACAD_XDICTIONARY
360
17B
102
}
102
{ACAD_REACTORS
330
C3
102
}
330
C3
100
AcDbVisualStyle
  2
Conceptual
 70
     9
177
     2
291
     0
 71
     3
176
     1
 72
     2
176
     1
 73
     0
176
     1
 90
        0
176
     1
 40
0.6
176
     1
 41
30.0
176
     1
 63
     7
421
 16777215
176
     1
 74
     2
176
     1
 91
        2
176
     1
 64
     7
176
     1
 65
   257
176
     1
 75
     1
176
     1
175
     1
176
     1
 42
179.0
176
     1
 92
        8
176
     1
 66
     7
176
     1
 43
1.0
176
     1
 76
     1
176
     1
 77
     6
176
     1
 78
     2
176
     1
 67
     7
176
     1
 79
     3
176
     1
170
     0
176
     1
171
     0
176
     1
290
     0
176
     1
 93
        1
176
     1
 44
0.0
176
     1
173
     0
176
     1
1001
ACAD
1000
AcDbSavedByObjectVersion
1070
     0
  0
VISUALSTYLE
  5
CE
102
{ACAD_XDICTIONARY
360
17F
102
}
102
{ACAD_REACTORS
330
C3
102
}
330
C3
100
AcDbVisualStyle
  2
Dim
 70
    11
177
     2
291
     1
 71
     2
176
     1
 72
     2
176
     1
 73
     0
176
     1
 90
        0
176
     1
 40
0.6
176
     1
 41
30.0
176
     1
 63
     7
421
 16777215
176
     1
 74
     1
176
     1
 91
        4
176
     1
 64
     7
176
     1
 65
   257
176
     1
 75
     1
176
     1
175
     1
176
     1
 42
1.0
176
     1
 92
        8
176
     1
 66
     7
176
     1
 43
1.0
176
     1
 76
     1
176
     1
 77
     6
176
     1
 78
     2
176
     1
 67
     7
176
     1
 79
     5
176
     1
170
     0
176
     1
171
     0
176
     1
290
     0
176
     1
 93
        1
176
     1
 44
-50.0
176
     1
173
     0
176
     1
1001
ACAD
1000
AcDbSavedByObjectVersion
1070
     0
  0
VISUALSTYLE
  5
DB
102
{ACAD_XDICTIONARY
360
199
102
}
102
{ACAD_REACTORS
330
C3
102
}
330
C3
100
AcDbVisualStyle
  2
EdgeColorOff
 70
    22
177
     2
291
     1
 71
     2
176
     0
 72
     2
176
     0
 73
     0
176
     0
 90
        0
176
     0
 40
0.6
176
     0
 41
30.0
176
     0
 63
     7
421
 16777215
176
     0
 74
     1
176
     0
 91
        4
176
     0
 64
     7
176
     0
 65
   257
176
     0
 75
     1
176
     0
175
     1
176
     0
 42
1.0
176
     0
 92
        8
176
     2
 66
     7
176
     0
 43
1.0
176
     0
 76
     1
176
     0
 77
     6
176
     0
 78
     2
176
     0
 67
     7
176
     0
 79
     5
176
     0
170
     0
176
     0
171
     0
176
     0
290
     0
176
     0
 93
        1
176
     0
 44
0.0
176
     0
173
     0
176
     0
1001
ACAD
1000
AcDbSavedByObjectVersion
1070
     0
  0
VISUALSTYLE
  5
D2
102
{ACAD_XDICTIONARY
360
187
102
}
102
{ACAD_REACTORS
330
C3
102
}
330
C3
100
AcDbVisualStyle
  2
Facepattern
 70
    15
177
     2
291
     1
 71
     2
176
     1
 72
     2
176
     1
 73
     0
176
     1
 90
        0
176
     1
 40
0.6
176
     1
 41
30.0
176
     1
 63
     7
421
 16777215
176
     1
 74
     1
176
     1
 91
        4
176
     1
 64
     7
176
     1
 65
   257
176
     1
 75
     1
176
     1
175
     1
176
     1
 42
1.0
176
     1
 92
        8
176
     1
 66
     7
176
     1
 43
1.0
176
     1
 76
     1
176
     1
 77
     6
176
     1
 78
     2
176
     1
 67
     7
176
     1
 79
     5
176
     1
170
     0
176
     1
171
     0
176
     1
290
     0
176
     1
 93
        1
176
     1
 44
0.0
176
     1
173
     0
176
     1
1001
ACAD
1000
AcDbSavedByObjectVersion
1070
     0
  0
VISUALSTYLE
  5
C4
102
{ACAD_XDICTIONARY
360
16B
102
}
102
{ACAD_REACTORS
330
C3
102
}
330
C3
100
AcDbVisualStyle
  2
Flat
 70
     0
177
     2
291
     1
 71
     2
176
     1
 72
     1
176
     1
 73
     1
176
     1
 90
        2
176
     1
 40
0.6
176
     1
 41
30.0
176
     1
 63
     7
421
 16777215
176
     1
 74
     0
176
     1
 91
        0
176
     1
 64
     7
176
     1
 65
   257
176
     1
 75
     1
176
     1
175
     1
176
     1
 42
1.0
176
     1
 92
        8
176
     1
 66
     7
176
     1
 43
1.0
176
     1
 76
     1
176
     1
 77
     6
176
     1
 78
     2
176
     1
 67
     7
176
     1
 79
     5
176
     1
170
     0
176
     1
171
     0
176
     1
290
     0
176
     1
 93
       13
176
     1
 44
0.0
176
     1
173
     0
176
     1
1001
ACAD
1000
AcDbSavedByObjectVersion
1070
     0
  0
VISUALSTYLE
  5
C5
102
{ACAD_XDICTIONARY
360
16D
102
}
102
{ACAD_REACTORS
330
C3
102
}
330
C3
100
AcDbVisualStyle
  2
FlatWithEdges
 70
     1
177
     2
291
     1
 71
     2
176
     1
 72
     1
176
     1
 73
     1
176
     1
 90
        2
176
     1
 40
0.6
176
     1
 41
30.0
176
     1
 63
     7
421
 16777215
176
     1
 74
     1
176
     1
 91
        0
176
     1
 64
     7
176
     1
 65
   257
176
     1
 75
     1
176
     1
175
     1
176
     1
 42
1.0
176
     1
 92
        0
176
     1
 66
   257
176
     1
 43
1.0
176
     1
 76
     1
176
     1
 77
     6
176
     1
 78
     2
176
     1
 67
     7
176
     1
 79
     5
176
     1
170
     0
176
     1
171
     0
176
     1
290
     0
176
     1
 93
       13
176
     1
 44
0.0
176
     1
173
     0
176
     1
1001
ACAD
1000
AcDbSavedByObjectVersion
1070
     0
  0
VISUALSTYLE
  5
C6
102
{ACAD_XDICTIONARY
360
16F
102
}
102
{ACAD_REACTORS
330
C3
102
}
330
C3
100
AcDbVisualStyle
  2
Gouraud
 70
     2
177
     2
291
     1
 71
     2
176
     1
 72
     2
176
     1
 73
     1
176
     1
 90
        2
176
     1
 40
0.6
176
     1
 41
30.0
176
     1
 63
     7
421
 16777215
176
     1
 74
     0
176
     1
 91
        0
176
     1
 64
     7
176
     1
 65
   257
176
     1
 75
     1
176
     1
175
     1
176
     1
 42
1.0
176
     1
 92
        0
176
     1
 66
     7
176
     1
 43
1.0
176
     1
 76
     1
176
     1
 77
     6
176
     1
 78
     2
176
     1
 67
     7
176
     1
 79
     5
176
     1
170
     0
176
     1
171
     0
176
     1
290
     0
176
     1
 93
       13
176
     1
 44
0.0
176
     1
173
     0
176
     1
1001
ACAD
1000
AcDbSavedByObjectVersion
1070
     0
  0
VISUALSTYLE
  5
C7
102
{ACAD_XDICTIONARY
360
171
102
}
102
{ACAD_REACTORS
330
C3
102
}
330
C3
100
AcDbVisualStyle
  2
GouraudWithEdges
 70
     3
177
     2
291
     1
 71
     2
176
     1
 72
     2
176
     1
 73
     1
176
     1
 90
        2
176
     1
 40
0.6
176
     1
 41
30.0
176
     1
 63
     7
421
 16777215
176
     1
 74
     1
176
     1
 91
        0
176
     1
 64
     7
176
     1
 65
   257
176
     1
 75
     1
176
     1
175
     1
176
     1
 42
1.0
176
     1
 92
        0
176
     1
 66
   257
176
     1
 43
1.0
176
     1
 76
     1
176
     1
 77
     6
176
     1
 78
     2
176
     1
 67
     7
176
     1
 79
     5
176
     1
170
     0
176
     1
171
     0
176
     1
290
     0
176
     1
 93
       13
176
     1
 44
0.0
176
     1
173
     0
176
     1
1001
ACAD
1000
AcDbSavedByObjectVersion
1070
     0
  0
VISUALSTYLE
  5
CB
102
{ACAD_XDICTIONARY
360
179
102
}
102
{ACAD_REACTORS
330
C3
102
}
330
C3
100
AcDbVisualStyle
  2
Hidden
 70
     6
177
     2
291
     0
 71
     1
176
     1
 72
     2
176
     1
 73
     2
176
     1
 90
        0
176
     1
 40
0.6
176
     1
 41
30.0
176
     1
 63
     7
421
 16777215
176
     1
 74
     2
176
     1
 91
        2
176
     1
 64
     7
176
     1
 65
   257
176
     1
 75
     2
176
     1
175
     1
176
     1
 42
40.0
176
     1
 92
        0
176
     1
 66
   257
176
     1
 43
1.0
176
     1
 76
     1
176
     1
 77
     6
176
     1
 78
     2
176
     1
 67
     7
176
     1
 79
     3
176
     1
170
     0
176
     1
171
     0
176
     1
290
     0
176
     1
 93
        1
176
     1
 44
0.0
176
     1
173
     0
176
     1
1001
ACAD
1000
AcDbSavedByObjectVersion
1070
     0
  0
VISUALSTYLE
  5
D9
102
{ACAD_XDICTIONARY
360
195
102
}
102
{ACAD_REACTORS
330
C3
102
}
330
C3
100
AcDbVisualStyle
  2
JitterOff
 70
    20
177
     2
291
     1
 71
     2
176
     0
 72
     2
176
     0
 73
     0
176
     0
 90
        0
176
     0
 40
0.6
176
     0
 41
30.0
176
     0
 63
     7
421
 16777215
176
     0
 74
     1
176
     0
 91
        4
176
     0
 64
     7
176
     0
 65
   257
176
     0
 75
     1
176
     0
175
     1
176
     0
 42
1.0
176
     0
 92
       10
176
     2
 66
     7
176
     0
 43
1.0
176
     0
 76
     1
176
     0
 77
     6
176
     0
 78
     2
176
     0
 67
     7
176
     0
 79
     5
176
     0
170
     0
176
     0
171
     0
176
     0
290
     0
176
     0
 93
        1
176
     0
 44
0.0
176
     0
173
     0
176
     0
1001
ACAD
1000
AcDbSavedByObjectVersion
1070
     0
  0
VISUALSTYLE
  5
D1
102
{ACAD_XDICTIONARY
360
185
102
}
102
{ACAD_REACTORS
330
C3
102
}
330
C3
100
AcDbVisualStyle
  2
Linepattern
 70
    14
177
     2
291
     1
 71
     2
176
     1
 72
     2
176
     1
 73
     0
176
     1
 90
        0
176
     1
 40
0.6
176
     1
 41
30.0
176
     1
 63
     7
421
 16777215
176
     1
 74
     1
176
     1
 91
        4
176
     1
 64
     7
176
     1
 65
   257
176
     1
 75
     7
176
     1
175
     7
176
     1
 42
1.0
176
     1
 92
        8
176
     1
 66
     7
176
     1
 43
1.0
176
     1
 76
     1
176
     1
 77
     6
176
     1
 78
     2
176
     1
 67
     7
176
     1
 79
     5
176
     1
170
     0
176
     1
171
     0
176
     1
290
     0
176
     1
 93
        1
176
     1
 44
0.0
176
     1
173
     0
176
     1
1001
ACAD
1000
AcDbSavedByObjectVersion
1070
     0
  0
VISUALSTYLE
  5
DA
102
{ACAD_XDICTIONARY
360
197
102
}
102
{ACAD_REACTORS
330
C3
102
}
330
C3
100
AcDbVisualStyle
  2
OverhangOff
 70
    21
177
     2
291
     1
 71
     2
176
     0
 72
     2
176
     0
 73
     0
176
     0
 90
        0
176
     0
 40
0.6
176
     0
 41
30.0
176
     0
 63
     7
421
 16777215
176
     0
 74
     1
176
     0
 91
        4
176
     0
 64
     7
176
     0
 65
   257
176
     0
 75
     1
176
     0
175
     1
176
     0
 42
1.0
176
     0
 92
        9
176
     2
 66
     7
176
     0
 43
1.0
176
     0
 76
     1
176
     0
 77
     6
176
     0
 78
     2
176
     0
 67
     7
176
     0
 79
     5
176
     0
170
     0
176
     0
171
     0
176
     0
290
     0
176
     0
 93
        1
176
     0
 44
0.0
176
     0
173
     0
176
     0
1001
ACAD
1000
AcDbSavedByObjectVersion
1070
     0
  0
VISUALSTYLE
  5
CD
102
{ACAD_XDICTIONARY
360
17D
102
}
102
{ACAD_REACTORS
330
C3
102
}
330
C3
100
AcDbVisualStyle
  2
Realistic
 70
     8
177
     2
291
     0
 71
     2
176
     1
 72
     3
176
     1
 73
     0
176
     1
 90
        2
176
     1
 40
0.6
176
     1
 41
30.0
176
     1
 63
     7
421
 16777215
176
     1
 74
     0
176
     1
 91
        0
176
     1
 64
     7
176
     1
 65
   257
176
     1
 75
     1
176
     1
175
     1
176
     1
 42
1.0
176
     1
 92
        8
176
     1
 66
   257
176
     1
 43
1.0
176
     1
 76
     1
176
     1
 77
     6
176
     1
 78
     2
176
     1
 67
     7
176
     1
 79
     3
176
     1
170
     0
176
     1
171
     0
176
     1
290
     0
176
     1
 93
       13
176
     1
 44
0.0
176
     1
173
     0
176
     1
1001
ACAD
1000
AcDbSavedByObjectVersion
1070
     0
  0
VISUALSTYLE
  5
D8
102
{ACAD_XDICTIONARY
360
193
102
}
102
{ACAD_REACTORS
330
C3
102
}
330
C3
100
AcDbVisualStyle
  2
Shaded
 70
    27
177
     2
291
     0
 71
     2
176
     1
 72
     2
176
     1
 73
     1
176
     1
 90
        2
176
     1
 40
0.6
176
     1
 41
30.0
176
     1
 63
     7
421
 16777215
176
     1
 74
     0
176
     1
 91
        4
176
     1
 64
     7
176
     1
 65
   257
176
     1
 75
     1
176
     1
175
     1
176
     1
 42
1.0
176
     1
 92
        8
176
     1
 66
   257
176
     1
 43
1.0
176
     1
 76
     1
176
     1
 77
     6
176
     1
 78
     2
176
     1
 67
     8
425
  7895160
176
     1
 79
     3
176
     1
170
     0
176
     1
171
     0
176
     1
290
     0
176
     1
 93
        5
176
     1
 44
0.0
176
     1
173
     0
176
     1
1001
ACAD
1000
AcDbSavedByObjectVersion
1070
     0
  0
VISUALSTYLE
  5
D7
102
{ACAD_XDICTIONARY
360
191
102
}
102
{ACAD_REACTORS
330
C3
102
}
330
C3
100
AcDbVisualStyle
  2
Shaded with edges
 70
    26
177
     2
291
     0
 71
     2
176
     1
 72
     2
176
     1
 73
     1
176
     1
 90
        2
176
     1
 40
0.6
176
     1
 41
30.0
176
     1
 63
     7
421
 16777215
176
     1
 74
     1
176
     1
 91
       10
176
     1
 64
     7
176
     1
 65
   257
176
     1
 75
     2
176
     1
175
     1
176
     1
 42
1.0
176
     1
 92
        8
176
     1
 66
   257
176
     1
 43
1.0
176
     1
 76
     1
176
     1
 77
     6
176
     1
 78
     2
176
     1
 67
     7
176
     1
 79
     3
176
     1
170
     0
176
     1
171
     0
176
     1
290
     0
176
     1
 93
        5
176
     1
 44
0.0
176
     1
173
     0
176
     1
1001
ACAD
1000
AcDbSavedByObjectVersion
1070
     0
  0
VISUALSTYLE
  5
D4
102
{ACAD_XDICTIONARY
360
18B
102
}
102
{ACAD_REACTORS
330
C3
102
}
330
C3
100
AcDbVisualStyle
  2
Shades of Gray
 70
    23
177
     2
291
     0
 71
     2
176
     1
 72
     2
176
     1
 73
     3
176
     1
 90
        0
176
     1
 40
0.6
176
     1
 41
30.0
176
     1
 63
     7
421
 16777215
176
     1
 74
     2
176
     1
 91
        2
176
     1
 64
     7
176
     1
 65
     7
176
     1
 75
     1
176
     1
175
     1
176
     1
 42
40.0
176
     1
 92
        8
176
     1
 66
     7
176
     1
 43
1.0
176
     1
 76
     1
176
     1
 77
     6
176
     1
 78
     2
176
     1
 67
     7
176
     1
 79
     3
176
     1
170
     0
176
     1
171
     0
176
     1
290
     0
176
     1
 93
        1
176
     1
 44
0.0
176
     1
173
     0
176
     1
1001
ACAD
1000
AcDbSavedByObjectVersion
1070
     0
  0
VISUALSTYLE
  5
D5
102
{ACAD_XDICTIONARY
360
18D
102
}
102
{ACAD_REACTORS
330
C3
102
}
330
C3
100
AcDbVisualStyle
  2
Sketchy
 70
    24
177
     2
291
     0
 71
     1
176
     1
 72
     2
176
     1
 73
     2
176
     1
 90
        0
176
     1
 40
0.6
176
     1
 41
30.0
176
     1
 63
     7
421
 16777215
176
     1
 74
     2
176
     1
 91
        2
176
     1
 64
     7
176
     1
 65
     7
176
     1
 75
     1
176
     1
175
     1
176
     1
 42
40.0
176
     1
 92
       11
176
     1
 66
     7
176
     1
 43
1.0
176
     1
 76
     1
176
     1
 77
     6
176
     1
 78
     2
176
     1
 67
     7
176
     1
 79
     6
176
     1
170
     0
176
     1
171
     0
176
     1
290
     0
176
     1
 93
        1
176
     1
 44
0.0
176
     1
173
     0
176
     1
1001
ACAD
1000
AcDbSavedByObjectVersion
1070
     0
  0
VISUALSTYLE
  5
D0
102
{ACAD_XDICTIONARY
360
183
102
}
102
{ACAD_REACTORS
330
C3
102
}
330
C3
100
AcDbVisualStyle
  2
Thicken
 70
    13
177
     2
291
     1
 71
     2
176
     1
 72
     2
176
     1
 73
     0
176
     1
 90
        0
176
     1
 40
0.6
176
     1
 41
30.0
176
     1
 63
     7
421
 16777215
176
     1
 74
     1
176
     1
 91
        4
176
     1
 64
     7
176
     1
 65
   257
176
     1
 75
     1
176
     1
175
     1
176
     1
 42
1.0
176
     1
 92
       12
176
     1
 66
     7
176
     1
 43
1.0
176
     1
 76
     1
176
     1
 77
     6
176
     1
 78
     2
176
     1
 67
     7
176
     1
 79
     5
176
     1
170
     0
176
     1
171
     0
176
     1
290
     0
176
     1
 93
        1
176
     1
 44
0.0
176
     1
173
     0
176
     1
1001
ACAD
1000
AcDbSavedByObjectVersion
1070
     0
  0
VISUALSTYLE
  5
CA
102
{ACAD_XDICTIONARY
360
177
102
}
102
{ACAD_REACTORS
330
C3
102
}
330
C3
100
AcDbVisualStyle
  2
Wireframe
 70
     5
177
     2
291
     0
 71
     0
176
     1
 72
     2
176
     1
 73
     0
176
     1
 90
        0
176
     1
 40
0.6
176
     1
 41
30.0
176
     1
 63
     7
421
 16777215
176
     1
 74
     1
176
     1
 91
        4
176
     1
 64
     7
176
     1
 65
   257
176
     1
 75
     1
176
     1
175
     1
176
     1
 42
1.0
176
     1
 92
        0
176
     1
 66
   257
176
     1
 43
1.0
176
     1
 76
     1
176
     1
 77
     6
176
     1
 78
     2
176
     1
 67
     7
176
     1
 79
     3
176
     1
170
     0
176
     1
171
     0
176
     1
290
     0
176
     1
 93
        1
176
     1
 44
0.0
176
     1
173
     0
176
     1
1001
ACAD
1000
AcDbSavedByObjectVersion
1070
     0
  0
VISUALSTYLE
  5
D6
102
{ACAD_XDICTIONARY
360
18F
102
}
102
{ACAD_REACTORS
330
C3
102
}
330
C3
100
AcDbVisualStyle
  2
X-Ray
 70
    25
177
     2
291
     0
 71
     2
176
     1
 72
     2
176
     1
 73
     1
176
     1
 90
        1
176
     1
 40
0.5
176
     1
 41
30.0
176
     1
 63
     7
421
 16777215
176
     1
 74
     1
176
     1
 91
        0
176
     1
 64
     7
176
     1
 65
   257
176
     1
 75
     1
176
     1
175
     1
176
     1
 42
1.0
176
     1
 92
        8
176
     1
 66
     7
176
     1
 43
1.0
176
     1
 76
     1
176
     1
 77
     6
176
     1
 78
     2
176
     1
 67
     7
176
     1
 79
     3
176
     1
170
     0
176
     1
171
     0
176
     1
290
     0
176
     1
 93
       13
176
     1
 44
0.0
176
     1
173
     0
176
     1
1001
ACAD
1000
AcDbSavedByObjectVersion
1070
     0
  0
DICTIONARYVAR
  5
164
102
{ACAD_REACTORS
330
15E
102
}
330
15E
100
DictionaryVariables
280
     0
  1
1:1
  0
DICTIONARYVAR
  5
160
102
{ACAD_REACTORS
330
15E
102
}
330
15E
100
DictionaryVariables
280
     0
  1
STANDARD
  0
DICTIONARYVAR
  5
15F
102
{ACAD_REACTORS
330
15E
102
}
330
15E
100
DictionaryVariables
280
     0
  1
STANDARD
  0
DICTIONARYVAR
  5
161
102
{ACAD_REACTORS
330
15E
102
}
330
15E
100
DictionaryVariables
280
     0
  1
Imperial24
  0
DICTIONARYVAR
  5
162
102
{ACAD_REACTORS
330
15E
102
}
330
15E
100
DictionaryVariables
280
     0
  1
Imperial24
  0
DICTIONARYVAR
  5
166
102
{ACAD_REACTORS
330
15E
102
}
330
15E
100
DictionaryVariables
280
     0
  1
1
  0
DICTIONARYVAR
  5
167
102
{ACAD_REACTORS
330
15E
102
}
330
15E
100
DictionaryVariables
280
     0
  1
15
  0
DICTIONARYVAR
  5
165
102
{ACAD_REACTORS
330
15E
102
}
330
15E
100
DictionaryVariables
280
     0
  1
0
  0
DICTIONARYVAR
  5
163
102
{ACAD_REACTORS
330
15E
102
}
330
15E
100
DictionaryVariables
280
     0
  1
0
  0
DICTIONARY
  5
19F
330
F6
100
AcDbDictionary
280
     1
281
     1
  3
ACAD_XREC_ROUNDTRIP
360
1A0
  0
DICTIONARY
  5
B4
330
B3
100
AcDbDictionary
280
     1
281
     1
  3
BUMPTILE
360
B6
  3
DIFFUSETILE
360
B5
  3
OPACITYTILE
360
B9
  3
REFLECTIONTILE
360
B8
  3
REFRACTIONTILE
360
BA
  3
SPECULARTILE
360
B7
  0
DICTIONARY
  5
AC
330
AB
100
AcDbDictionary
280
     1
281
     1
  3
BUMPTILE
360
AE
  3
DIFFUSETILE
360
AD
  3
OPACITYTILE
360
B1
  3
REFLECTIONTILE
360
B0
  3
REFRACTIONTILE
360
B2
  3
SPECULARTILE
360
AF
  0
DICTIONARY
  5
BC
330
BB
100
AcDbDictionary
280
     1
281
     1
  3
BUMPTILE
360
BE
  3
DIFFUSETILE
360
BD
  3
OPACITYTILE
360
C1
  3
REFLECTIONTILE
360
C0
  3
REFRACTIONTILE
360
C2
  3
SPECULARTILE
360
BF
  0
DICTIONARY
  5
19B
330
F2
100
AcDbDictionary
280
     1
281
     1
  3
ACAD_XREC_ROUNDTRIP
360
19C
  0
DICTIONARY
  5
19D
330
F4
100
AcDbDictionary
280
     1
281
     1
  3
ACAD_XREC_ROUNDTRIP
360
19E
  0
DICTIONARY
  5
168
330
DE
100
AcDbDictionary
280
     1
281
     1
  3
ACAD_ROUNDTRIP_2008_TABLESTYLE_CELLSTYLEMAP
360
169
  0
DICTIONARY
  5
175
330
C9
100
AcDbDictionary
280
     1
281
     1
  3
ACAD_XREC_ROUNDTRIP
360
176
  0
DICTIONARY
  5
173
330
C8
100
AcDbDictionary
280
     1
281
     1
  3
ACAD_XREC_ROUNDTRIP
360
174
  0
DICTIONARY
  5
181
330
CF
100
AcDbDictionary
280
     1
281
     1
  3
ACAD_XREC_ROUNDTRIP
360
182
  0
DICTIONARY
  5
189
330
D3
100
AcDbDictionary
280
     1
281
     1
  3
ACAD_XREC_ROUNDTRIP
360
18A
  0
DICTIONARY
  5
17B
330
CC
100
AcDbDictionary
280
     1
281
     1
  3
ACAD_XREC_ROUNDTRIP
360
17C
  0
DICTIONARY
  5
17F
330
CE
100
AcDbDictionary
280
     1
281
     1
  3
ACAD_XREC_ROUNDTRIP
360
180
  0
DICTIONARY
  5
199
330
DB
100
AcDbDictionary
280
     1
281
     1
  3
ACAD_XREC_ROUNDTRIP
360
19A
  0
DICTIONARY
  5
187
330
D2
100
AcDbDictionary
280
     1
281
     1
  3
ACAD_XREC_ROUNDTRIP
360
188
  0
DICTIONARY
  5
16B
330
C4
100
AcDbDictionary
280
     1
281
     1
  3
ACAD_XREC_ROUNDTRIP
360
16C
  0
DICTIONARY
  5
16D
330
C5
100
AcDbDictionary
280
     1
281
     1
  3
ACAD_XREC_ROUNDTRIP
360
16E
  0
DICTIONARY
  5
16F
330
C6
100
AcDbDictionary
280
     1
281
     1
  3
ACAD_XREC_ROUNDTRIP
360
170
  0
DICTIONARY
  5
171
330
C7
100
AcDbDictionary
280
     1
281
     1
  3
ACAD_XREC_ROUNDTRIP
360
172
  0
DICTIONARY
  5
179
330
CB
100
AcDbDictionary
280
     1
281
     1
  3
ACAD_XREC_ROUNDTRIP
360
17A
  0
DICTIONARY
  5
195
330
D9
100
AcDbDictionary
280
     1
281
     1
  3
ACAD_XREC_ROUNDTRIP
360
196
  0
DICTIONARY
  5
185
330
D1
100
AcDbDictionary
280
     1
281
     1
  3
ACAD_XREC_ROUNDTRIP
360
186
  0
DICTIONARY
  5
197
330
DA
100
AcDbDictionary
280
     1
281
     1
  3
ACAD_XREC_ROUNDTRIP
360
198
  0
DICTIONARY
  5
17D
330
CD
100
AcDbDictionary
280
     1
281
     1
  3
ACAD_XREC_ROUNDTRIP
360
17E
  0
DICTIONARY
  5
193
330
D8
100
AcDbDictionary
280
     1
281
     1
  3
ACAD_XREC_ROUNDTRIP
360
194
  0
DICTIONARY
  5
191
330
D7
100
AcDbDictionary
280
     1
281
     1
  3
ACAD_XREC_ROUNDTRIP
360
192
  0
DICTIONARY
  5
18B
330
D4
100
AcDbDictionary
280
     1
281
     1
  3
ACAD_XREC_ROUNDTRIP
360
18C
  0
DICTIONARY
  5
18D
330
D5
100
AcDbDictionary
280
     1
281
     1
  3
ACAD_XREC_ROUNDTRIP
360
18E
  0
DICTIONARY
  5
183
330
D0
100
AcDbDictionary
280
     1
281
     1
  3
ACAD_XREC_ROUNDTRIP
360
184
  0
DICTIONARY
  5
177
330
CA
100
AcDbDictionary
280
     1
281
     1
  3
ACAD_XREC_ROUNDTRIP
360
178
  0
DICTIONARY
  5
18F
330
D6
100
AcDbDictionary
280
     1
281
     1
  3
ACAD_XREC_ROUNDTRIP
360
190
  0
XRECORD
  5
1A0
102
{ACAD_REACTORS
330
19F
102
}
330
19F
100
AcDbXrecord
280
     1
102
DISPLAYNAME
  1
Imperial24
102
FLAGS
 90
        0
  0
XRECORD
  5
B6
102
{ACAD_REACTORS
330
B4
102
}
330
B4
100
AcDbXrecord
280
     1
270
     1
271
     1
  0
XRECORD
  5
B5
102
{ACAD_REACTORS
330
B4
102
}
330
B4
100
AcDbXrecord
280
     1
270
     1
271
     1
  0
XRECORD
  5
B9
102
{ACAD_REACTORS
330
B4
102
}
330
B4
100
AcDbXrecord
280
     1
270
     1
271
     1
  0
XRECORD
  5
B8
102
{ACAD_REACTORS
330
B4
102
}
330
B4
100
AcDbXrecord
280
     1
270
     1
271
     1
  0
XRECORD
  5
BA
102
{ACAD_REACTORS
330
B4
102
}
330
B4
100
AcDbXrecord
280
     1
270
     1
271
     1
  0
XRECORD
  5
B7
102
{ACAD_REACTORS
330
B4
102
}
330
B4
100
AcDbXrecord
280
     1
270
     1
271
     1
  0
XRECORD
  5
AE
102
{ACAD_REACTORS
330
AC
102
}
330
AC
100
AcDbXrecord
280
     1
270
     1
271
     1
  0
XRECORD
  5
AD
102
{ACAD_REACTORS
330
AC
102
}
330
AC
100
AcDbXrecord
280
     1
270
     1
271
     1
  0
XRECORD
  5
B1
102
{ACAD_REACTORS
330
AC
102
}
330
AC
100
AcDbXrecord
280
     1
270
     1
271
     1
  0
XRECORD
  5
B0
102
{ACAD_REACTORS
330
AC
102
}
330
AC
100
AcDbXrecord
280
     1
270
     1
271
     1
  0
XRECORD
  5
B2
102
{ACAD_REACTORS
330
AC
102
}
330
AC
100
AcDbXrecord
280
     1
270
     1
271
     1
  0
XRECORD
  5
AF
102
{ACAD_REACTORS
330
AC
102
}
330
AC
100
AcDbXrecord
280
     1
270
     1
271
     1
  0
XRECORD
  5
BE
102
{ACAD_REACTORS
330
BC
102
}
330
BC
100
AcDbXrecord
280
     1
270
     1
271
     1
  0
XRECORD
  5
BD
102
{ACAD_REACTORS
330
BC
102
}
330
BC
100
AcDbXrecord
280
     1
270
     1
271
     1
  0
XRECORD
  5
C1
102
{ACAD_REACTORS
330
BC
102
}
330
BC
100
AcDbXrecord
280
     1
270
     1
271
     1
  0
XRECORD
  5
C0
102
{ACAD_REACTORS
330
BC
102
}
330
BC
100
AcDbXrecord
280
     1
270
     1
271
     1
  0
XRECORD
  5
C2
102
{ACAD_REACTORS
330
BC
102
}
330
BC
100
AcDbXrecord
280
     1
270
     1
271
     1
  0
XRECORD
  5
BF
102
{ACAD_REACTORS
330
BC
102
}
330
BC
100
AcDbXrecord
280
     1
270
     1
271
     1
  0
XRECORD
  5
19C
102
{ACAD_REACTORS
330
19B
102
}
330
19B
100
AcDbXrecord
280
     1
102
ACAD_ROUNDTRIP_2012_MLEADER_STYLE
298
     1
  0
XRECORD
  5
19E
102
{ACAD_REACTORS
330
19D
102
}
330
19D
100
AcDbXrecord
280
     1
102
DISPLAYNAME
  1
Imperial24
102
FLAGS
 90
        0
  0
CELLSTYLEMAP
  5
169
102
{ACAD_REACTORS
330
168
102
}
330
168
100
AcDbCellStyleMap
 90
        3
300
CELLSTYLE
  1
TABLEFORMAT_BEGIN
 90
        5
170
     1
 91
        0
 92
    32768
 62
   257
 93
        1
300
CONTENTFORMAT
  1
CONTENTFORMAT_BEGIN
 90
        0
 91
        0
 92
      512
 93
        0
300

 40
0.0
140
1.0
 94
        5
 62
     0
340
11
144
0.25
309
CONTENTFORMAT_END
171
     0
 94
        0
309
TABLEFORMAT_END
  1
CELLSTYLE_BEGIN
 90
        1
 91
        1
300
_TITLE
309
CELLSTYLE_END
300
CELLSTYLE
  1
TABLEFORMAT_BEGIN
 90
        5
170
     1
 91
        0
 92
        0
 62
   257
 93
        1
300
CONTENTFORMAT
  1
CONTENTFORMAT_BEGIN
 90
        0
 91
        0
 92
      512
 93
        0
300

 40
0.0
140
1.0
 94
        5
 62
     0
340
11
144
0.18
309
CONTENTFORMAT_END
171
     0
 94
        0
309
TABLEFORMAT_END
  1
CELLSTYLE_BEGIN
 90
        2
 91
        1
300
_HEADER
309
CELLSTYLE_END
300
CELLSTYLE
  1
TABLEFORMAT_BEGIN
 90
        5
170
     1
 91
        0
 92
        0
 62
   257
 93
        1
300
CONTENTFORMAT
  1
CONTENTFORMAT_BEGIN
 90
        0
 91
        0
 92
      512
 93
        0
300

 40
0.0
140
1.0
 94
        2
 62
     0
340
11
144
0.18
309
CONTENTFORMAT_END
171
     0
 94
        0
309
TABLEFORMAT_END
  1
CELLSTYLE_BEGIN
 90
        3
 91
        2
300
_DATA
309
CELLSTYLE_END
  0
XRECORD
  5
176
102
{ACAD_REACTORS
330
175
102
}
330
175
100
AcDbXrecord
280
     1
102
RTVSPost2010Prop28
280
     1
102
RTVSPost2010PropOp28
 70
     1
102
RTVSPost2010Prop29
280
     1
102
RTVSPost2010PropOp29
 70
     1
102
RTVSPost2010Prop30
280
     0
102
RTVSPost2010PropOp30
 70
     1
102
RTVSPost2010Prop31
280
     0
102
RTVSPost2010PropOp31
 70
     1
102
RTVSPost2010Prop32
280
     0
102
RTVSPost2010PropOp32
 70
     1
102
RTVSPost2010Prop33
280
     0
102
RTVSPost2010PropOp33
 70
     1
102
RTVSPost2010Prop34
280
     0
102
RTVSPost2010PropOp34
 70
     1
102
RTVSPost2010Prop35
280
     0
102
RTVSPost2010PropOp35
 70
     1
102
RTVSPost2010Prop36
280
     0
102
RTVSPost2010PropOp36
 70
     1
102
RTVSPost2010Prop37
 90
       50
102
RTVSPost2010PropOp37
 70
     1
102
RTVSPost2010Prop38
140
0.0
102
RTVSPost2010PropOp38
 70
     1
102
RTVSPost2010Prop39
140
1.0
102
RTVSPost2010PropOp39
 70
     1
102
RTVSPost2010Prop40
 90
        0
102
RTVSPost2010PropOp40
 70
     1
102
RTVSPost2010Prop41ColorIndex
 90
       18
102
RTVSPost2010Prop41ColorRGB
 90
        0
102
RTVSPost2010PropOp41
 70
     1
102
RTVSPost2010Prop42
 90
       50
102
RTVSPost2010PropOp42
 70
     1
102
RTVSPost2010Prop43
 90
        3
102
RTVSPost2010PropOp43
 70
     1
102
RTVSPost2010Prop44ColorIndex
 90
        5
102
RTVSPost2010Prop44ColorRGB
 90
      255
102
RTVSPost2010PropOp44
 70
     1
102
RTVSPost2010Prop45
280
     0
102
RTVSPost2010PropOp45
 70
     1
102
RTVSPost2010Prop46
 90
       50
102
RTVSPost2010PropOp46
 70
     1
102
RTVSPost2010Prop47
 90
       50
102
RTVSPost2010PropOp47
 70
     1
102
RTVSPost2010Prop48
 90
       50
102
RTVSPost2010PropOp48
 70
     1
102
RTVSPost2010Prop49
280
     0
102
RTVSPost2010PropOp49
 70
     1
102
RTVSPost2010Prop50
 90
       50
102
RTVSPost2010PropOp50
 70
     1
102
RTVSPost2010Prop51ColorIndex
 90
      256
102
RTVSPost2010Prop51ColorRGB
 90
-16777216
102
RTVSPost2010PropOp51
 70
     0
102
RTVSPost2010Prop52
140
1.0
102
RTVSPost2010PropOp52
 70
     0
102
RTVSPost2010Prop53
 90
        2
102
RTVSPost2010PropOp53
 70
     1
102
RTVSPost2010Prop54
  1
strokes_ogs.tif
102
RTVSPost2010PropOp54
 70
     1
102
RTVSPost2010Prop55
280
     0
102
RTVSPost2010PropOp55
 70
     1
102
RTVSPost2010Prop56
140
1.0
102
RTVSPost2010PropOp56
 70
     1
102
RTVSPost2010Prop57
140
1.0
102
RTVSPost2010PropOp57
 70
     1
  0
XRECORD
  5
174
102
{ACAD_REACTORS
330
173
102
}
330
173
100
AcDbXrecord
280
     1
102
RTVSPost2010Prop28
280
     0
102
RTVSPost2010PropOp28
 70
     1
102
RTVSPost2010Prop29
280
     1
102
RTVSPost2010PropOp29
 70
     1
102
RTVSPost2010Prop30
280
     1
102
RTVSPost2010PropOp30
 70
     1
102
RTVSPost2010Prop31
280
     0
102
RTVSPost2010PropOp31
 70
     1
102
RTVSPost2010Prop32
280
     0
102
RTVSPost2010PropOp32
 70
     1
102
RTVSPost2010Prop33
280
     0
102
RTVSPost2010PropOp33
 70
     1
102
RTVSPost2010Prop34
280
     0
102
RTVSPost2010PropOp34
 70
     1
102
RTVSPost2010Prop35
280
     0
102
RTVSPost2010PropOp35
 70
     1
102
RTVSPost2010Prop36
280
     0
102
RTVSPost2010PropOp36
 70
     1
102
RTVSPost2010Prop37
 90
       50
102
RTVSPost2010PropOp37
 70
     1
102
RTVSPost2010Prop38
140
0.0
102
RTVSPost2010PropOp38
 70
     1
102
RTVSPost2010Prop39
140
1.0
102
RTVSPost2010PropOp39
 70
     1
102
RTVSPost2010Prop40
 90
        0
102
RTVSPost2010PropOp40
 70
     1
102
RTVSPost2010Prop41ColorIndex
 90
       18
102
RTVSPost2010Prop41ColorRGB
 90
        0
102
RTVSPost2010PropOp41
 70
     1
102
RTVSPost2010Prop42
 90
       50
102
RTVSPost2010PropOp42
 70
     1
102
RTVSPost2010Prop43
 90
        3
102
RTVSPost2010PropOp43
 70
     1
102
RTVSPost2010Prop44ColorIndex
 90
        5
102
RTVSPost2010Prop44ColorRGB
 90
      255
102
RTVSPost2010PropOp44
 70
     1
102
RTVSPost2010Prop45
280
     0
102
RTVSPost2010PropOp45
 70
     1
102
RTVSPost2010Prop46
 90
       50
102
RTVSPost2010PropOp46
 70
     1
102
RTVSPost2010Prop47
 90
       50
102
RTVSPost2010PropOp47
 70
     1
102
RTVSPost2010Prop48
 90
       50
102
RTVSPost2010PropOp48
 70
     1
102
RTVSPost2010Prop49
280
     0
102
RTVSPost2010PropOp49
 70
     1
102
RTVSPost2010Prop50
 90
       50
102
RTVSPost2010PropOp50
 70
     1
102
RTVSPost2010Prop51ColorIndex
 90
      256
102
RTVSPost2010Prop51ColorRGB
 90
-16777216
102
RTVSPost2010PropOp51
 70
     0
102
RTVSPost2010Prop52
140
1.0
102
RTVSPost2010PropOp52
 70
     0
102
RTVSPost2010Prop53
 90
        2
102
RTVSPost2010PropOp53
 70
     1
102
RTVSPost2010Prop54
  1
strokes_ogs.tif
102
RTVSPost2010PropOp54
 70
     1
102
RTVSPost2010Prop55
280
     0
102
RTVSPost2010PropOp55
 70
     1
102
RTVSPost2010Prop56
140
1.0
102
RTVSPost2010PropOp56
 70
     1
102
RTVSPost2010Prop57
140
1.0
102
RTVSPost2010PropOp57
 70
     1
  0
XRECORD
  5
182
102
{ACAD_REACTORS
330
181
102
}
330
181
100
AcDbXrecord
280
     1
102
RTVSPost2010Prop28
280
     0
102
RTVSPost2010PropOp28
 70
     1
102
RTVSPost2010Prop29
280
     1
102
RTVSPost2010PropOp29
 70
     1
102
RTVSPost2010Prop30
280
     1
102
RTVSPost2010PropOp30
 70
     1
102
RTVSPost2010Prop31
280
     0
102
RTVSPost2010PropOp31
 70
     1
102
RTVSPost2010Prop32
280
     0
102
RTVSPost2010PropOp32
 70
     1
102
RTVSPost2010Prop33
280
     0
102
RTVSPost2010PropOp33
 70
     1
102
RTVSPost2010Prop34
280
     0
102
RTVSPost2010PropOp34
 70
     1
102
RTVSPost2010Prop35
280
     0
102
RTVSPost2010PropOp35
 70
     1
102
RTVSPost2010Prop36
280
     0
102
RTVSPost2010PropOp36
 70
     1
102
RTVSPost2010Prop37
 90
       50
102
RTVSPost2010PropOp37
 70
     1
102
RTVSPost2010Prop38
140
0.0
102
RTVSPost2010PropOp38
 70
     1
102
RTVSPost2010Prop39
140
1.0
102
RTVSPost2010PropOp39
 70
     1
102
RTVSPost2010Prop40
 90
        0
102
RTVSPost2010PropOp40
 70
     1
102
RTVSPost2010Prop41ColorIndex
 90
       18
102
RTVSPost2010Prop41ColorRGB
 90
        0
102
RTVSPost2010PropOp41
 70
     1
102
RTVSPost2010Prop42
 90
       50
102
RTVSPost2010PropOp42
 70
     1
102
RTVSPost2010Prop43
 90
        3
102
RTVSPost2010PropOp43
 70
     1
102
RTVSPost2010Prop44ColorIndex
 90
        5
102
RTVSPost2010Prop44ColorRGB
 90
      255
102
RTVSPost2010PropOp44
 70
     1
102
RTVSPost2010Prop45
280
     0
102
RTVSPost2010PropOp45
 70
     1
102
RTVSPost2010Prop46
 90
       50
102
RTVSPost2010PropOp46
 70
     1
102
RTVSPost2010Prop47
 90
       50
102
RTVSPost2010PropOp47
 70
     1
102
RTVSPost2010Prop48
 90
       50
102
RTVSPost2010PropOp48
 70
     1
102
RTVSPost2010Prop49
280
     0
102
RTVSPost2010PropOp49
 70
     1
102
RTVSPost2010Prop50
 90
       50
102
RTVSPost2010PropOp50
 70
     1
102
RTVSPost2010Prop51ColorIndex
 90
      256
102
RTVSPost2010Prop51ColorRGB
 90
-16777216
102
RTVSPost2010PropOp51
 70
     0
102
RTVSPost2010Prop52
140
1.0
102
RTVSPost2010PropOp52
 70
     0
102
RTVSPost2010Prop53
 90
        2
102
RTVSPost2010PropOp53
 70
     1
102
RTVSPost2010Prop54
  1
strokes_ogs.tif
102
RTVSPost2010PropOp54
 70
     1
102
RTVSPost2010Prop55
280
     0
102
RTVSPost2010PropOp55
 70
     1
102
RTVSPost2010Prop56
140
1.0
102
RTVSPost2010PropOp56
 70
     1
102
RTVSPost2010Prop57
140
1.0
102
RTVSPost2010PropOp57
 70
     1
  0
XRECORD
  5
18A
102
{ACAD_REACTORS
330
189
102
}
330
189
100
AcDbXrecord
280
     1
102
RTVSPost2010Prop28
280
     0
102
RTVSPost2010PropOp28
 70
     1
102
RTVSPost2010Prop29
280
     1
102
RTVSPost2010PropOp29
 70
     1
102
RTVSPost2010Prop30
280
     1
102
RTVSPost2010PropOp30
 70
     1
102
RTVSPost2010Prop31
280
     0
102
RTVSPost2010PropOp31
 70
     1
102
RTVSPost2010Prop32
280
     0
102
RTVSPost2010PropOp32
 70
     1
102
RTVSPost2010Prop33
280
     0
102
RTVSPost2010PropOp33
 70
     1
102
RTVSPost2010Prop34
280
     0
102
RTVSPost2010PropOp34
 70
     1
102
RTVSPost2010Prop35
280
     0
102
RTVSPost2010PropOp35
 70
     1
102
RTVSPost2010Prop36
280
     0
102
RTVSPost2010PropOp36
 70
     1
102
RTVSPost2010Prop37
 90
       50
102
RTVSPost2010PropOp37
 70
     1
102
RTVSPost2010Prop38
140
0.0
102
RTVSPost2010PropOp38
 70
     1
102
RTVSPost2010Prop39
140
1.0
102
RTVSPost2010PropOp39
 70
     1
102
RTVSPost2010Prop40
 90
        0
102
RTVSPost2010PropOp40
 70
     1
102
RTVSPost2010Prop41ColorIndex
 90
       18
102
RTVSPost2010Prop41ColorRGB
 90
        0
102
RTVSPost2010PropOp41
 70
     1
102
RTVSPost2010Prop42
 90
       50
102
RTVSPost2010PropOp42
 70
     1
102
RTVSPost2010Prop43
 90
        3
102
RTVSPost2010PropOp43
 70
     1
102
RTVSPost2010Prop44ColorIndex
 90
        5
102
RTVSPost2010Prop44ColorRGB
 90
      255
102
RTVSPost2010PropOp44
 70
     1
102
RTVSPost2010Prop45
280
     0
102
RTVSPost2010PropOp45
 70
     1
102
RTVSPost2010Prop46
 90
       50
102
RTVSPost2010PropOp46
 70
     1
102
RTVSPost2010Prop47
 90
       50
102
RTVSPost2010PropOp47
 70
     1
102
RTVSPost2010Prop48
 90
       50
102
RTVSPost2010PropOp48
 70
     1
102
RTVSPost2010Prop49
280
     0
102
RTVSPost2010PropOp49
 70
     1
102
RTVSPost2010Prop50
 90
       50
102
RTVSPost2010PropOp50
 70
     1
102
RTVSPost2010Prop51ColorIndex
 90
      256
102
RTVSPost2010Prop51ColorRGB
 90
-16777216
102
RTVSPost2010PropOp51
 70
     0
102
RTVSPost2010Prop52
140
1.0
102
RTVSPost2010PropOp52
 70
     0
102
RTVSPost2010Prop53
 90
        2
102
RTVSPost2010PropOp53
 70
     1
102
RTVSPost2010Prop54
  1
strokes_ogs.tif
102
RTVSPost2010PropOp54
 70
     1
102
RTVSPost2010Prop55
280
     0
102
RTVSPost2010PropOp55
 70
     1
102
RTVSPost2010Prop56
140
1.0
102
RTVSPost2010PropOp56
 70
     1
102
RTVSPost2010Prop57
140
1.0
102
RTVSPost2010PropOp57
 70
     1
  0
XRECORD
  5
17C
102
{ACAD_REACTORS
330
17B
102
}
330
17B
100
AcDbXrecord
280
     1
102
RTVSPost2010Prop28
280
     0
102
RTVSPost2010PropOp28
 70
     1
102
RTVSPost2010Prop29
280
     1
102
RTVSPost2010PropOp29
 70
     1
102
RTVSPost2010Prop30
280
     1
102
RTVSPost2010PropOp30
 70
     1
102
RTVSPost2010Prop31
280
     0
102
RTVSPost2010PropOp31
 70
     1
102
RTVSPost2010Prop32
280
     0
102
RTVSPost2010PropOp32
 70
     1
102
RTVSPost2010Prop33
280
     0
102
RTVSPost2010PropOp33
 70
     1
102
RTVSPost2010Prop34
280
     0
102
RTVSPost2010PropOp34
 70
     1
102
RTVSPost2010Prop35
280
     0
102
RTVSPost2010PropOp35
 70
     1
102
RTVSPost2010Prop36
280
     0
102
RTVSPost2010PropOp36
 70
     1
102
RTVSPost2010Prop37
 90
       50
102
RTVSPost2010PropOp37
 70
     1
102
RTVSPost2010Prop38
140
0.0
102
RTVSPost2010PropOp38
 70
     1
102
RTVSPost2010Prop39
140
1.0
102
RTVSPost2010PropOp39
 70
     1
102
RTVSPost2010Prop40
 90
        0
102
RTVSPost2010PropOp40
 70
     1
102
RTVSPost2010Prop41ColorIndex
 90
       18
102
RTVSPost2010Prop41ColorRGB
 90
        0
102
RTVSPost2010PropOp41
 70
     1
102
RTVSPost2010Prop42
 90
       50
102
RTVSPost2010PropOp42
 70
     1
102
RTVSPost2010Prop43
 90
        3
102
RTVSPost2010PropOp43
 70
     1
102
RTVSPost2010Prop44ColorIndex
 90
        5
102
RTVSPost2010Prop44ColorRGB
 90
      255
102
RTVSPost2010PropOp44
 70
     1
102
RTVSPost2010Prop45
280
     0
102
RTVSPost2010PropOp45
 70
     1
102
RTVSPost2010Prop46
 90
       50
102
RTVSPost2010PropOp46
 70
     1
102
RTVSPost2010Prop47
 90
       50
102
RTVSPost2010PropOp47
 70
     1
102
RTVSPost2010Prop48
 90
       50
102
RTVSPost2010PropOp48
 70
     1
102
RTVSPost2010Prop49
280
     0
102
RTVSPost2010PropOp49
 70
     1
102
RTVSPost2010Prop50
 90
       50
102
RTVSPost2010PropOp50
 70
     1
102
RTVSPost2010Prop51ColorIndex
 90
      256
102
RTVSPost2010Prop51ColorRGB
 90
-16777216
102
RTVSPost2010PropOp51
 70
     0
102
RTVSPost2010Prop52
140
1.0
102
RTVSPost2010PropOp52
 70
     0
102
RTVSPost2010Prop53
 90
        2
102
RTVSPost2010PropOp53
 70
     1
102
RTVSPost2010Prop54
  1
strokes_ogs.tif
102
RTVSPost2010PropOp54
 70
     1
102
RTVSPost2010Prop55
280
     0
102
RTVSPost2010PropOp55
 70
     1
102
RTVSPost2010Prop56
140
1.0
102
RTVSPost2010PropOp56
 70
     1
102
RTVSPost2010Prop57
140
1.0
102
RTVSPost2010PropOp57
 70
     1
  0
XRECORD
  5
180
102
{ACAD_REACTORS
330
17F
102
}
330
17F
100
AcDbXrecord
280
     1
102
RTVSPost2010Prop28
280
     0
102
RTVSPost2010PropOp28
 70
     1
102
RTVSPost2010Prop29
280
     1
102
RTVSPost2010PropOp29
 70
     1
102
RTVSPost2010Prop30
280
     1
102
RTVSPost2010PropOp30
 70
     1
102
RTVSPost2010Prop31
280
     0
102
RTVSPost2010PropOp31
 70
     1
102
RTVSPost2010Prop32
280
     0
102
RTVSPost2010PropOp32
 70
     1
102
RTVSPost2010Prop33
280
     0
102
RTVSPost2010PropOp33
 70
     1
102
RTVSPost2010Prop34
280
     0
102
RTVSPost2010PropOp34
 70
     1
102
RTVSPost2010Prop35
280
     0
102
RTVSPost2010PropOp35
 70
     1
102
RTVSPost2010Prop36
280
     0
102
RTVSPost2010PropOp36
 70
     1
102
RTVSPost2010Prop37
 90
       50
102
RTVSPost2010PropOp37
 70
     1
102
RTVSPost2010Prop38
140
0.0
102
RTVSPost2010PropOp38
 70
     1
102
RTVSPost2010Prop39
140
1.0
102
RTVSPost2010PropOp39
 70
     1
102
RTVSPost2010Prop40
 90
        0
102
RTVSPost2010PropOp40
 70
     1
102
RTVSPost2010Prop41ColorIndex
 90
       18
102
RTVSPost2010Prop41ColorRGB
 90
        0
102
RTVSPost2010PropOp41
 70
     1
102
RTVSPost2010Prop42
 90
       50
102
RTVSPost2010PropOp42
 70
     1
102
RTVSPost2010Prop43
 90
        3
102
RTVSPost2010PropOp43
 70
     1
102
RTVSPost2010Prop44ColorIndex
 90
        5
102
RTVSPost2010Prop44ColorRGB
 90
      255
102
RTVSPost2010PropOp44
 70
     1
102
RTVSPost2010Prop45
280
     0
102
RTVSPost2010PropOp45
 70
     1
102
RTVSPost2010Prop46
 90
       50
102
RTVSPost2010PropOp46
 70
     1
102
RTVSPost2010Prop47
 90
       50
102
RTVSPost2010PropOp47
 70
     1
102
RTVSPost2010Prop48
 90
       50
102
RTVSPost2010PropOp48
 70
     1
102
RTVSPost2010Prop49
280
     0
102
RTVSPost2010PropOp49
 70
     1
102
RTVSPost2010Prop50
 90
       50
102
RTVSPost2010PropOp50
 70
     1
102
RTVSPost2010Prop51ColorIndex
 90
      256
102
RTVSPost2010Prop51ColorRGB
 90
-16777216
102
RTVSPost2010PropOp51
 70
     0
102
RTVSPost2010Prop52
140
1.0
102
RTVSPost2010PropOp52
 70
     0
102
RTVSPost2010Prop53
 90
        2
102
RTVSPost2010PropOp53
 70
     1
102
RTVSPost2010Prop54
  1
strokes_ogs.tif
102
RTVSPost2010PropOp54
 70
     1
102
RTVSPost2010Prop55
280
     0
102
RTVSPost2010PropOp55
 70
     1
102
RTVSPost2010Prop56
140
1.0
102
RTVSPost2010PropOp56
 70
     1
102
RTVSPost2010Prop57
140
1.0
102
RTVSPost2010PropOp57
 70
     1
  0
XRECORD
  5
19A
102
{ACAD_REACTORS
330
199
102
}
330
199
100
AcDbXrecord
280
     1
102
RTVSPost2010Prop28
280
     0
102
RTVSPost2010PropOp28
 70
     0
102
RTVSPost2010Prop29
280
     1
102
RTVSPost2010PropOp29
 70
     0
102
RTVSPost2010Prop30
280
     1
102
RTVSPost2010PropOp30
 70
     0
102
RTVSPost2010Prop31
280
     0
102
RTVSPost2010PropOp31
 70
     0
102
RTVSPost2010Prop32
280
     0
102
RTVSPost2010PropOp32
 70
     0
102
RTVSPost2010Prop33
280
     0
102
RTVSPost2010PropOp33
 70
     0
102
RTVSPost2010Prop34
280
     0
102
RTVSPost2010PropOp34
 70
     0
102
RTVSPost2010Prop35
280
     0
102
RTVSPost2010PropOp35
 70
     0
102
RTVSPost2010Prop36
280
     0
102
RTVSPost2010PropOp36
 70
     0
102
RTVSPost2010Prop37
 90
       50
102
RTVSPost2010PropOp37
 70
     0
102
RTVSPost2010Prop38
140
0.0
102
RTVSPost2010PropOp38
 70
     0
102
RTVSPost2010Prop39
140
1.0
102
RTVSPost2010PropOp39
 70
     0
102
RTVSPost2010Prop40
 90
        0
102
RTVSPost2010PropOp40
 70
     0
102
RTVSPost2010Prop41ColorIndex
 90
       18
102
RTVSPost2010Prop41ColorRGB
 90
        0
102
RTVSPost2010PropOp41
 70
     0
102
RTVSPost2010Prop42
 90
       50
102
RTVSPost2010PropOp42
 70
     0
102
RTVSPost2010Prop43
 90
        3
102
RTVSPost2010PropOp43
 70
     0
102
RTVSPost2010Prop44ColorIndex
 90
        5
102
RTVSPost2010Prop44ColorRGB
 90
      255
102
RTVSPost2010PropOp44
 70
     0
102
RTVSPost2010Prop45
280
     0
102
RTVSPost2010PropOp45
 70
     0
102
RTVSPost2010Prop46
 90
       50
102
RTVSPost2010PropOp46
 70
     0
102
RTVSPost2010Prop47
 90
       50
102
RTVSPost2010PropOp47
 70
     0
102
RTVSPost2010Prop48
 90
       50
102
RTVSPost2010PropOp48
 70
     0
102
RTVSPost2010Prop49
280
     0
102
RTVSPost2010PropOp49
 70
     0
102
RTVSPost2010Prop50
 90
       50
102
RTVSPost2010PropOp50
 70
     0
102
RTVSPost2010Prop51ColorIndex
 90
      256
102
RTVSPost2010Prop51ColorRGB
 90
-16777216
102
RTVSPost2010PropOp51
 70
     0
102
RTVSPost2010Prop52
140
1.0
102
RTVSPost2010PropOp52
 70
     0
102
RTVSPost2010Prop53
 90
        2
102
RTVSPost2010PropOp53
 70
     0
102
RTVSPost2010Prop54
  1
strokes_ogs.tif
102
RTVSPost2010PropOp54
 70
     0
102
RTVSPost2010Prop55
280
     0
102
RTVSPost2010PropOp55
 70
     0
102
RTVSPost2010Prop56
140
1.0
102
RTVSPost2010PropOp56
 70
     0
102
RTVSPost2010Prop57
140
1.0
102
RTVSPost2010PropOp57
 70
     0
  0
XRECORD
  5
188
102
{ACAD_REACTORS
330
187
102
}
330
187
100
AcDbXrecord
280
     1
102
RTVSPost2010Prop28
280
     0
102
RTVSPost2010PropOp28
 70
     1
102
RTVSPost2010Prop29
280
     1
102
RTVSPost2010PropOp29
 70
     1
102
RTVSPost2010Prop30
280
     1
102
RTVSPost2010PropOp30
 70
     1
102
RTVSPost2010Prop31
280
     0
102
RTVSPost2010PropOp31
 70
     1
102
RTVSPost2010Prop32
280
     0
102
RTVSPost2010PropOp32
 70
     1
102
RTVSPost2010Prop33
280
     0
102
RTVSPost2010PropOp33
 70
     1
102
RTVSPost2010Prop34
280
     0
102
RTVSPost2010PropOp34
 70
     1
102
RTVSPost2010Prop35
280
     0
102
RTVSPost2010PropOp35
 70
     1
102
RTVSPost2010Prop36
280
     0
102
RTVSPost2010PropOp36
 70
     1
102
RTVSPost2010Prop37
 90
       50
102
RTVSPost2010PropOp37
 70
     1
102
RTVSPost2010Prop38
140
0.0
102
RTVSPost2010PropOp38
 70
     1
102
RTVSPost2010Prop39
140
1.0
102
RTVSPost2010PropOp39
 70
     1
102
RTVSPost2010Prop40
 90
        0
102
RTVSPost2010PropOp40
 70
     1
102
RTVSPost2010Prop41ColorIndex
 90
       18
102
RTVSPost2010Prop41ColorRGB
 90
        0
102
RTVSPost2010PropOp41
 70
     1
102
RTVSPost2010Prop42
 90
       50
102
RTVSPost2010PropOp42
 70
     1
102
RTVSPost2010Prop43
 90
        3
102
RTVSPost2010PropOp43
 70
     1
102
RTVSPost2010Prop44ColorIndex
 90
        5
102
RTVSPost2010Prop44ColorRGB
 90
      255
102
RTVSPost2010PropOp44
 70
     1
102
RTVSPost2010Prop45
280
     0
102
RTVSPost2010PropOp45
 70
     1
102
RTVSPost2010Prop46
 90
       50
102
RTVSPost2010PropOp46
 70
     1
102
RTVSPost2010Prop47
 90
       50
102
RTVSPost2010PropOp47
 70
     1
102
RTVSPost2010Prop48
 90
       50
102
RTVSPost2010PropOp48
 70
     1
102
RTVSPost2010Prop49
280
     0
102
RTVSPost2010PropOp49
 70
     1
102
RTVSPost2010Prop50
 90
       50
102
RTVSPost2010PropOp50
 70
     1
102
RTVSPost2010Prop51ColorIndex
 90
      256
102
RTVSPost2010Prop51ColorRGB
 90
-16777216
102
RTVSPost2010PropOp51
 70
     0
102
RTVSPost2010Prop52
140
1.0
102
RTVSPost2010PropOp52
 70
     0
102
RTVSPost2010Prop53
 90
        2
102
RTVSPost2010PropOp53
 70
     1
102
RTVSPost2010Prop54
  1
strokes_ogs.tif
102
RTVSPost2010PropOp54
 70
     1
102
RTVSPost2010Prop55
280
     0
102
RTVSPost2010PropOp55
 70
     1
102
RTVSPost2010Prop56
140
1.0
102
RTVSPost2010PropOp56
 70
     1
102
RTVSPost2010Prop57
140
1.0
102
RTVSPost2010PropOp57
 70
     1
  0
XRECORD
  5
16C
102
{ACAD_REACTORS
330
16B
102
}
330
16B
100
AcDbXrecord
280
     1
102
RTVSPost2010Prop28
280
     0
102
RTVSPost2010PropOp28
 70
     1
102
RTVSPost2010Prop29
280
     1
102
RTVSPost2010PropOp29
 70
     1
102
RTVSPost2010Prop30
280
     1
102
RTVSPost2010PropOp30
 70
     1
102
RTVSPost2010Prop31
280
     0
102
RTVSPost2010PropOp31
 70
     1
102
RTVSPost2010Prop32
280
     0
102
RTVSPost2010PropOp32
 70
     1
102
RTVSPost2010Prop33
280
     0
102
RTVSPost2010PropOp33
 70
     1
102
RTVSPost2010Prop34
280
     0
102
RTVSPost2010PropOp34
 70
     1
102
RTVSPost2010Prop35
280
     0
102
RTVSPost2010PropOp35
 70
     1
102
RTVSPost2010Prop36
280
     0
102
RTVSPost2010PropOp36
 70
     1
102
RTVSPost2010Prop37
 90
       50
102
RTVSPost2010PropOp37
 70
     1
102
RTVSPost2010Prop38
140
0.0
102
RTVSPost2010PropOp38
 70
     1
102
RTVSPost2010Prop39
140
1.0
102
RTVSPost2010PropOp39
 70
     1
102
RTVSPost2010Prop40
 90
        0
102
RTVSPost2010PropOp40
 70
     1
102
RTVSPost2010Prop41ColorIndex
 90
       18
102
RTVSPost2010Prop41ColorRGB
 90
        0
102
RTVSPost2010PropOp41
 70
     1
102
RTVSPost2010Prop42
 90
       50
102
RTVSPost2010PropOp42
 70
     1
102
RTVSPost2010Prop43
 90
        3
102
RTVSPost2010PropOp43
 70
     1
102
RTVSPost2010Prop44ColorIndex
 90
        5
102
RTVSPost2010Prop44ColorRGB
 90
      255
102
RTVSPost2010PropOp44
 70
     1
102
RTVSPost2010Prop45
280
     0
102
RTVSPost2010PropOp45
 70
     1
102
RTVSPost2010Prop46
 90
       50
102
RTVSPost2010PropOp46
 70
     1
102
RTVSPost2010Prop47
 90
       50
102
RTVSPost2010PropOp47
 70
     1
102
RTVSPost2010Prop48
 90
       50
102
RTVSPost2010PropOp48
 70
     1
102
RTVSPost2010Prop49
280
     0
102
RTVSPost2010PropOp49
 70
     1
102
RTVSPost2010Prop50
 90
       50
102
RTVSPost2010PropOp50
 70
     1
102
RTVSPost2010Prop51ColorIndex
 90
      256
102
RTVSPost2010Prop51ColorRGB
 90
-16777216
102
RTVSPost2010PropOp51
 70
     0
102
RTVSPost2010Prop52
140
1.0
102
RTVSPost2010PropOp52
 70
     0
102
RTVSPost2010Prop53
 90
        2
102
RTVSPost2010PropOp53
 70
     1
102
RTVSPost2010Prop54
  1
strokes_ogs.tif
102
RTVSPost2010PropOp54
 70
     1
102
RTVSPost2010Prop55
280
     0
102
RTVSPost2010PropOp55
 70
     1
102
RTVSPost2010Prop56
140
1.0
102
RTVSPost2010PropOp56
 70
     1
102
RTVSPost2010Prop57
140
1.0
102
RTVSPost2010PropOp57
 70
     1
  0
XRECORD
  5
16E
102
{ACAD_REACTORS
330
16D
102
}
330
16D
100
AcDbXrecord
280
     1
102
RTVSPost2010Prop28
280
     0
102
RTVSPost2010PropOp28
 70
     1
102
RTVSPost2010Prop29
280
     1
102
RTVSPost2010PropOp29
 70
     1
102
RTVSPost2010Prop30
280
     1
102
RTVSPost2010PropOp30
 70
     1
102
RTVSPost2010Prop31
280
     0
102
RTVSPost2010PropOp31
 70
     1
102
RTVSPost2010Prop32
280
     0
102
RTVSPost2010PropOp32
 70
     1
102
RTVSPost2010Prop33
280
     0
102
RTVSPost2010PropOp33
 70
     1
102
RTVSPost2010Prop34
280
     0
102
RTVSPost2010PropOp34
 70
     1
102
RTVSPost2010Prop35
280
     0
102
RTVSPost2010PropOp35
 70
     1
102
RTVSPost2010Prop36
280
     0
102
RTVSPost2010PropOp36
 70
     1
102
RTVSPost2010Prop37
 90
       50
102
RTVSPost2010PropOp37
 70
     1
102
RTVSPost2010Prop38
140
0.0
102
RTVSPost2010PropOp38
 70
     1
102
RTVSPost2010Prop39
140
1.0
102
RTVSPost2010PropOp39
 70
     1
102
RTVSPost2010Prop40
 90
        0
102
RTVSPost2010PropOp40
 70
     1
102
RTVSPost2010Prop41ColorIndex
 90
       18
102
RTVSPost2010Prop41ColorRGB
 90
        0
102
RTVSPost2010PropOp41
 70
     1
102
RTVSPost2010Prop42
 90
       50
102
RTVSPost2010PropOp42
 70
     1
102
RTVSPost2010Prop43
 90
        3
102
RTVSPost2010PropOp43
 70
     1
102
RTVSPost2010Prop44ColorIndex
 90
        5
102
RTVSPost2010Prop44ColorRGB
 90
      255
102
RTVSPost2010PropOp44
 70
     1
102
RTVSPost2010Prop45
280
     0
102
RTVSPost2010PropOp45
 70
     1
102
RTVSPost2010Prop46
 90
       50
102
RTVSPost2010PropOp46
 70
     1
102
RTVSPost2010Prop47
 90
       50
102
RTVSPost2010PropOp47
 70
     1
102
RTVSPost2010Prop48
 90
       50
102
RTVSPost2010PropOp48
 70
     1
102
RTVSPost2010Prop49
280
     0
102
RTVSPost2010PropOp49
 70
     1
102
RTVSPost2010Prop50
 90
       50
102
RTVSPost2010PropOp50
 70
     1
102
RTVSPost2010Prop51ColorIndex
 90
      256
102
RTVSPost2010Prop51ColorRGB
 90
-16777216
102
RTVSPost2010PropOp51
 70
     0
102
RTVSPost2010Prop52
140
1.0
102
RTVSPost2010PropOp52
 70
     0
102
RTVSPost2010Prop53
 90
        2
102
RTVSPost2010PropOp53
 70
     1
102
RTVSPost2010Prop54
  1
strokes_ogs.tif
102
RTVSPost2010PropOp54
 70
     1
102
RTVSPost2010Prop55
280
     0
102
RTVSPost2010PropOp55
 70
     1
102
RTVSPost2010Prop56
140
1.0
102
RTVSPost2010PropOp56
 70
     1
102
RTVSPost2010Prop57
140
1.0
102
RTVSPost2010PropOp57
 70
     1
  0
XRECORD
  5
170
102
{ACAD_REACTORS
330
16F
102
}
330
16F
100
AcDbXrecord
280
     1
102
RTVSPost2010Prop28
280
     0
102
RTVSPost2010PropOp28
 70
     1
102
RTVSPost2010Prop29
280
     1
102
RTVSPost2010PropOp29
 70
     1
102
RTVSPost2010Prop30
280
     1
102
RTVSPost2010PropOp30
 70
     1
102
RTVSPost2010Prop31
280
     0
102
RTVSPost2010PropOp31
 70
     1
102
RTVSPost2010Prop32
280
     0
102
RTVSPost2010PropOp32
 70
     1
102
RTVSPost2010Prop33
280
     0
102
RTVSPost2010PropOp33
 70
     1
102
RTVSPost2010Prop34
280
     0
102
RTVSPost2010PropOp34
 70
     1
102
RTVSPost2010Prop35
280
     0
102
RTVSPost2010PropOp35
 70
     1
102
RTVSPost2010Prop36
280
     0
102
RTVSPost2010PropOp36
 70
     1
102
RTVSPost2010Prop37
 90
       50
102
RTVSPost2010PropOp37
 70
     1
102
RTVSPost2010Prop38
140
0.0
102
RTVSPost2010PropOp38
 70
     1
102
RTVSPost2010Prop39
140
1.0
102
RTVSPost2010PropOp39
 70
     1
102
RTVSPost2010Prop40
 90
        0
102
RTVSPost2010PropOp40
 70
     1
102
RTVSPost2010Prop41ColorIndex
 90
       18
102
RTVSPost2010Prop41ColorRGB
 90
        0
102
RTVSPost2010PropOp41
 70
     1
102
RTVSPost2010Prop42
 90
       50
102
RTVSPost2010PropOp42
 70
     1
102
RTVSPost2010Prop43
 90
        3
102
RTVSPost2010PropOp43
 70
     1
102
RTVSPost2010Prop44ColorIndex
 90
        5
102
RTVSPost2010Prop44ColorRGB
 90
      255
102
RTVSPost2010PropOp44
 70
     1
102
RTVSPost2010Prop45
280
     0
102
RTVSPost2010PropOp45
 70
     1
102
RTVSPost2010Prop46
 90
       50
102
RTVSPost2010PropOp46
 70
     1
102
RTVSPost2010Prop47
 90
       50
102
RTVSPost2010PropOp47
 70
     1
102
RTVSPost2010Prop48
 90
       50
102
RTVSPost2010PropOp48
 70
     1
102
RTVSPost2010Prop49
280
     0
102
RTVSPost2010PropOp49
 70
     1
102
RTVSPost2010Prop50
 90
       50
102
RTVSPost2010PropOp50
 70
     1
102
RTVSPost2010Prop51ColorIndex
 90
      256
102
RTVSPost2010Prop51ColorRGB
 90
-16777216
102
RTVSPost2010PropOp51
 70
     0
102
RTVSPost2010Prop52
140
1.0
102
RTVSPost2010PropOp52
 70
     0
102
RTVSPost2010Prop53
 90
        2
102
RTVSPost2010PropOp53
 70
     1
102
RTVSPost2010Prop54
  1
strokes_ogs.tif
102
RTVSPost2010PropOp54
 70
     1
102
RTVSPost2010Prop55
280
     0
102
RTVSPost2010PropOp55
 70
     1
102
RTVSPost2010Prop56
140
1.0
102
RTVSPost2010PropOp56
 70
     1
102
RTVSPost2010Prop57
140
1.0
102
RTVSPost2010PropOp57
 70
     1
  0
XRECORD
  5
172
102
{ACAD_REACTORS
330
171
102
}
330
171
100
AcDbXrecord
280
     1
102
RTVSPost2010Prop28
280
     0
102
RTVSPost2010PropOp28
 70
     1
102
RTVSPost2010Prop29
280
     1
102
RTVSPost2010PropOp29
 70
     1
102
RTVSPost2010Prop30
280
     1
102
RTVSPost2010PropOp30
 70
     1
102
RTVSPost2010Prop31
280
     0
102
RTVSPost2010PropOp31
 70
     1
102
RTVSPost2010Prop32
280
     0
102
RTVSPost2010PropOp32
 70
     1
102
RTVSPost2010Prop33
280
     0
102
RTVSPost2010PropOp33
 70
     1
102
RTVSPost2010Prop34
280
     0
102
RTVSPost2010PropOp34
 70
     1
102
RTVSPost2010Prop35
280
     0
102
RTVSPost2010PropOp35
 70
     1
102
RTVSPost2010Prop36
280
     0
102
RTVSPost2010PropOp36
 70
     1
102
RTVSPost2010Prop37
 90
       50
102
RTVSPost2010PropOp37
 70
     1
102
RTVSPost2010Prop38
140
0.0
102
RTVSPost2010PropOp38
 70
     1
102
RTVSPost2010Prop39
140
1.0
102
RTVSPost2010PropOp39
 70
     1
102
RTVSPost2010Prop40
 90
        0
102
RTVSPost2010PropOp40
 70
     1
102
RTVSPost2010Prop41ColorIndex
 90
       18
102
RTVSPost2010Prop41ColorRGB
 90
        0
102
RTVSPost2010PropOp41
 70
     1
102
RTVSPost2010Prop42
 90
       50
102
RTVSPost2010PropOp42
 70
     1
102
RTVSPost2010Prop43
 90
        3
102
RTVSPost2010PropOp43
 70
     1
102
RTVSPost2010Prop44ColorIndex
 90
        5
102
RTVSPost2010Prop44ColorRGB
 90
      255
102
RTVSPost2010PropOp44
 70
     1
102
RTVSPost2010Prop45
280
     0
102
RTVSPost2010PropOp45
 70
     1
102
RTVSPost2010Prop46
 90
       50
102
RTVSPost2010PropOp46
 70
     1
102
RTVSPost2010Prop47
 90
       50
102
RTVSPost2010PropOp47
 70
     1
102
RTVSPost2010Prop48
 90
       50
102
RTVSPost2010PropOp48
 70
     1
102
RTVSPost2010Prop49
280
     0
102
RTVSPost2010PropOp49
 70
     1
102
RTVSPost2010Prop50
 90
       50
102
RTVSPost2010PropOp50
 70
     1
102
RTVSPost2010Prop51ColorIndex
 90
      256
102
RTVSPost2010Prop51ColorRGB
 90
-16777216
102
RTVSPost2010PropOp51
 70
     0
102
RTVSPost2010Prop52
140
1.0
102
RTVSPost2010PropOp52
 70
     0
102
RTVSPost2010Prop53
 90
        2
102
RTVSPost2010PropOp53
 70
     1
102
RTVSPost2010Prop54
  1
strokes_ogs.tif
102
RTVSPost2010PropOp54
 70
     1
102
RTVSPost2010Prop55
280
     0
102
RTVSPost2010PropOp55
 70
     1
102
RTVSPost2010Prop56
140
1.0
102
RTVSPost2010PropOp56
 70
     1
102
RTVSPost2010Prop57
140
1.0
102
RTVSPost2010PropOp57
 70
     1
  0
XRECORD
  5
17A
102
{ACAD_REACTORS
330
179
102
}
330
179
100
AcDbXrecord
280
     1
102
RTVSPost2010Prop28
280
     0
102
RTVSPost2010PropOp28
 70
     1
102
RTVSPost2010Prop29
280
     1
102
RTVSPost2010PropOp29
 70
     1
102
RTVSPost2010Prop30
280
     1
102
RTVSPost2010PropOp30
 70
     1
102
RTVSPost2010Prop31
280
     0
102
RTVSPost2010PropOp31
 70
     1
102
RTVSPost2010Prop32
280
     0
102
RTVSPost2010PropOp32
 70
     1
102
RTVSPost2010Prop33
280
     0
102
RTVSPost2010PropOp33
 70
     1
102
RTVSPost2010Prop34
280
     0
102
RTVSPost2010PropOp34
 70
     1
102
RTVSPost2010Prop35
280
     0
102
RTVSPost2010PropOp35
 70
     1
102
RTVSPost2010Prop36
280
     0
102
RTVSPost2010PropOp36
 70
     1
102
RTVSPost2010Prop37
 90
       50
102
RTVSPost2010PropOp37
 70
     1
102
RTVSPost2010Prop38
140
0.0
102
RTVSPost2010PropOp38
 70
     1
102
RTVSPost2010Prop39
140
1.0
102
RTVSPost2010PropOp39
 70
     1
102
RTVSPost2010Prop40
 90
        0
102
RTVSPost2010PropOp40
 70
     1
102
RTVSPost2010Prop41ColorIndex
 90
       18
102
RTVSPost2010Prop41ColorRGB
 90
        0
102
RTVSPost2010PropOp41
 70
     1
102
RTVSPost2010Prop42
 90
       50
102
RTVSPost2010PropOp42
 70
     1
102
RTVSPost2010Prop43
 90
        3
102
RTVSPost2010PropOp43
 70
     1
102
RTVSPost2010Prop44ColorIndex
 90
        5
102
RTVSPost2010Prop44ColorRGB
 90
      255
102
RTVSPost2010PropOp44
 70
     1
102
RTVSPost2010Prop45
280
     0
102
RTVSPost2010PropOp45
 70
     1
102
RTVSPost2010Prop46
 90
       50
102
RTVSPost2010PropOp46
 70
     1
102
RTVSPost2010Prop47
 90
       50
102
RTVSPost2010PropOp47
 70
     1
102
RTVSPost2010Prop48
 90
       50
102
RTVSPost2010PropOp48
 70
     1
102
RTVSPost2010Prop49
280
     0
102
RTVSPost2010PropOp49
 70
     1
102
RTVSPost2010Prop50
 90
       50
102
RTVSPost2010PropOp50
 70
     1
102
RTVSPost2010Prop51ColorIndex
 90
      256
102
RTVSPost2010Prop51ColorRGB
 90
-16777216
102
RTVSPost2010PropOp51
 70
     0
102
RTVSPost2010Prop52
140
1.0
102
RTVSPost2010PropOp52
 70
     0
102
RTVSPost2010Prop53
 90
        2
102
RTVSPost2010PropOp53
 70
     1
102
RTVSPost2010Prop54
  1
strokes_ogs.tif
102
RTVSPost2010PropOp54
 70
     1
102
RTVSPost2010Prop55
280
     0
102
RTVSPost2010PropOp55
 70
     1
102
RTVSPost2010Prop56
140
1.0
102
RTVSPost2010PropOp56
 70
     1
102
RTVSPost2010Prop57
140
1.0
102
RTVSPost2010PropOp57
 70
     1
  0
XRECORD
  5
196
102
{ACAD_REACTORS
330
195
102
}
330
195
100
AcDbXrecord
280
     1
102
RTVSPost2010Prop28
280
     0
102
RTVSPost2010PropOp28
 70
     0
102
RTVSPost2010Prop29
280
     1
102
RTVSPost2010PropOp29
 70
     0
102
RTVSPost2010Prop30
280
     1
102
RTVSPost2010PropOp30
 70
     0
102
RTVSPost2010Prop31
280
     0
102
RTVSPost2010PropOp31
 70
     0
102
RTVSPost2010Prop32
280
     0
102
RTVSPost2010PropOp32
 70
     0
102
RTVSPost2010Prop33
280
     0
102
RTVSPost2010PropOp33
 70
     0
102
RTVSPost2010Prop34
280
     0
102
RTVSPost2010PropOp34
 70
     0
102
RTVSPost2010Prop35
280
     0
102
RTVSPost2010PropOp35
 70
     0
102
RTVSPost2010Prop36
280
     0
102
RTVSPost2010PropOp36
 70
     0
102
RTVSPost2010Prop37
 90
       50
102
RTVSPost2010PropOp37
 70
     0
102
RTVSPost2010Prop38
140
0.0
102
RTVSPost2010PropOp38
 70
     0
102
RTVSPost2010Prop39
140
1.0
102
RTVSPost2010PropOp39
 70
     0
102
RTVSPost2010Prop40
 90
        0
102
RTVSPost2010PropOp40
 70
     0
102
RTVSPost2010Prop41ColorIndex
 90
       18
102
RTVSPost2010Prop41ColorRGB
 90
        0
102
RTVSPost2010PropOp41
 70
     0
102
RTVSPost2010Prop42
 90
       50
102
RTVSPost2010PropOp42
 70
     0
102
RTVSPost2010Prop43
 90
        3
102
RTVSPost2010PropOp43
 70
     0
102
RTVSPost2010Prop44ColorIndex
 90
        5
102
RTVSPost2010Prop44ColorRGB
 90
      255
102
RTVSPost2010PropOp44
 70
     0
102
RTVSPost2010Prop45
280
     0
102
RTVSPost2010PropOp45
 70
     0
102
RTVSPost2010Prop46
 90
       50
102
RTVSPost2010PropOp46
 70
     0
102
RTVSPost2010Prop47
 90
       50
102
RTVSPost2010PropOp47
 70
     0
102
RTVSPost2010Prop48
 90
       50
102
RTVSPost2010PropOp48
 70
     0
102
RTVSPost2010Prop49
280
     0
102
RTVSPost2010PropOp49
 70
     0
102
RTVSPost2010Prop50
 90
       50
102
RTVSPost2010PropOp50
 70
     0
102
RTVSPost2010Prop51ColorIndex
 90
      256
102
RTVSPost2010Prop51ColorRGB
 90
-16777216
102
RTVSPost2010PropOp51
 70
     0
102
RTVSPost2010Prop52
140
1.0
102
RTVSPost2010PropOp52
 70
     0
102
RTVSPost2010Prop53
 90
        2
102
RTVSPost2010PropOp53
 70
     0
102
RTVSPost2010Prop54
  1
strokes_ogs.tif
102
RTVSPost2010PropOp54
 70
     0
102
RTVSPost2010Prop55
280
     0
102
RTVSPost2010PropOp55
 70
     0
102
RTVSPost2010Prop56
140
1.0
102
RTVSPost2010PropOp56
 70
     0
102
RTVSPost2010Prop57
140
1.0
102
RTVSPost2010PropOp57
 70
     0
  0
XRECORD
  5
186
102
{ACAD_REACTORS
330
185
102
}
330
185
100
AcDbXrecord
280
     1
102
RTVSPost2010Prop28
280
     0
102
RTVSPost2010PropOp28
 70
     1
102
RTVSPost2010Prop29
280
     1
102
RTVSPost2010PropOp29
 70
     1
102
RTVSPost2010Prop30
280
     1
102
RTVSPost2010PropOp30
 70
     1
102
RTVSPost2010Prop31
280
     0
102
RTVSPost2010PropOp31
 70
     1
102
RTVSPost2010Prop32
280
     0
102
RTVSPost2010PropOp32
 70
     1
102
RTVSPost2010Prop33
280
     0
102
RTVSPost2010PropOp33
 70
     1
102
RTVSPost2010Prop34
280
     0
102
RTVSPost2010PropOp34
 70
     1
102
RTVSPost2010Prop35
280
     0
102
RTVSPost2010PropOp35
 70
     1
102
RTVSPost2010Prop36
280
     0
102
RTVSPost2010PropOp36
 70
     1
102
RTVSPost2010Prop37
 90
       50
102
RTVSPost2010PropOp37
 70
     1
102
RTVSPost2010Prop38
140
0.0
102
RTVSPost2010PropOp38
 70
     1
102
RTVSPost2010Prop39
140
1.0
102
RTVSPost2010PropOp39
 70
     1
102
RTVSPost2010Prop40
 90
        0
102
RTVSPost2010PropOp40
 70
     1
102
RTVSPost2010Prop41ColorIndex
 90
       18
102
RTVSPost2010Prop41ColorRGB
 90
        0
102
RTVSPost2010PropOp41
 70
     1
102
RTVSPost2010Prop42
 90
       50
102
RTVSPost2010PropOp42
 70
     1
102
RTVSPost2010Prop43
 90
        3
102
RTVSPost2010PropOp43
 70
     1
102
RTVSPost2010Prop44ColorIndex
 90
        5
102
RTVSPost2010Prop44ColorRGB
 90
      255
102
RTVSPost2010PropOp44
 70
     1
102
RTVSPost2010Prop45
280
     0
102
RTVSPost2010PropOp45
 70
     1
102
RTVSPost2010Prop46
 90
       50
102
RTVSPost2010PropOp46
 70
     1
102
RTVSPost2010Prop47
 90
       50
102
RTVSPost2010PropOp47
 70
     1
102
RTVSPost2010Prop48
 90
       50
102
RTVSPost2010PropOp48
 70
     1
102
RTVSPost2010Prop49
280
     0
102
RTVSPost2010PropOp49
 70
     1
102
RTVSPost2010Prop50
 90
       50
102
RTVSPost2010PropOp50
 70
     1
102
RTVSPost2010Prop51ColorIndex
 90
      256
102
RTVSPost2010Prop51ColorRGB
 90
-16777216
102
RTVSPost2010PropOp51
 70
     0
102
RTVSPost2010Prop52
140
1.0
102
RTVSPost2010PropOp52
 70
     0
102
RTVSPost2010Prop53
 90
        2
102
RTVSPost2010PropOp53
 70
     1
102
RTVSPost2010Prop54
  1
strokes_ogs.tif
102
RTVSPost2010PropOp54
 70
     1
102
RTVSPost2010Prop55
280
     0
102
RTVSPost2010PropOp55
 70
     1
102
RTVSPost2010Prop56
140
1.0
102
RTVSPost2010PropOp56
 70
     1
102
RTVSPost2010Prop57
140
1.0
102
RTVSPost2010PropOp57
 70
     1
  0
XRECORD
  5
198
102
{ACAD_REACTORS
330
197
102
}
330
197
100
AcDbXrecord
280
     1
102
RTVSPost2010Prop28
280
     0
102
RTVSPost2010PropOp28
 70
     0
102
RTVSPost2010Prop29
280
     1
102
RTVSPost2010PropOp29
 70
     0
102
RTVSPost2010Prop30
280
     1
102
RTVSPost2010PropOp30
 70
     0
102
RTVSPost2010Prop31
280
     0
102
RTVSPost2010PropOp31
 70
     0
102
RTVSPost2010Prop32
280
     0
102
RTVSPost2010PropOp32
 70
     0
102
RTVSPost2010Prop33
280
     0
102
RTVSPost2010PropOp33
 70
     0
102
RTVSPost2010Prop34
280
     0
102
RTVSPost2010PropOp34
 70
     0
102
RTVSPost2010Prop35
280
     0
102
RTVSPost2010PropOp35
 70
     0
102
RTVSPost2010Prop36
280
     0
102
RTVSPost2010PropOp36
 70
     0
102
RTVSPost2010Prop37
 90
       50
102
RTVSPost2010PropOp37
 70
     0
102
RTVSPost2010Prop38
140
0.0
102
RTVSPost2010PropOp38
 70
     0
102
RTVSPost2010Prop39
140
1.0
102
RTVSPost2010PropOp39
 70
     0
102
RTVSPost2010Prop40
 90
        0
102
RTVSPost2010PropOp40
 70
     0
102
RTVSPost2010Prop41ColorIndex
 90
       18
102
RTVSPost2010Prop41ColorRGB
 90
        0
102
RTVSPost2010PropOp41
 70
     0
102
RTVSPost2010Prop42
 90
       50
102
RTVSPost2010PropOp42
 70
     0
102
RTVSPost2010Prop43
 90
        3
102
RTVSPost2010PropOp43
 70
     0
102
RTVSPost2010Prop44ColorIndex
 90
        5
102
RTVSPost2010Prop44ColorRGB
 90
      255
102
RTVSPost2010PropOp44
 70
     0
102
RTVSPost2010Prop45
280
     0
102
RTVSPost2010PropOp45
 70
     0
102
RTVSPost2010Prop46
 90
       50
102
RTVSPost2010PropOp46
 70
     0
102
RTVSPost2010Prop47
 90
       50
102
RTVSPost2010PropOp47
 70
     0
102
RTVSPost2010Prop48
 90
       50
102
RTVSPost2010PropOp48
 70
     0
102
RTVSPost2010Prop49
280
     0
102
RTVSPost2010PropOp49
 70
     0
102
RTVSPost2010Prop50
 90
       50
102
RTVSPost2010PropOp50
 70
     0
102
RTVSPost2010Prop51ColorIndex
 90
      256
102
RTVSPost2010Prop51ColorRGB
 90
-16777216
102
RTVSPost2010PropOp51
 70
     0
102
RTVSPost2010Prop52
140
1.0
102
RTVSPost2010PropOp52
 70
     0
102
RTVSPost2010Prop53
 90
        2
102
RTVSPost2010PropOp53
 70
     0
102
RTVSPost2010Prop54
  1
strokes_ogs.tif
102
RTVSPost2010PropOp54
 70
     0
102
RTVSPost2010Prop55
280
     0
102
RTVSPost2010PropOp55
 70
     0
102
RTVSPost2010Prop56
140
1.0
102
RTVSPost2010PropOp56
 70
     0
102
RTVSPost2010Prop57
140
1.0
102
RTVSPost2010PropOp57
 70
     0
  0
XRECORD
  5
17E
102
{ACAD_REACTORS
330
17D
102
}
330
17D
100
AcDbXrecord
280
     1
102
RTVSPost2010Prop28
280
     0
102
RTVSPost2010PropOp28
 70
     1
102
RTVSPost2010Prop29
280
     1
102
RTVSPost2010PropOp29
 70
     1
102
RTVSPost2010Prop30
280
     1
102
RTVSPost2010PropOp30
 70
     1
102
RTVSPost2010Prop31
280
     0
102
RTVSPost2010PropOp31
 70
     1
102
RTVSPost2010Prop32
280
     0
102
RTVSPost2010PropOp32
 70
     1
102
RTVSPost2010Prop33
280
     0
102
RTVSPost2010PropOp33
 70
     1
102
RTVSPost2010Prop34
280
     0
102
RTVSPost2010PropOp34
 70
     1
102
RTVSPost2010Prop35
280
     0
102
RTVSPost2010PropOp35
 70
     1
102
RTVSPost2010Prop36
280
     0
102
RTVSPost2010PropOp36
 70
     1
102
RTVSPost2010Prop37
 90
       50
102
RTVSPost2010PropOp37
 70
     1
102
RTVSPost2010Prop38
140
0.0
102
RTVSPost2010PropOp38
 70
     1
102
RTVSPost2010Prop39
140
1.0
102
RTVSPost2010PropOp39
 70
     1
102
RTVSPost2010Prop40
 90
        0
102
RTVSPost2010PropOp40
 70
     1
102
RTVSPost2010Prop41ColorIndex
 90
       18
102
RTVSPost2010Prop41ColorRGB
 90
        0
102
RTVSPost2010PropOp41
 70
     1
102
RTVSPost2010Prop42
 90
       50
102
RTVSPost2010PropOp42
 70
     1
102
RTVSPost2010Prop43
 90
        3
102
RTVSPost2010PropOp43
 70
     1
102
RTVSPost2010Prop44ColorIndex
 90
        5
102
RTVSPost2010Prop44ColorRGB
 90
      255
102
RTVSPost2010PropOp44
 70
     1
102
RTVSPost2010Prop45
280
     0
102
RTVSPost2010PropOp45
 70
     1
102
RTVSPost2010Prop46
 90
       50
102
RTVSPost2010PropOp46
 70
     1
102
RTVSPost2010Prop47
 90
       50
102
RTVSPost2010PropOp47
 70
     1
102
RTVSPost2010Prop48
 90
       50
102
RTVSPost2010PropOp48
 70
     1
102
RTVSPost2010Prop49
280
     0
102
RTVSPost2010PropOp49
 70
     1
102
RTVSPost2010Prop50
 90
       50
102
RTVSPost2010PropOp50
 70
     1
102
RTVSPost2010Prop51ColorIndex
 90
      256
102
RTVSPost2010Prop51ColorRGB
 90
-16777216
102
RTVSPost2010PropOp51
 70
     0
102
RTVSPost2010Prop52
140
1.0
102
RTVSPost2010PropOp52
 70
     0
102
RTVSPost2010Prop53
 90
        2
102
RTVSPost2010PropOp53
 70
     1
102
RTVSPost2010Prop54
  1
strokes_ogs.tif
102
RTVSPost2010PropOp54
 70
     1
102
RTVSPost2010Prop55
280
     0
102
RTVSPost2010PropOp55
 70
     1
102
RTVSPost2010Prop56
140
1.0
102
RTVSPost2010PropOp56
 70
     1
102
RTVSPost2010Prop57
140
1.0
102
RTVSPost2010PropOp57
 70
     1
  0
XRECORD
  5
194
102
{ACAD_REACTORS
330
193
102
}
330
193
100
AcDbXrecord
280
     1
102
RTVSPost2010Prop28
280
     0
102
RTVSPost2010PropOp28
 70
     1
102
RTVSPost2010Prop29
280
     1
102
RTVSPost2010PropOp29
 70
     1
102
RTVSPost2010Prop30
280
     1
102
RTVSPost2010PropOp30
 70
     1
102
RTVSPost2010Prop31
280
     0
102
RTVSPost2010PropOp31
 70
     1
102
RTVSPost2010Prop32
280
     0
102
RTVSPost2010PropOp32
 70
     1
102
RTVSPost2010Prop33
280
     0
102
RTVSPost2010PropOp33
 70
     1
102
RTVSPost2010Prop34
280
     0
102
RTVSPost2010PropOp34
 70
     1
102
RTVSPost2010Prop35
280
     0
102
RTVSPost2010PropOp35
 70
     1
102
RTVSPost2010Prop36
280
     0
102
RTVSPost2010PropOp36
 70
     1
102
RTVSPost2010Prop37
 90
       50
102
RTVSPost2010PropOp37
 70
     1
102
RTVSPost2010Prop38
140
0.0
102
RTVSPost2010PropOp38
 70
     1
102
RTVSPost2010Prop39
140
1.0
102
RTVSPost2010PropOp39
 70
     1
102
RTVSPost2010Prop40
 90
        0
102
RTVSPost2010PropOp40
 70
     1
102
RTVSPost2010Prop41ColorIndex
 90
       18
102
RTVSPost2010Prop41ColorRGB
 90
        0
102
RTVSPost2010PropOp41
 70
     1
102
RTVSPost2010Prop42
 90
       50
102
RTVSPost2010PropOp42
 70
     1
102
RTVSPost2010Prop43
 90
        3
102
RTVSPost2010PropOp43
 70
     1
102
RTVSPost2010Prop44ColorIndex
 90
        5
102
RTVSPost2010Prop44ColorRGB
 90
      255
102
RTVSPost2010PropOp44
 70
     1
102
RTVSPost2010Prop45
280
     0
102
RTVSPost2010PropOp45
 70
     1
102
RTVSPost2010Prop46
 90
       50
102
RTVSPost2010PropOp46
 70
     1
102
RTVSPost2010Prop47
 90
       50
102
RTVSPost2010PropOp47
 70
     1
102
RTVSPost2010Prop48
 90
       50
102
RTVSPost2010PropOp48
 70
     1
102
RTVSPost2010Prop49
280
     0
102
RTVSPost2010PropOp49
 70
     1
102
RTVSPost2010Prop50
 90
       50
102
RTVSPost2010PropOp50
 70
     1
102
RTVSPost2010Prop51ColorIndex
 90
      256
102
RTVSPost2010Prop51ColorRGB
 90
-16777216
102
RTVSPost2010PropOp51
 70
     0
102
RTVSPost2010Prop52
140
1.0
102
RTVSPost2010PropOp52
 70
     0
102
RTVSPost2010Prop53
 90
        2
102
RTVSPost2010PropOp53
 70
     1
102
RTVSPost2010Prop54
  1
strokes_ogs.tif
102
RTVSPost2010PropOp54
 70
     1
102
RTVSPost2010Prop55
280
     0
102
RTVSPost2010PropOp55
 70
     1
102
RTVSPost2010Prop56
140
1.0
102
RTVSPost2010PropOp56
 70
     1
102
RTVSPost2010Prop57
140
1.0
102
RTVSPost2010PropOp57
 70
     1
  0
XRECORD
  5
192
102
{ACAD_REACTORS
330
191
102
}
330
191
100
AcDbXrecord
280
     1
102
RTVSPost2010Prop28
280
     0
102
RTVSPost2010PropOp28
 70
     1
102
RTVSPost2010Prop29
280
     1
102
RTVSPost2010PropOp29
 70
     1
102
RTVSPost2010Prop30
280
     1
102
RTVSPost2010PropOp30
 70
     1
102
RTVSPost2010Prop31
280
     0
102
RTVSPost2010PropOp31
 70
     1
102
RTVSPost2010Prop32
280
     0
102
RTVSPost2010PropOp32
 70
     1
102
RTVSPost2010Prop33
280
     0
102
RTVSPost2010PropOp33
 70
     1
102
RTVSPost2010Prop34
280
     0
102
RTVSPost2010PropOp34
 70
     1
102
RTVSPost2010Prop35
280
     0
102
RTVSPost2010PropOp35
 70
     1
102
RTVSPost2010Prop36
280
     0
102
RTVSPost2010PropOp36
 70
     1
102
RTVSPost2010Prop37
 90
       50
102
RTVSPost2010PropOp37
 70
     1
102
RTVSPost2010Prop38
140
0.0
102
RTVSPost2010PropOp38
 70
     1
102
RTVSPost2010Prop39
140
1.0
102
RTVSPost2010PropOp39
 70
     1
102
RTVSPost2010Prop40
 90
        0
102
RTVSPost2010PropOp40
 70
     1
102
RTVSPost2010Prop41ColorIndex
 90
       18
102
RTVSPost2010Prop41ColorRGB
 90
        0
102
RTVSPost2010PropOp41
 70
     1
102
RTVSPost2010Prop42
 90
       50
102
RTVSPost2010PropOp42
 70
     1
102
RTVSPost2010Prop43
 90
        3
102
RTVSPost2010PropOp43
 70
     1
102
RTVSPost2010Prop44ColorIndex
 90
        5
102
RTVSPost2010Prop44ColorRGB
 90
      255
102
RTVSPost2010PropOp44
 70
     1
102
RTVSPost2010Prop45
280
     0
102
RTVSPost2010PropOp45
 70
     1
102
RTVSPost2010Prop46
 90
       50
102
RTVSPost2010PropOp46
 70
     1
102
RTVSPost2010Prop47
 90
       50
102
RTVSPost2010PropOp47
 70
     1
102
RTVSPost2010Prop48
 90
       50
102
RTVSPost2010PropOp48
 70
     1
102
RTVSPost2010Prop49
280
     0
102
RTVSPost2010PropOp49
 70
     1
102
RTVSPost2010Prop50
 90
       50
102
RTVSPost2010PropOp50
 70
     1
102
RTVSPost2010Prop51ColorIndex
 90
      256
102
RTVSPost2010Prop51ColorRGB
 90
-16777216
102
RTVSPost2010PropOp51
 70
     0
102
RTVSPost2010Prop52
140
1.0
102
RTVSPost2010PropOp52
 70
     0
102
RTVSPost2010Prop53
 90
        2
102
RTVSPost2010PropOp53
 70
     1
102
RTVSPost2010Prop54
  1
strokes_ogs.tif
102
RTVSPost2010PropOp54
 70
     1
102
RTVSPost2010Prop55
280
     0
102
RTVSPost2010PropOp55
 70
     1
102
RTVSPost2010Prop56
140
1.0
102
RTVSPost2010PropOp56
 70
     1
102
RTVSPost2010Prop57
140
1.0
102
RTVSPost2010PropOp57
 70
     1
  0
XRECORD
  5
18C
102
{ACAD_REACTORS
330
18B
102
}
330
18B
100
AcDbXrecord
280
     1
102
RTVSPost2010Prop28
280
     0
102
RTVSPost2010PropOp28
 70
     1
102
RTVSPost2010Prop29
280
     1
102
RTVSPost2010PropOp29
 70
     1
102
RTVSPost2010Prop30
280
     1
102
RTVSPost2010PropOp30
 70
     1
102
RTVSPost2010Prop31
280
     0
102
RTVSPost2010PropOp31
 70
     1
102
RTVSPost2010Prop32
280
     0
102
RTVSPost2010PropOp32
 70
     1
102
RTVSPost2010Prop33
280
     0
102
RTVSPost2010PropOp33
 70
     1
102
RTVSPost2010Prop34
280
     0
102
RTVSPost2010PropOp34
 70
     1
102
RTVSPost2010Prop35
280
     0
102
RTVSPost2010PropOp35
 70
     1
102
RTVSPost2010Prop36
280
     0
102
RTVSPost2010PropOp36
 70
     1
102
RTVSPost2010Prop37
 90
       50
102
RTVSPost2010PropOp37
 70
     1
102
RTVSPost2010Prop38
140
0.0
102
RTVSPost2010PropOp38
 70
     1
102
RTVSPost2010Prop39
140
1.0
102
RTVSPost2010PropOp39
 70
     1
102
RTVSPost2010Prop40
 90
        0
102
RTVSPost2010PropOp40
 70
     1
102
RTVSPost2010Prop41ColorIndex
 90
       18
102
RTVSPost2010Prop41ColorRGB
 90
        0
102
RTVSPost2010PropOp41
 70
     1
102
RTVSPost2010Prop42
 90
       50
102
RTVSPost2010PropOp42
 70
     1
102
RTVSPost2010Prop43
 90
        3
102
RTVSPost2010PropOp43
 70
     1
102
RTVSPost2010Prop44ColorIndex
 90
        5
102
RTVSPost2010Prop44ColorRGB
 90
      255
102
RTVSPost2010PropOp44
 70
     1
102
RTVSPost2010Prop45
280
     0
102
RTVSPost2010PropOp45
 70
     1
102
RTVSPost2010Prop46
 90
       50
102
RTVSPost2010PropOp46
 70
     1
102
RTVSPost2010Prop47
 90
       50
102
RTVSPost2010PropOp47
 70
     1
102
RTVSPost2010Prop48
 90
       50
102
RTVSPost2010PropOp48
 70
     1
102
RTVSPost2010Prop49
280
     0
102
RTVSPost2010PropOp49
 70
     1
102
RTVSPost2010Prop50
 90
       50
102
RTVSPost2010PropOp50
 70
     1
102
RTVSPost2010Prop51ColorIndex
 90
      256
102
RTVSPost2010Prop51ColorRGB
 90
-16777216
102
RTVSPost2010PropOp51
 70
     0
102
RTVSPost2010Prop52
140
1.0
102
RTVSPost2010PropOp52
 70
     0
102
RTVSPost2010Prop53
 90
        2
102
RTVSPost2010PropOp53
 70
     1
102
RTVSPost2010Prop54
  1
strokes_ogs.tif
102
RTVSPost2010PropOp54
 70
     1
102
RTVSPost2010Prop55
280
     0
102
RTVSPost2010PropOp55
 70
     1
102
RTVSPost2010Prop56
140
1.0
102
RTVSPost2010PropOp56
 70
     1
102
RTVSPost2010Prop57
140
1.0
102
RTVSPost2010PropOp57
 70
     1
  0
XRECORD
  5
18E
102
{ACAD_REACTORS
330
18D
102
}
330
18D
100
AcDbXrecord
280
     1
102
RTVSPost2010Prop28
280
     0
102
RTVSPost2010PropOp28
 70
     1
102
RTVSPost2010Prop29
280
     1
102
RTVSPost2010PropOp29
 70
     1
102
RTVSPost2010Prop30
280
     1
102
RTVSPost2010PropOp30
 70
     1
102
RTVSPost2010Prop31
280
     0
102
RTVSPost2010PropOp31
 70
     1
102
RTVSPost2010Prop32
280
     0
102
RTVSPost2010PropOp32
 70
     1
102
RTVSPost2010Prop33
280
     0
102
RTVSPost2010PropOp33
 70
     1
102
RTVSPost2010Prop34
280
     0
102
RTVSPost2010PropOp34
 70
     1
102
RTVSPost2010Prop35
280
     0
102
RTVSPost2010PropOp35
 70
     1
102
RTVSPost2010Prop36
280
     0
102
RTVSPost2010PropOp36
 70
     1
102
RTVSPost2010Prop37
 90
       50
102
RTVSPost2010PropOp37
 70
     1
102
RTVSPost2010Prop38
140
0.0
102
RTVSPost2010PropOp38
 70
     1
102
RTVSPost2010Prop39
140
1.0
102
RTVSPost2010PropOp39
 70
     1
102
RTVSPost2010Prop40
 90
        0
102
RTVSPost2010PropOp40
 70
     1
102
RTVSPost2010Prop41ColorIndex
 90
       18
102
RTVSPost2010Prop41ColorRGB
 90
        0
102
RTVSPost2010PropOp41
 70
     1
102
RTVSPost2010Prop42
 90
       50
102
RTVSPost2010PropOp42
 70
     1
102
RTVSPost2010Prop43
 90
        3
102
RTVSPost2010PropOp43
 70
     1
102
RTVSPost2010Prop44ColorIndex
 90
        5
102
RTVSPost2010Prop44ColorRGB
 90
      255
102
RTVSPost2010PropOp44
 70
     1
102
RTVSPost2010Prop45
280
     0
102
RTVSPost2010PropOp45
 70
     1
102
RTVSPost2010Prop46
 90
       50
102
RTVSPost2010PropOp46
 70
     1
102
RTVSPost2010Prop47
 90
       50
102
RTVSPost2010PropOp47
 70
     1
102
RTVSPost2010Prop48
 90
       50
102
RTVSPost2010PropOp48
 70
     1
102
RTVSPost2010Prop49
280
     0
102
RTVSPost2010PropOp49
 70
     1
102
RTVSPost2010Prop50
 90
       50
102
RTVSPost2010PropOp50
 70
     1
102
RTVSPost2010Prop51ColorIndex
 90
      256
102
RTVSPost2010Prop51ColorRGB
 90
-16777216
102
RTVSPost2010PropOp51
 70
     0
102
RTVSPost2010Prop52
140
1.0
102
RTVSPost2010PropOp52
 70
     0
102
RTVSPost2010Prop53
 90
        2
102
RTVSPost2010PropOp53
 70
     1
102
RTVSPost2010Prop54
  1
strokes_ogs.tif
102
RTVSPost2010PropOp54
 70
     1
102
RTVSPost2010Prop55
280
     0
102
RTVSPost2010PropOp55
 70
     1
102
RTVSPost2010Prop56
140
1.0
102
RTVSPost2010PropOp56
 70
     1
102
RTVSPost2010Prop57
140
1.0
102
RTVSPost2010PropOp57
 70
     1
  0
XRECORD
  5
184
102
{ACAD_REACTORS
330
183
102
}
330
183
100
AcDbXrecord
280
     1
102
RTVSPost2010Prop28
280
     0
102
RTVSPost2010PropOp28
 70
     1
102
RTVSPost2010Prop29
280
     1
102
RTVSPost2010PropOp29
 70
     1
102
RTVSPost2010Prop30
280
     1
102
RTVSPost2010PropOp30
 70
     1
102
RTVSPost2010Prop31
280
     0
102
RTVSPost2010PropOp31
 70
     1
102
RTVSPost2010Prop32
280
     0
102
RTVSPost2010PropOp32
 70
     1
102
RTVSPost2010Prop33
280
     0
102
RTVSPost2010PropOp33
 70
     1
102
RTVSPost2010Prop34
280
     0
102
RTVSPost2010PropOp34
 70
     1
102
RTVSPost2010Prop35
280
     0
102
RTVSPost2010PropOp35
 70
     1
102
RTVSPost2010Prop36
280
     0
102
RTVSPost2010PropOp36
 70
     1
102
RTVSPost2010Prop37
 90
       50
102
RTVSPost2010PropOp37
 70
     1
102
RTVSPost2010Prop38
140
0.0
102
RTVSPost2010PropOp38
 70
     1
102
RTVSPost2010Prop39
140
1.0
102
RTVSPost2010PropOp39
 70
     1
102
RTVSPost2010Prop40
 90
        0
102
RTVSPost2010PropOp40
 70
     1
102
RTVSPost2010Prop41ColorIndex
 90
       18
102
RTVSPost2010Prop41ColorRGB
 90
        0
102
RTVSPost2010PropOp41
 70
     1
102
RTVSPost2010Prop42
 90
       50
102
RTVSPost2010PropOp42
 70
     1
102
RTVSPost2010Prop43
 90
        3
102
RTVSPost2010PropOp43
 70
     1
102
RTVSPost2010Prop44ColorIndex
 90
        5
102
RTVSPost2010Prop44ColorRGB
 90
      255
102
RTVSPost2010PropOp44
 70
     1
102
RTVSPost2010Prop45
280
     0
102
RTVSPost2010PropOp45
 70
     1
102
RTVSPost2010Prop46
 90
       50
102
RTVSPost2010PropOp46
 70
     1
102
RTVSPost2010Prop47
 90
       50
102
RTVSPost2010PropOp47
 70
     1
102
RTVSPost2010Prop48
 90
       50
102
RTVSPost2010PropOp48
 70
     1
102
RTVSPost2010Prop49
280
     0
102
RTVSPost2010PropOp49
 70
     1
102
RTVSPost2010Prop50
 90
       50
102
RTVSPost2010PropOp50
 70
     1
102
RTVSPost2010Prop51ColorIndex
 90
      256
102
RTVSPost2010Prop51ColorRGB
 90
-16777216
102
RTVSPost2010PropOp51
 70
     0
102
RTVSPost2010Prop52
140
1.0
102
RTVSPost2010PropOp52
 70
     0
102
RTVSPost2010Prop53
 90
        2
102
RTVSPost2010PropOp53
 70
     1
102
RTVSPost2010Prop54
  1
strokes_ogs.tif
102
RTVSPost2010PropOp54
 70
     1
102
RTVSPost2010Prop55
280
     0
102
RTVSPost2010PropOp55
 70
     1
102
RTVSPost2010Prop56
140
1.0
102
RTVSPost2010PropOp56
 70
     1
102
RTVSPost2010Prop57
140
1.0
102
RTVSPost2010PropOp57
 70
     1
  0
XRECORD
  5
178
102
{ACAD_REACTORS
330
177
102
}
330
177
100
AcDbXrecord
280
     1
102
RTVSPost2010Prop28
280
     0
102
RTVSPost2010PropOp28
 70
     1
102
RTVSPost2010Prop29
280
     1
102
RTVSPost2010PropOp29
 70
     1
102
RTVSPost2010Prop30
280
     1
102
RTVSPost2010PropOp30
 70
     1
102
RTVSPost2010Prop31
280
     0
102
RTVSPost2010PropOp31
 70
     1
102
RTVSPost2010Prop32
280
     0
102
RTVSPost2010PropOp32
 70
     1
102
RTVSPost2010Prop33
280
     0
102
RTVSPost2010PropOp33
 70
     1
102
RTVSPost2010Prop34
280
     0
102
RTVSPost2010PropOp34
 70
     1
102
RTVSPost2010Prop35
280
     0
102
RTVSPost2010PropOp35
 70
     1
102
RTVSPost2010Prop36
280
     0
102
RTVSPost2010PropOp36
 70
     1
102
RTVSPost2010Prop37
 90
       50
102
RTVSPost2010PropOp37
 70
     1
102
RTVSPost2010Prop38
140
0.0
102
RTVSPost2010PropOp38
 70
     1
102
RTVSPost2010Prop39
140
1.0
102
RTVSPost2010PropOp39
 70
     1
102
RTVSPost2010Prop40
 90
        0
102
RTVSPost2010PropOp40
 70
     1
102
RTVSPost2010Prop41ColorIndex
 90
       18
102
RTVSPost2010Prop41ColorRGB
 90
        0
102
RTVSPost2010PropOp41
 70
     1
102
RTVSPost2010Prop42
 90
       50
102
RTVSPost2010PropOp42
 70
     1
102
RTVSPost2010Prop43
 90
        3
102
RTVSPost2010PropOp43
 70
     1
102
RTVSPost2010Prop44ColorIndex
 90
        5
102
RTVSPost2010Prop44ColorRGB
 90
      255
102
RTVSPost2010PropOp44
 70
     1
102
RTVSPost2010Prop45
280
     0
102
RTVSPost2010PropOp45
 70
     1
102
RTVSPost2010Prop46
 90
       50
102
RTVSPost2010PropOp46
 70
     1
102
RTVSPost2010Prop47
 90
       50
102
RTVSPost2010PropOp47
 70
     1
102
RTVSPost2010Prop48
 90
       50
102
RTVSPost2010PropOp48
 70
     1
102
RTVSPost2010Prop49
280
     0
102
RTVSPost2010PropOp49
 70
     1
102
RTVSPost2010Prop50
 90
       50
102
RTVSPost2010PropOp50
 70
     1
102
RTVSPost2010Prop51ColorIndex
 90
      256
102
RTVSPost2010Prop51ColorRGB
 90
-16777216
102
RTVSPost2010PropOp51
 70
     0
102
RTVSPost2010Prop52
140
1.0
102
RTVSPost2010PropOp52
 70
     0
102
RTVSPost2010Prop53
 90
        2
102
RTVSPost2010PropOp53
 70
     1
102
RTVSPost2010Prop54
  1
strokes_ogs.tif
102
RTVSPost2010PropOp54
 70
     1
102
RTVSPost2010Prop55
280
     0
102
RTVSPost2010PropOp55
 70
     1
102
RTVSPost2010Prop56
140
1.0
102
RTVSPost2010PropOp56
 70
     1
102
RTVSPost2010Prop57
140
1.0
102
RTVSPost2010PropOp57
 70
     1
  0
XRECORD
  5
190
102
{ACAD_REACTORS
330
18F
102
}
330
18F
100
AcDbXrecord
280
     1
102
RTVSPost2010Prop28
280
     0
102
RTVSPost2010PropOp28
 70
     1
102
RTVSPost2010Prop29
280
     1
102
RTVSPost2010PropOp29
 70
     1
102
RTVSPost2010Prop30
280
     1
102
RTVSPost2010PropOp30
 70
     1
102
RTVSPost2010Prop31
280
     0
102
RTVSPost2010PropOp31
 70
     1
102
RTVSPost2010Prop32
280
     0
102
RTVSPost2010PropOp32
 70
     1
102
RTVSPost2010Prop33
280
     0
102
RTVSPost2010PropOp33
 70
     1
102
RTVSPost2010Prop34
280
     0
102
RTVSPost2010PropOp34
 70
     1
102
RTVSPost2010Prop35
280
     0
102
RTVSPost2010PropOp35
 70
     1
102
RTVSPost2010Prop36
280
     0
102
RTVSPost2010PropOp36
 70
     1
102
RTVSPost2010Prop37
 90
       50
102
RTVSPost2010PropOp37
 70
     1
102
RTVSPost2010Prop38
140
0.0
102
RTVSPost2010PropOp38
 70
     1
102
RTVSPost2010Prop39
140
1.0
102
RTVSPost2010PropOp39
 70
     1
102
RTVSPost2010Prop40
 90
        0
102
RTVSPost2010PropOp40
 70
     1
102
RTVSPost2010Prop41ColorIndex
 90
       18
102
RTVSPost2010Prop41ColorRGB
 90
        0
102
RTVSPost2010PropOp41
 70
     1
102
RTVSPost2010Prop42
 90
       50
102
RTVSPost2010PropOp42
 70
     1
102
RTVSPost2010Prop43
 90
        3
102
RTVSPost2010PropOp43
 70
     1
102
RTVSPost2010Prop44ColorIndex
 90
        5
102
RTVSPost2010Prop44ColorRGB
 90
      255
102
RTVSPost2010PropOp44
 70
     1
102
RTVSPost2010Prop45
280
     0
102
RTVSPost2010PropOp45
 70
     1
102
RTVSPost2010Prop46
 90
       50
102
RTVSPost2010PropOp46
 70
     1
102
RTVSPost2010Prop47
 90
       50
102
RTVSPost2010PropOp47
 70
     1
102
RTVSPost2010Prop48
 90
       50
102
RTVSPost2010PropOp48
 70
     1
102
RTVSPost2010Prop49
280
     0
102
RTVSPost2010PropOp49
 70
     1
102
RTVSPost2010Prop50
 90
       50
102
RTVSPost2010PropOp50
 70
     1
102
RTVSPost2010Prop51ColorIndex
 90
      256
102
RTVSPost2010Prop51ColorRGB
 90
-16777216
102
RTVSPost2010PropOp51
 70
     0
102
RTVSPost2010Prop52
140
1.0
102
RTVSPost2010PropOp52
 70
     0
102
RTVSPost2010Prop53
 90
        2
102
RTVSPost2010PropOp53
 70
     1
102
RTVSPost2010Prop54
  1
strokes_ogs.tif
102
RTVSPost2010PropOp54
 70
     1
102
RTVSPost2010Prop55
280
     0
102
RTVSPost2010PropOp55
 70
     1
102
RTVSPost2010Prop56
140
1.0
102
RTVSPost2010PropOp56
 70
     1
102
RTVSPost2010Prop57
140
1.0
102
RTVSPost2010PropOp57
 70
     1
  0
ENDSEC
  0
EOF
