  0
SECTION
  2
HEADER
  9
$ACADVER
  1
AC1024
  9
$ACADMAINTVER
 70
   205
  9
$DWGCODEPAGE
  3
ANSI_1251
  9
$INSBASE
 10
0.0
 20
0.0
 30
0.0
  9
$EXTMIN
 10
1.000000000000000E+20
 20
1.000000000000000E+20
 30
1.000000000000000E+20
  9
$EXTMAX
 10
-1.000000000000000E+20
 20
-1.000000000000000E+20
 30
-1.000000000000000E+20
  9
$LIMMIN
 10
0.0
 20
0.0
  9
$LIMMAX
 10
12.0
 20
9.0
  9
$ORTHOMODE
 70
     0
  9
$REGENMODE
 70
     1
  9
$FILLMODE
 70
     1
  9
$QTEXTMODE
 70
     0
  9
$MIRRTEXT
 70
     1
  9
$LTSCALE
 40
1.0
  9
$ATTMODE
 70
     1
  9
$TEXTSIZE
 40
0.2
  9
$TRACEWID
 40
0.05
  9
$TEXTSTYLE
  7
Standard
  9
$CLAYER
  8
OracDecor_cornice_mouldings
  9
$CELTYPE
  6
ByLayer
  9
$CECOLOR
 62
   256
  9
$CELTSCALE
 40
1.0
  9
$DISPSILH
 70
     0
  9
$DIMSCALE
 40
1.0
  9
$DIMASZ
 40
0.18
  9
$DIMEXO
 40
0.0625
  9
$DIMDLI
 40
0.38
  9
$DIMRND
 40
0.0
  9
$DIMDLE
 40
0.0
  9
$DIMEXE
 40
0.18
  9
$DIMTP
 40
0.0
  9
$DIMTM
 40
0.0
  9
$DIMTXT
 40
0.18
  9
$DIMCEN
 40
0.09
  9
$DIMTSZ
 40
0.0
  9
$DIMTOL
 70
     0
  9
$DIMLIM
 70
     0
  9
$DIMTIH
 70
     1
  9
$DIMTOH
 70
     1
  9
$DIMSE1
 70
     0
  9
$DIMSE2
 70
     0
  9
$DIMTAD
 70
     0
  9
$DIMZIN
 70
     0
  9
$DIMBLK
  1

  9
$DIMASO
 70
     1
  9
$DIMSHO
 70
     1
  9
$DIMPOST
  1

  9
$DIMAPOST
  1

  9
$DIMALT
 70
     0
  9
$DIMALTD
 70
     2
  9
$DIMALTF
 40
25.4
  9
$DIMLFAC
 40
1.0
  9
$DIMTOFL
 70
     0
  9
$DIMTVP
 40
0.0
  9
$DIMTIX
 70
     0
  9
$DIMSOXD
 70
     0
  9
$DIMSAH
 70
     0
  9
$DIMBLK1
  1

  9
$DIMBLK2
  1

  9
$DIMSTYLE
  2
Standard
  9
$DIMCLRD
 70
     0
  9
$DIMCLRE
 70
     0
  9
$DIMCLRT
 70
     0
  9
$DIMTFAC
 40
1.0
  9
$DIMGAP
 40
0.09
  9
$DIMJUST
 70
     0
  9
$DIMSD1
 70
     0
  9
$DIMSD2
 70
     0
  9
$DIMTOLJ
 70
     1
  9
$DIMTZIN
 70
     0
  9
$DIMALTZ
 70
     0
  9
$DIMALTTZ
 70
     0
  9
$DIMUPT
 70
     0
  9
$DIMDEC
 70
     4
  9
$DIMTDEC
 70
     4
  9
$DIMALTU
 70
     2
  9
$DIMALTTD
 70
     2
  9
$DIMTXSTY
  7
Standard
  9
$DIMAUNIT
 70
     0
  9
$DIMADEC
 70
     0
  9
$DIMALTRND
 40
0.0
  9
$DIMAZIN
 70
     0
  9
$DIMDSEP
 70
    46
  9
$DIMATFIT
 70
     3
  9
$DIMFRAC
 70
     0
  9
$DIMLDRBLK
  1

  9
$DIMLUNIT
 70
     2
  9
$DIMLWD
 70
    -2
  9
$DIMLWE
 70
    -2
  9
$DIMTMOVE
 70
     0
  9
$DIMFXL
 40
1.0
  9
$DIMFXLON
 70
     0
  9
$DIMJOGANG
 40
0.7853981633974483
  9
$DIMTFILL
 70
     0
  9
$DIMTFILLCLR
 70
     0
  9
$DIMARCSYM
 70
     0
  9
$DIMLTYPE
  6

  9
$DIMLTEX1
  6

  9
$DIMLTEX2
  6

  9
$DIMTXTDIRECTION
 70
     0
  9
$LUNITS
 70
     2
  9
$LUPREC
 70
     4
  9
$SKETCHINC
 40
0.1
  9
$FILLETRAD
 40
0.5
  9
$AUNITS
 70
     0
  9
$AUPREC
 70
     0
  9
$MENU
  1
.
  9
$ELEVATION
 40
0.0
  9
$PELEVATION
 40
0.0
  9
$THICKNESS
 40
0.0
  9
$LIMCHECK
 70
     0
  9
$CHAMFERA
 40
0.5
  9
$CHAMFERB
 40
0.5
  9
$CHAMFERC
 40
1.0
  9
$CHAMFERD
 40
0.0
  9
$SKPOLY
 70
     0
  9
$TDCREATE
 40
2451380.930432396
  9
$TDUCREATE
 40
2451380.805432396
  9
$TDUPDATE
 40
2451380.966180555
  9
$TDUUPDATE
 40
2451380.841180556
  9
$TDINDWG
 40
0.0075633796
  9
$TDUSRTIMER
 40
0.0075543403
  9
$USRTIMER
 70
     1
  9
$ANGBASE
 50
0.0
  9
$ANGDIR
 70
     0
  9
$PDMODE
 70
     0
  9
$PDSIZE
 40
0.0
  9
$PLINEWID
 40
0.0
  9
$SPLFRAME
 70
     0
  9
$SPLINETYPE
 70
     6
  9
$SPLINESEGS
 70
     8
  9
$HANDSEED
  5
193
  9
$SURFTAB1
 70
     6
  9
$SURFTAB2
 70
     6
  9
$SURFTYPE
 70
     6
  9
$SURFU
 70
     6
  9
$SURFV
 70
     6
  9
$UCSBASE
  2

  9
$UCSNAME
  2

  9
$UCSORG
 10
0.0
 20
0.0
 30
0.0
  9
$UCSXDIR
 10
1.0
 20
0.0
 30
0.0
  9
$UCSYDIR
 10
0.0
 20
1.0
 30
0.0
  9
$UCSORTHOREF
  2

  9
$UCSORTHOVIEW
 70
     0
  9
$UCSORGTOP
 10
0.0
 20
0.0
 30
0.0
  9
$UCSORGBOTTOM
 10
0.0
 20
0.0
 30
0.0
  9
$UCSORGLEFT
 10
0.0
 20
0.0
 30
0.0
  9
$UCSORGRIGHT
 10
0.0
 20
0.0
 30
0.0
  9
$UCSORGFRONT
 10
0.0
 20
0.0
 30
0.0
  9
$UCSORGBACK
 10
0.0
 20
0.0
 30
0.0
  9
$PUCSBASE
  2

  9
$PUCSNAME
  2

  9
$PUCSORG
 10
0.0
 20
0.0
 30
0.0
  9
$PUCSXDIR
 10
1.0
 20
0.0
 30
0.0
  9
$PUCSYDIR
 10
0.0
 20
1.0
 30
0.0
  9
$PUCSORTHOREF
  2

  9
$PUCSORTHOVIEW
 70
     0
  9
$PUCSORGTOP
 10
0.0
 20
0.0
 30
0.0
  9
$PUCSORGBOTTOM
 10
0.0
 20
0.0
 30
0.0
  9
$PUCSORGLEFT
 10
0.0
 20
0.0
 30
0.0
  9
$PUCSORGRIGHT
 10
0.0
 20
0.0
 30
0.0
  9
$PUCSORGFRONT
 10
0.0
 20
0.0
 30
0.0
  9
$PUCSORGBACK
 10
0.0
 20
0.0
 30
0.0
  9
$USERI1
 70
     0
  9
$USERI2
 70
     0
  9
$USERI3
 70
     0
  9
$USERI4
 70
     0
  9
$USERI5
 70
     0
  9
$USERR1
 40
0.0
  9
$USERR2
 40
0.0
  9
$USERR3
 40
0.0
  9
$USERR4
 40
0.0
  9
$USERR5
 40
0.0
  9
$WORLDVIEW
 70
     1
  9
$SHADEDGE
 70
     3
  9
$SHADEDIF
 70
    70
  9
$TILEMODE
 70
     1
  9
$MAXACTVP
 70
    64
  9
$PINSBASE
 10
0.0
 20
0.0
 30
0.0
  9
$PLIMCHECK
 70
     0
  9
$PEXTMIN
 10
1.000000000000000E+20
 20
1.000000000000000E+20
 30
1.000000000000000E+20
  9
$PEXTMAX
 10
-1.000000000000000E+20
 20
-1.000000000000000E+20
 30
-1.000000000000000E+20
  9
$PLIMMIN
 10
0.0
 20
0.0
  9
$PLIMMAX
 10
12.0
 20
9.0
  9
$UNITMODE
 70
     0
  9
$VISRETAIN
 70
     1
  9
$PLINEGEN
 70
     0
  9
$PSLTSCALE
 70
     1
  9
$TREEDEPTH
 70
  3020
  9
$CMLSTYLE
  2
Standard
  9
$CMLJUST
 70
     0
  9
$CMLSCALE
 40
1.0
  9
$PROXYGRAPHICS
 70
     1
  9
$MEASUREMENT
 70
     1
  9
$CELWEIGHT
370
    -1
  9
$ENDCAPS
280
     0
  9
$JOINSTYLE
280
     0
  9
$LWDISPLAY
290
     0
  9
$INSUNITS
 70
     4
  9
$HYPERLINKBASE
  1

  9
$STYLESHEET
  1

  9
$XEDIT
290
     1
  9
$CEPSNTYPE
380
     0
  9
$PSTYLEMODE
290
     1
  9
$FINGERPRINTGUID
  2
{12F50282-3ED8-11D3-A8B7-0060B0F84BC6}
  9
$VERSIONGUID
  2
{12F50293-3ED8-11D3-A8B7-0060B0F84BC6}
  9
$EXTNAMES
290
     1
  9
$PSVPSCALE
 40
0.0
  9
$OLESTARTUP
290
     0
  9
$SORTENTS
280
   127
  9
$INDEXCTL
280
     0
  9
$HIDETEXT
280
     0
  9
$XCLIPFRAME
280
     2
  9
$HALOGAP
280
     0
  9
$OBSCOLOR
 70
   257
  9
$OBSLTYPE
280
     0
  9
$INTERSECTIONDISPLAY
280
     0
  9
$INTERSECTIONCOLOR
 70
   257
  9
$DIMASSOC
280
     1
  9
$PROJECTNAME
  1

  9
$CAMERADISPLAY
290
     0
  9
$LENSLENGTH
 40
50.0
  9
$CAMERAHEIGHT
 40
0.0
  9
$STEPSPERSEC
 40
2.0
  9
$STEPSIZE
 40
6.0
  9
$3DDWFPREC
 40
2.0
  9
$PSOLWIDTH
 40
0.25
  9
$PSOLHEIGHT
 40
4.0
  9
$LOFTANG1
 40
1.570796326794896
  9
$LOFTANG2
 40
1.570796326794896
  9
$LOFTMAG1
 40
0.0
  9
$LOFTMAG2
 40
0.0
  9
$LOFTPARAM
 70
     7
  9
$LOFTNORMALS
280
     1
  9
$LATITUDE
 40
37.795
  9
$LONGITUDE
 40
-122.394
  9
$NORTHDIRECTION
 40
0.0
  9
$TIMEZONE
 70
 -8000
  9
$LIGHTGLYPHDISPLAY
280
     1
  9
$TILEMODELIGHTSYNCH
280
     1
  9
$CMATERIAL
347
AB
  9
$SOLIDHIST
280
     0
  9
$SHOWHIST
280
     1
  9
$DWFFRAME
280
     2
  9
$DGNFRAME
280
     0
  9
$REALWORLDSCALE
290
     1
  9
$INTERFERECOLOR
 62
     1
  9
$INTERFEREOBJVS
345
CD
  9
$INTERFEREVPVS
346
CA
  9
$CSHADOW
280
     0
  9
$SHADOWPLANELOCATION
 40
0.0
  0
ENDSEC
  0
SECTION
  2
CLASSES
  0
CLASS
  1
ACDBDICTIONARYWDFLT
  2
AcDbDictionaryWithDefault
  3
ObjectDBX Classes
 90
        0
 91
        1
280
     0
281
     0
  0
CLASS
  1
ACDBPLACEHOLDER
  2
AcDbPlaceHolder
  3
ObjectDBX Classes
 90
        0
 91
        2
280
     0
281
     0
  0
CLASS
  1
LAYOUT
  2
AcDbLayout
  3
ObjectDBX Classes
 90
        0
 91
        3
280
     0
281
     0
  0
CLASS
  1
MATERIAL
  2
AcDbMaterial
  3
ObjectDBX Classes
 90
     1153
 91
        3
280
     0
281
     0
  0
CLASS
  1
VISUALSTYLE
  2
AcDbVisualStyle
  3
ObjectDBX Classes
 90
     4095
 91
       24
280
     0
281
     0
  0
CLASS
  1
TABLESTYLE
  2
AcDbTableStyle
  3
ObjectDBX Classes
 90
     4095
 91
        1
280
     0
281
     0
  0
CLASS
  1
SCALE
  2
AcDbScale
  3
ObjectDBX Classes
 90
     1153
 91
       17
280
     0
281
     0
  0
CLASS
  1
MLEADERSTYLE
  2
AcDbMLeaderStyle
  3
ACDB_MLEADERSTYLE_CLASS
 90
     4095
 91
        1
280
     0
281
     0
  0
CLASS
  1
ACDBSECTIONVIEWSTYLE
  2
AcDbSectionViewStyle
  3
ObjectDBX Classes
 90
     1025
 91
        1
280
     0
281
     0
  0
CLASS
  1
ACDBDETAILVIEWSTYLE
  2
AcDbDetailViewStyle
  3
ObjectDBX Classes
 90
     1025
 91
        1
280
     0
281
     0
  0
CLASS
  1
MESH
  2
AcDbSubDMesh
  3
ObjectDBX Classes
 90
        0
 91
        1
280
     0
281
     1
  0
CLASS
  1
DICTIONARYVAR
  2
AcDbDictionaryVar
  3
ObjectDBX Classes
 90
        0
 91
        9
280
     0
281
     0
  0
CLASS
  1
CELLSTYLEMAP
  2
AcDbCellStyleMap
  3
ObjectDBX Classes
 90
     1152
 91
        1
280
     0
281
     0
  0
ENDSEC
  0
SECTION
  2
TABLES
  0
TABLE
  2
VPORT
  5
8
330
0
100
AcDbSymbolTable
 70
     1
  0
VPORT
  5
A8
330
8
100
AcDbSymbolTableRecord
100
AcDbViewportTableRecord
  2
*Active
 70
     0
 10
0.0
 20
0.0
 11
1.0
 21
1.0
 12
-0.0000161843909154
 22
-48.15697860717773
 13
0.0
 23
0.0
 14
0.5
 24
0.5
 15
0.5
 25
0.5
 16
-1.0
 26
-1.0
 36
1.0
 17
0.0
 27
0.0
 37
0.0
 40
1235.919982642759
 41
1.566738537766971
 42
50.0
 43
0.0
 44
0.0
 50
0.0
 51
0.0
 71
     0
 72
   100
 73
     1
 74
     3
 75
     0
 76
     0
 77
     0
 78
     0
281
     0
 65
     1
110
0.0
120
0.0
130
0.0
111
1.0
121
0.0
131
0.0
112
0.0
122
1.0
132
0.0
 79
     0
146
0.0
348
C9
 60
     3
 61
     5
292
     1
282
     1
141
0.0
142
0.0
 63
   250
421
  3355443
  0
ENDTAB
  0
TABLE
  2
LTYPE
  5
5
330
0
100
AcDbSymbolTable
 70
     1
  0
LTYPE
  5
14
330
5
100
AcDbSymbolTableRecord
100
AcDbLinetypeTableRecord
  2
ByBlock
 70
     0
  3

 72
    65
 73
     0
 40
0.0
  0
LTYPE
  5
15
330
5
100
AcDbSymbolTableRecord
100
AcDbLinetypeTableRecord
  2
ByLayer
 70
     0
  3

 72
    65
 73
     0
 40
0.0
  0
LTYPE
  5
16
330
5
100
AcDbSymbolTableRecord
100
AcDbLinetypeTableRecord
  2
Continuous
 70
     0
  3
Solid line
 72
    65
 73
     0
 40
0.0
  0
ENDTAB
  0
TABLE
  2
LAYER
  5
2
330
0
100
AcDbSymbolTable
 70
     3
  0
LAYER
  5
10
330
2
100
AcDbSymbolTableRecord
100
AcDbLayerTableRecord
  2
0
 70
     0
 62
     7
  6
Continuous
370
    -3
390
F
347
BB
  0
LAYER
  5
2B
330
2
100
AcDbSymbolTableRecord
100
AcDbLayerTableRecord
  2
ASHADE
 70
     4
 62
     7
  6
Continuous
370
    -3
390
2D
347
BB
  0
LAYER
  5
F8
330
2
100
AcDbSymbolTableRecord
100
AcDbLayerTableRecord
  2
OracDecor_cornice_mouldings
 70
     0
 62
   201
420
 13998821
  6
Continuous
370
    -3
390
F
347
BB
  0
ENDTAB
  0
TABLE
  2
STYLE
  5
3
330
0
100
AcDbSymbolTable
 70
     2
  0
STYLE
  5
11
330
3
100
AcDbSymbolTableRecord
100
AcDbTextStyleTableRecord
  2
Standard
 70
     0
 40
0.0
 41
1.0
 50
0.0
 71
     0
 42
0.2
  3
txt
  4

  0
STYLE
  5
2C
330
3
100
AcDbSymbolTableRecord
100
AcDbTextStyleTableRecord
  2
ASHADE
 70
     0
 40
0.2
 41
1.0
 50
0.0
 71
     0
 42
0.2
  3
simplex
  4

  0
ENDTAB
  0
TABLE
  2
VIEW
  5
6
330
0
100
AcDbSymbolTable
 70
     0
  0
ENDTAB
  0
TABLE
  2
UCS
  5
7
330
0
100
AcDbSymbolTable
 70
     0
  0
ENDTAB
  0
TABLE
  2
APPID
  5
9
330
0
100
AcDbSymbolTable
 70
     6
  0
APPID
  5
12
330
9
100
AcDbSymbolTableRecord
100
AcDbRegAppTableRecord
  2
ACAD
 70
     0
  0
APPID
  5
8F
330
9
100
AcDbSymbolTableRecord
100
AcDbRegAppTableRecord
  2
AVE_RENDER
 70
     0
  0
APPID
  5
90
330
9
100
AcDbSymbolTableRecord
100
AcDbRegAppTableRecord
  2
AVE_ENTITY_MATERIAL
 70
     0
  0
APPID
  5
9C
330
9
100
AcDbSymbolTableRecord
100
AcDbRegAppTableRecord
  2
AVE_FINISH
 70
     0
  0
APPID
  5
9D
330
9
100
AcDbSymbolTableRecord
100
AcDbRegAppTableRecord
  2
AVE_MATERIAL
 70
     0
  0
APPID
  5
9E
330
9
100
AcDbSymbolTableRecord
100
AcDbRegAppTableRecord
  2
AVE_GLOBAL
 70
     0
  0
ENDTAB
  0
TABLE
  2
DIMSTYLE
  5
A
330
0
100
AcDbSymbolTable
 70
     1
100
AcDbDimStyleTable
 71
     0
  0
DIMSTYLE
105
27
330
A
100
AcDbSymbolTableRecord
100
AcDbDimStyleTableRecord
  2
Standard
 70
     0
340
11
  0
ENDTAB
  0
TABLE
  2
BLOCK_RECORD
  5
1
330
0
100
AcDbSymbolTable
 70
     6
  0
BLOCK_RECORD
  5
1F
330
1
100
AcDbSymbolTableRecord
100
AcDbBlockTableRecord
  2
*Model_Space
340
22
 70
     0
280
     1
281
     0
  0
BLOCK_RECORD
  5
1B
330
1
100
AcDbSymbolTableRecord
100
AcDbBlockTableRecord
  2
*Paper_Space
340
1E
 70
     0
280
     1
281
     0
  0
BLOCK_RECORD
  5
23
330
1
100
AcDbSymbolTableRecord
100
AcDbBlockTableRecord
  2
*Paper_Space0
340
26
 70
     0
280
     1
281
     0
  0
BLOCK_RECORD
  5
2E
330
1
100
AcDbSymbolTableRecord
100
AcDbBlockTableRecord
  2
direct
340
0
 70
     0
280
     1
281
     0
  0
BLOCK_RECORD
  5
42
330
1
100
AcDbSymbolTableRecord
100
AcDbBlockTableRecord
  2
overhead
340
0
 70
     0
280
     1
281
     0
  0
BLOCK_RECORD
  5
5F
330
1
100
AcDbSymbolTableRecord
100
AcDbBlockTableRecord
  2
sh_spot
340
0
 70
     0
280
     1
281
     0
  0
BLOCK_RECORD
  5
91
330
1
100
AcDbSymbolTableRecord
100
AcDbBlockTableRecord
  2
AVE_RENDER
340
0
102
{BLKREFS
331
94
331
95
331
96
331
97
331
98
331
99
331
9A
331
9B
102
}
 70
     0
280
     1
281
     0
  0
BLOCK_RECORD
  5
9F
330
1
100
AcDbSymbolTableRecord
100
AcDbBlockTableRecord
  2
AVE_GLOBAL
340
0
102
{BLKREFS
331
A2
102
}
 70
     0
280
     1
281
     0
  0
ENDTAB
  0
ENDSEC
  0
SECTION
  2
BLOCKS
  0
BLOCK
  5
20
330
1F
100
AcDbEntity
  8
0
100
AcDbBlockBegin
  2
*Model_Space
 70
     0
 10
0.0
 20
0.0
 30
0.0
  3
*Model_Space
  1

  0
ENDBLK
  5
21
330
1F
100
AcDbEntity
  8
0
100
AcDbBlockEnd
  0
BLOCK
  5
1C
330
1B
100
AcDbEntity
 67
     1
  8
0
100
AcDbBlockBegin
  2
*Paper_Space
 70
     0
 10
0.0
 20
0.0
 30
0.0
  3
*Paper_Space
  1

  0
ENDBLK
  5
1D
330
1B
100
AcDbEntity
 67
     1
  8
0
100
AcDbBlockEnd
  0
BLOCK
  5
24
330
23
100
AcDbEntity
 67
     1
  8
0
100
AcDbBlockBegin
  2
*Paper_Space0
 70
     0
 10
0.0
 20
0.0
 30
0.0
  3
*Paper_Space0
  1

  0
ENDBLK
  5
25
330
23
100
AcDbEntity
 67
     1
  8
0
100
AcDbBlockEnd
  0
BLOCK
  5
40
330
2E
100
AcDbEntity
  8
0
100
AcDbBlockBegin
  2
direct
 70
     2
 10
0.0
 20
0.0
 30
0.0
  3
direct
  1

  0
ATTDEF
  5
2F
330
2E
100
AcDbEntity
  8
ASHADE
  6
Continuous
 62
     1
100
AcDbText
 10
0.0
 20
-0.1
 30
0.0
 40
0.2
  1

  7
ASHADE
 72
     1
 11
0.0
 21
-0.1
 31
0.0
100
AcDbAttributeDefinition
280
     0
  3
Light Name
  2
SNAME
 70
     0
280
     0
  0
ARC
  5
30
330
2E
100
AcDbEntity
  8
ASHADE
  6
Continuous
 62
     7
100
AcDbCircle
 10
0.0
 20
0.0
 30
0.0
 40
0.3
100
AcDbArc
 50
205.6792886194569
 51
334.3207113805431
  0
ARC
  5
31
330
2E
100
AcDbEntity
  8
ASHADE
  6
Continuous
 62
     7
100
AcDbCircle
 10
0.0
 20
0.0
 30
0.0
 40
0.3
100
AcDbArc
 50
25.67928861945685
 51
154.3207113805431
  0
LINE
  5
32
330
2E
100
AcDbEntity
  8
ASHADE
  6
Continuous
 62
     7
100
AcDbLine
 10
-0.21
 20
0.2142428528562855
 30
0.0
 11
-0.21
 21
0.5
 31
0.0
  0
LINE
  5
33
330
2E
100
AcDbEntity
  8
ASHADE
  6
Continuous
 62
     7
100
AcDbLine
 10
-0.11
 20
0.2791057147390572
 30
0.0
 11
-0.11
 21
0.5
 31
0.0
  0
LINE
  5
34
330
2E
100
AcDbEntity
  8
ASHADE
  6
Continuous
 62
     7
100
AcDbLine
 10
0.21
 20
0.2142428528562855
 30
0.0
 11
0.21
 21
0.5
 31
0.0
  0
ATTDEF
  5
35
330
2E
100
AcDbEntity
  8
ASHADE
  6
Continuous
 62
     7
100
AcDbText
 10
0.0
 20
0.25
 30
0.0
 40
0.01
  1

100
AcDbAttributeDefinition
280
     0
  3
Look-at Y
  2
LAY
 70
     1
280
     0
  0
ATTDEF
  5
36
330
2E
100
AcDbEntity
  8
ASHADE
  6
Continuous
 62
     7
100
AcDbText
 10
0.0
 20
0.22
 30
0.0
 40
0.01
  1
1
100
AcDbAttributeDefinition
280
     0
  3
Light Intensity
  2
INTENSITY
 70
     1
280
     0
  0
ATTDEF
  5
37
330
2E
100
AcDbEntity
  8
ASHADE
  6
Continuous
 62
     7
100
AcDbText
 10
0.0
 20
0.16
 30
0.0
 40
0.01
  1
-1
100
AcDbAttributeDefinition
280
     0
  3
*not used*
  2
BEAMD
 70
     1
280
     0
  0
ATTDEF
  5
38
330
2E
100
AcDbEntity
  8
ASHADE
  6
Continuous
 62
     7
100
AcDbText
 10
0.0
 20
0.175
 30
0.0
 40
0.01
  1
-1
100
AcDbAttributeDefinition
280
     0
  3
*not used*
  2
CONED
 70
     1
280
     0
  0
ATTDEF
  5
39
330
2E
100
AcDbEntity
  8
ASHADE
  6
Continuous
 62
     7
100
AcDbText
 10
0.0
 20
0.19
 30
0.0
 40
0.01
  1
0
100
AcDbAttributeDefinition
280
     0
  3
Depth Map Size
  2
CONEA
 70
     1
280
     0
  0
ATTDEF
  5
3A
330
2E
100
AcDbEntity
  8
ASHADE
  6
Continuous
 62
     7
100
AcDbText
 10
0.0
 20
0.2050000000000001
 30
0.0
 40
0.01
  1
1,1,1
100
AcDbAttributeDefinition
280
     0
  3
Light Color (RGB)
  2
COLOR
 70
     1
280
     0
  0
ATTDEF
  5
3B
330
2E
100
AcDbEntity
  8
ASHADE
  6
Continuous
 62
     7
100
AcDbText
 10
0.0
 20
0.235
 30
0.0
 40
0.01
  1

100
AcDbAttributeDefinition
280
     0
  3
Look-at Z
  2
LAZ
 70
     1
280
     0
  0
LINE
  5
3C
330
2E
100
AcDbEntity
  8
ASHADE
  6
Continuous
 62
     7
100
AcDbLine
 10
0.0
 20
0.3
 30
0.0
 11
0.0
 21
0.5
 31
0.0
  0
LINE
  5
3D
330
2E
100
AcDbEntity
  8
ASHADE
  6
Continuous
 62
     7
100
AcDbLine
 10
0.11
 20
0.2791057147390572
 30
0.0
 11
0.11
 21
0.5
 31
0.0
  0
ATTDEF
  5
3E
330
2E
100
AcDbEntity
  8
ASHADE
  6
Continuous
 62
     7
100
AcDbText
 10
0.0
 20
0.265
 30
0.0
 40
0.01
  1

100
AcDbAttributeDefinition
280
     0
  3
Look-at X
  2
LAX
 70
     1
280
     0
  0
ATTDEF
  5
3F
330
2E
100
AcDbEntity
  8
ASHADE
  6
Continuous
 62
     7
100
AcDbText
 10
0.0
 20
0.28
 30
0.0
 40
0.01
  1

100
AcDbAttributeDefinition
280
     0
  3

  2
GNAME
 70
     1
280
     0
  0
ENDBLK
  5
41
330
2E
100
AcDbEntity
  8
0
100
AcDbBlockEnd
  0
BLOCK
  5
5D
330
42
100
AcDbEntity
  8
0
100
AcDbBlockBegin
  2
overhead
 70
     2
 10
0.0
 20
0.0
 30
0.0
  3
overhead
  1

  0
ATTDEF
  5
43
330
42
100
AcDbEntity
  8
ASHADE
  6
Continuous
 62
     1
100
AcDbText
 10
0.0
 20
-0.1
 30
0.0
 40
0.2
  1

  7
ASHADE
 72
     1
 11
0.0
 21
-0.1
 31
0.0
100
AcDbAttributeDefinition
280
     0
  3
Light Name
  2
SNAME
 70
     0
280
     0
  0
ARC
  5
44
330
42
100
AcDbEntity
  8
ASHADE
  6
Continuous
 62
     7
100
AcDbCircle
 10
0.0
 20
0.0
 30
0.0
 40
0.3
100
AcDbArc
 50
205.6792886194569
 51
334.3207113805431
  0
LINE
  5
45
330
42
100
AcDbEntity
  8
ASHADE
  6
Continuous
 62
     7
100
AcDbLine
 10
-0.2041413561583015
 20
-0.2198324514393848
 30
0.0
 11
-0.2721884748777353
 21
-0.2931099352525131
 31
0.0
  0
LINE
  5
46
330
42
100
AcDbEntity
  8
ASHADE
  6
Continuous
 62
     7
100
AcDbLine
 10
-0.1096591641591904
 20
-0.2792398032442862
 30
0.0
 11
-0.1279356915190555
 21
-0.3257797704516673
 31
0.0
  0
LINE
  5
47
330
42
100
AcDbEntity
  8
ASHADE
  6
Continuous
 62
     7
100
AcDbLine
 10
0.0
 20
-0.2999999999999999
 30
0.0
 11
0.0
 21
-0.4
 31
0.0
  0
LINE
  5
48
330
42
100
AcDbEntity
  8
ASHADE
  6
Continuous
 62
     7
100
AcDbLine
 10
0.1096591641591904
 20
-0.2792398032442862
 30
0.0
 11
0.1279356915190555
 21
-0.3257797704516673
 31
0.0
  0
LINE
  5
49
330
42
100
AcDbEntity
  8
ASHADE
  6
Continuous
 62
     7
100
AcDbLine
 10
0.2041413561583015
 20
-0.2198324514393848
 30
0.0
 11
0.2721884748777353
 21
-0.2931099352525131
 31
0.0
  0
ARC
  5
4A
330
42
100
AcDbEntity
  8
ASHADE
  6
Continuous
 62
     7
100
AcDbCircle
 10
0.0
 20
0.0
 30
0.0
 40
0.3
100
AcDbArc
 50
25.67928861945685
 51
154.3207113805431
  0
LINE
  5
4B
330
42
100
AcDbEntity
  8
ASHADE
  6
Continuous
 62
     7
100
AcDbLine
 10
-0.2703701166919155
 20
0.13
 30
0.0
 11
-0.3154318028072347
 21
0.1516666666666666
 31
0.0
  0
LINE
  5
4C
330
42
100
AcDbEntity
  8
ASHADE
  6
Continuous
 62
     7
100
AcDbLine
 10
-0.2703701166919155
 20
-0.13
 30
0.0
 11
-0.3154318028072347
 21
-0.1516666666666666
 31
0.0
  0
LINE
  5
4D
330
42
100
AcDbEntity
  8
ASHADE
  6
Continuous
 62
     7
100
AcDbLine
 10
-0.2041413561583015
 20
0.2198324514393849
 30
0.0
 11
-0.2721884748777353
 21
0.2931099352525131
 31
0.0
  0
LINE
  5
4E
330
42
100
AcDbEntity
  8
ASHADE
  6
Continuous
 62
     7
100
AcDbLine
 10
-0.1096591641591904
 20
0.2792398032442862
 30
0.0
 11
-0.1279356915190555
 21
0.3257797704516674
 31
0.0
  0
LINE
  5
4F
330
42
100
AcDbEntity
  8
ASHADE
  6
Continuous
 62
     7
100
AcDbLine
 10
0.2703701166919155
 20
-0.13
 30
0.0
 11
0.3154318028072347
 21
-0.1516666666666666
 31
0.0
  0
LINE
  5
50
330
42
100
AcDbEntity
  8
ASHADE
  6
Continuous
 62
     7
100
AcDbLine
 10
0.2703701166919155
 20
0.13
 30
0.0
 11
0.3154318028072347
 21
0.1516666666666666
 31
0.0
  0
LINE
  5
51
330
42
100
AcDbEntity
  8
ASHADE
  6
Continuous
 62
     7
100
AcDbLine
 10
0.0
 20
0.3
 30
0.0
 11
0.0
 21
0.4
 31
0.0
  0
ATTDEF
  5
52
330
42
100
AcDbEntity
  8
ASHADE
  6
Continuous
 62
     7
100
AcDbText
 10
0.0
 20
0.22
 30
0.0
 40
0.01
  1
1
100
AcDbAttributeDefinition
280
     0
  3
Light Intensity
  2
INTENSITY
 70
     1
280
     0
  0
ATTDEF
  5
53
330
42
100
AcDbEntity
  8
ASHADE
  6
Continuous
 62
     7
100
AcDbText
 10
0.0
 20
0.16
 30
0.0
 40
0.01
  1
-1
100
AcDbAttributeDefinition
280
     0
  3
*not used*
  2
BEAMD
 70
     1
280
     0
  0
ATTDEF
  5
54
330
42
100
AcDbEntity
  8
ASHADE
  6
Continuous
 62
     7
100
AcDbText
 10
0.0
 20
0.175
 30
0.0
 40
0.01
  1
-1
100
AcDbAttributeDefinition
280
     0
  3
*not used*
  2
CONED
 70
     1
280
     0
  0
ATTDEF
  5
55
330
42
100
AcDbEntity
  8
ASHADE
  6
Continuous
 62
     7
100
AcDbText
 10
0.0
 20
0.19
 30
0.0
 40
0.01
  1
0
100
AcDbAttributeDefinition
280
     0
  3
Depth Map Size
  2
CONEA
 70
     1
280
     0
  0
ATTDEF
  5
56
330
42
100
AcDbEntity
  8
ASHADE
  6
Continuous
 62
     7
100
AcDbText
 10
0.0
 20
0.2050000000000001
 30
0.0
 40
0.01
  1
1,1,1
100
AcDbAttributeDefinition
280
     0
  3
Light Color (RGB)
  2
COLOR
 70
     1
280
     0
  0
ATTDEF
  5
57
330
42
100
AcDbEntity
  8
ASHADE
  6
Continuous
 62
     7
100
AcDbText
 10
0.0
 20
0.235
 30
0.0
 40
0.01
  1

100
AcDbAttributeDefinition
280
     0
  3
Look-at Z
  2
LAZ
 70
     1
280
     0
  0
ATTDEF
  5
58
330
42
100
AcDbEntity
  8
ASHADE
  6
Continuous
 62
     7
100
AcDbText
 10
0.0
 20
0.25
 30
0.0
 40
0.01
  1

100
AcDbAttributeDefinition
280
     0
  3
Look-at Y
  2
LAY
 70
     1
280
     0
  0
ATTDEF
  5
59
330
42
100
AcDbEntity
  8
ASHADE
  6
Continuous
 62
     7
100
AcDbText
 10
0.0
 20
0.265
 30
0.0
 40
0.01
  1

100
AcDbAttributeDefinition
280
     0
  3
Look-at X
  2
LAX
 70
     1
280
     0
  0
ATTDEF
  5
5A
330
42
100
AcDbEntity
  8
ASHADE
  6
Continuous
 62
     7
100
AcDbText
 10
0.0
 20
0.28
 30
0.0
 40
0.01
  1

100
AcDbAttributeDefinition
280
     0
  3

  2
GNAME
 70
     1
280
     0
  0
LINE
  5
5B
330
42
100
AcDbEntity
  8
ASHADE
  6
Continuous
 62
     7
100
AcDbLine
 10
0.1096591641591904
 20
0.2792398032442862
 30
0.0
 11
0.1279356915190555
 21
0.3257797704516674
 31
0.0
  0
LINE
  5
5C
330
42
100
AcDbEntity
  8
ASHADE
  6
Continuous
 62
     7
100
AcDbLine
 10
0.2041413561583015
 20
0.2198324514393849
 30
0.0
 11
0.2721884748777353
 21
0.2931099352525131
 31
0.0
  0
ENDBLK
  5
5E
330
42
100
AcDbEntity
  8
0
100
AcDbBlockEnd
  0
BLOCK
  5
85
330
5F
100
AcDbEntity
  8
0
100
AcDbBlockBegin
  2
sh_spot
 70
     2
 10
0.0
 20
0.0
 30
0.0
  3
sh_spot
  1

  0
LINE
  5
60
330
5F
100
AcDbEntity
  8
ASHADE
  6
Continuous
 62
     7
100
AcDbLine
 10
0.25
 20
0.26
 30
0.0
 11
-0.25
 21
0.26
 31
0.0
  0
LINE
  5
61
330
5F
100
AcDbEntity
  8
ASHADE
  6
Continuous
 62
     7
100
AcDbLine
 10
-0.25
 20
-0.3399999999999999
 30
0.0
 11
0.25
 21
-0.3399999999999999
 31
0.0
  0
ATTDEF
  5
62
330
5F
100
AcDbEntity
  8
ASHADE
  6
Continuous
 62
     1
100
AcDbText
 10
0.0
 20
-0.1
 30
0.0
 40
0.2
  1

  7
ASHADE
 72
     1
 11
0.0
 21
-0.1
 31
0.0
100
AcDbAttributeDefinition
280
     0
  3
Light Name
  2
SNAME
 70
     0
280
     0
  0
LINE
  5
63
330
5F
100
AcDbEntity
  8
ASHADE
  6
Continuous
 62
     7
100
AcDbLine
 10
-0.25
 20
-0.13
 30
0.0
 11
-0.25
 21
-0.3399999999999999
 31
0.0
  0
LINE
  5
64
330
5F
100
AcDbEntity
  8
ASHADE
  6
Continuous
 62
     7
100
AcDbLine
 10
-0.25
 20
-0.18
 30
0.0
 11
-0.29
 21
-0.18
 31
0.0
  0
LINE
  5
65
330
5F
100
AcDbEntity
  8
ASHADE
  6
Continuous
 62
     7
100
AcDbLine
 10
-0.29
 20
-0.22
 30
0.0
 11
-0.25
 21
-0.22
 31
0.0
  0
LINE
  5
66
330
5F
100
AcDbEntity
  8
ASHADE
  6
Continuous
 62
     7
100
AcDbLine
 10
-0.29
 20
-0.18
 30
0.0
 11
-0.29
 21
-0.22
 31
0.0
  0
LINE
  5
67
330
5F
100
AcDbEntity
  8
ASHADE
  6
Continuous
 62
     7
100
AcDbLine
 10
-0.1045454545454545
 20
0.26
 30
0.0
 11
-0.15
 21
0.46
 31
0.0
  0
LINE
  5
68
330
5F
100
AcDbEntity
  8
ASHADE
  6
Continuous
 62
     7
100
AcDbLine
 10
-0.21
 20
0.26
 30
0.0
 11
-0.301304347826087
 21
0.46
 31
0.0
  0
LINE
  5
69
330
5F
100
AcDbEntity
  8
ASHADE
  6
Continuous
 62
     7
100
AcDbLine
 10
-0.25
 20
0.26
 30
0.0
 11
-0.25
 21
0.13
 31
0.0
  0
LINE
  5
6A
330
5F
100
AcDbEntity
  8
ASHADE
  6
Continuous
 62
     7
100
AcDbLine
 10
-0.25
 20
0.22
 30
0.0
 11
-0.29
 21
0.22
 31
0.0
  0
LINE
  5
6B
330
5F
100
AcDbEntity
  8
ASHADE
  6
Continuous
 62
     7
100
AcDbLine
 10
-0.29
 20
0.1799999999999999
 30
0.0
 11
-0.25
 21
0.1799999999999999
 31
0.0
  0
LINE
  5
6C
330
5F
100
AcDbEntity
  8
ASHADE
  6
Continuous
 62
     7
100
AcDbLine
 10
-0.29
 20
0.22
 30
0.0
 11
-0.29
 21
0.1799999999999999
 31
0.0
  0
ATTDEF
  5
6D
330
5F
100
AcDbEntity
  8
ASHADE
  6
Continuous
 62
     7
100
AcDbText
 10
0.0
 20
-0.24
 30
0.0
 40
0.01
  1
0
100
AcDbAttributeDefinition
280
     0
  3
Depth Map Size
  2
ZSIZE
 70
     1
280
     0
  0
ATTDEF
  5
6E
330
5F
100
AcDbEntity
  8
ASHADE
  6
Continuous
 62
     7
100
AcDbText
 10
0.0
 20
-0.3300000000000001
 30
0.0
 40
0.01
  1
0,0,0
100
AcDbAttributeDefinition
280
     0
  3
Look-from XYZ
  2
LFXYZ
 70
     1
280
     0
  0
ATTDEF
  5
6F
330
5F
100
AcDbEntity
  8
ASHADE
  6
Continuous
 62
     7
100
AcDbText
 10
0.0
 20
-0.315
 30
0.0
 40
0.01
  1
0.0
100
AcDbAttributeDefinition
280
     0
  3
Beam Distribution
  2
BEAMDI
 70
     1
280
     0
  0
ATTDEF
  5
70
330
5F
100
AcDbEntity
  8
ASHADE
  6
Continuous
 62
     7
100
AcDbText
 10
0.0
 20
-0.3
 30
0.0
 40
0.01
  1
0.0
100
AcDbAttributeDefinition
280
     0
  3
Cone Delta
  2
CONEDE
 70
     1
280
     0
  0
ATTDEF
  5
71
330
5F
100
AcDbEntity
  8
ASHADE
  6
Continuous
 62
     7
100
AcDbText
 10
0.0
 20
-0.2850000000000001
 30
0.0
 40
0.01
  1
10.0
100
AcDbAttributeDefinition
280
     0
  3
Cone Angle
  2
CONEAN
 70
     1
280
     0
  0
ATTDEF
  5
72
330
5F
100
AcDbEntity
  8
ASHADE
  6
Continuous
 62
     7
100
AcDbText
 10
0.0
 20
-0.27
 30
0.0
 40
0.01
  1
-1
100
AcDbAttributeDefinition
280
     0
  3
*not used*
  2
BIASMAX
 70
     1
280
     0
  0
ATTDEF
  5
73
330
5F
100
AcDbEntity
  8
ASHADE
  6
Continuous
 62
     7
100
AcDbText
 10
0.0
 20
-0.255
 30
0.0
 40
0.01
  1
-1
100
AcDbAttributeDefinition
280
     0
  3
*not used*
  2
BIASMIN
 70
     1
280
     0
  0
ATTDEF
  5
74
330
5F
100
AcDbEntity
  8
ASHADE
  6
Continuous
 62
     7
100
AcDbText
 10
0.0
 20
-0.225
 30
0.0
 40
0.01
  1
1,1,1
100
AcDbAttributeDefinition
280
     0
  3
Light Color (RGB)
  2
COLOR
 70
     1
280
     0
  0
ATTDEF
  5
75
330
5F
100
AcDbEntity
  8
ASHADE
  6
Continuous
 62
     7
100
AcDbText
 10
0.0
 20
-0.21
 30
0.0
 40
0.01
  1
1
100
AcDbAttributeDefinition
280
     0
  3
Light Intensity
  2
INTENSITY
 70
     1
280
     0
  0
ATTDEF
  5
76
330
5F
100
AcDbEntity
  8
ASHADE
  6
Continuous
 62
     7
100
AcDbText
 10
0.0
 20
-0.15
 30
0.0
 40
0.01
  1

100
AcDbAttributeDefinition
280
     0
  3

  2
GNAME
 70
     1
280
     0
  0
ATTDEF
  5
77
330
5F
100
AcDbEntity
  8
ASHADE
  6
Continuous
 62
     7
100
AcDbText
 10
0.0
 20
-0.195
 30
0.0
 40
0.01
  1

100
AcDbAttributeDefinition
280
     0
  3
Look-at Z
  2
LAZ
 70
     1
280
     0
  0
ATTDEF
  5
78
330
5F
100
AcDbEntity
  8
ASHADE
  6
Continuous
 62
     7
100
AcDbText
 10
0.0
 20
-0.18
 30
0.0
 40
0.01
  1

100
AcDbAttributeDefinition
280
     0
  3
Look-at Y
  2
LAY
 70
     1
280
     0
  0
ATTDEF
  5
79
330
5F
100
AcDbEntity
  8
ASHADE
  6
Continuous
 62
     7
100
AcDbText
 10
0.0
 20
-0.165
 30
0.0
 40
0.01
  1

100
AcDbAttributeDefinition
280
     0
  3
Look-at X
  2
LAX
 70
     1
280
     0
  0
LINE
  5
7A
330
5F
100
AcDbEntity
  8
ASHADE
  6
Continuous
 62
     7
100
AcDbLine
 10
0.25
 20
-0.3399999999999999
 30
0.0
 11
0.25
 21
-0.13
 31
0.0
  0
LINE
  5
7B
330
5F
100
AcDbEntity
  8
ASHADE
  6
Continuous
 62
     7
100
AcDbLine
 10
0.25
 20
-0.18
 30
0.0
 11
0.29
 21
-0.18
 31
0.0
  0
LINE
  5
7C
330
5F
100
AcDbEntity
  8
ASHADE
  6
Continuous
 62
     7
100
AcDbLine
 10
0.29
 20
-0.22
 30
0.0
 11
0.25
 21
-0.22
 31
0.0
  0
LINE
  5
7D
330
5F
100
AcDbEntity
  8
ASHADE
  6
Continuous
 62
     7
100
AcDbLine
 10
0.29
 20
-0.18
 30
0.0
 11
0.29
 21
-0.22
 31
0.0
  0
LINE
  5
7E
330
5F
100
AcDbEntity
  8
ASHADE
  6
Continuous
 62
     7
100
AcDbLine
 10
0.21
 20
0.26
 30
0.0
 11
0.301304347826087
 21
0.46
 31
0.0
  0
LINE
  5
7F
330
5F
100
AcDbEntity
  8
ASHADE
  6
Continuous
 62
     7
100
AcDbLine
 10
0.1045454545454545
 20
0.26
 30
0.0
 11
0.15
 21
0.46
 31
0.0
  0
LINE
  5
80
330
5F
100
AcDbEntity
  8
ASHADE
  6
Continuous
 62
     7
100
AcDbLine
 10
0.0
 20
0.26
 30
0.0
 11
0.0
 21
0.46
 31
0.0
  0
LINE
  5
81
330
5F
100
AcDbEntity
  8
ASHADE
  6
Continuous
 62
     7
100
AcDbLine
 10
0.25
 20
0.13
 30
0.0
 11
0.25
 21
0.26
 31
0.0
  0
LINE
  5
82
330
5F
100
AcDbEntity
  8
ASHADE
  6
Continuous
 62
     7
100
AcDbLine
 10
0.25
 20
0.22
 30
0.0
 11
0.29
 21
0.22
 31
0.0
  0
LINE
  5
83
330
5F
100
AcDbEntity
  8
ASHADE
  6
Continuous
 62
     7
100
AcDbLine
 10
0.29
 20
0.1799999999999999
 30
0.0
 11
0.25
 21
0.1799999999999999
 31
0.0
  0
LINE
  5
84
330
5F
100
AcDbEntity
  8
ASHADE
  6
Continuous
 62
     7
100
AcDbLine
 10
0.29
 20
0.22
 30
0.0
 11
0.29
 21
0.1799999999999999
 31
0.0
  0
ENDBLK
  5
86
330
5F
100
AcDbEntity
  8
0
100
AcDbBlockEnd
  0
BLOCK
  5
92
330
91
100
AcDbEntity
  8
ASHADE
100
AcDbBlockBegin
  2
AVE_RENDER
 70
     0
 10
0.0
 20
0.0
 30
0.0
  3
AVE_RENDER
  1
AVE_RENDER
  0
ENDBLK
  5
93
330
91
100
AcDbEntity
  8
0
100
AcDbBlockEnd
  0
BLOCK
  5
A0
330
9F
100
AcDbEntity
  8
ASHADE
100
AcDbBlockBegin
  2
AVE_GLOBAL
 70
     0
 10
0.0
 20
0.0
 30
0.0
  3
AVE_GLOBAL
  1
AVE_GLOBAL
  0
ENDBLK
  5
A1
330
9F
100
AcDbEntity
  8
0
100
AcDbBlockEnd
  0
ENDSEC
  0
SECTION
  2
ENTITIES
  0
INSERT
  5
94
330
1F
100
AcDbEntity
  8
ASHADE
 62
     1
100
AcDbBlockReference
  2
AVE_RENDER
 10
0.0
 20
0.0
 30
0.0
1001
AVE_RENDER
1002
{
1070
     7
1000
Pref
1070
    30
1070
    20
1070
     1
1070
     0
1000

1070
    10
1070
     1
1070
    10
1040
1.0
1070
     1
1040
0.3
1040
0.7
1040
0.0
1040
10.0
1010
-1.0
1020
-1.0
1030
-1.0
1040
0.3
1070
    49
1070
     0
1070
     0
1010
1.0
1020
1.0
1030
1.0
1040
45.0
1070
     1
1070
     0
1000
WCS
1040
0.0
1070
     0
1040
10.0
1002
}
  0
INSERT
  5
95
330
1F
100
AcDbEntity
  8
ASHADE
 62
     3
100
AcDbBlockReference
  2
AVE_RENDER
 10
0.0
 20
0.0
 30
0.0
1001
AVE_RENDER
1002
{
1070
     0
1000
Full Opt
1070
     0
1070
     1
1070
     1
1070
     1
1070
     0
1070
     0
1070
     0
1070
     1
1070
     1
1040
0.0001
1040
0.0001
1002
}
  0
INSERT
  5
96
330
1F
100
AcDbEntity
  8
ASHADE
 62
     4
100
AcDbBlockReference
  2
AVE_RENDER
 10
0.0
 20
0.0
 30
0.0
1001
AVE_RENDER
1002
{
1070
     0
1000
Quick Opt
1070
     0
1070
     1
1070
     1
1070
     1
1070
     0
1070
     0
1070
     1
1002
}
  0
INSERT
  5
97
330
1F
100
AcDbEntity
  8
ASHADE
 62
     5
100
AcDbBlockReference
  2
AVE_RENDER
 10
0.0
 20
0.0
 30
0.0
1001
AVE_RENDER
1002
{
1070
     1
1000
Scanl Opt
1070
     2
1070
     0
1070
     2
1040
2.0
1040
4.0
1070
     0
1070
     1
1070
     0
1040
0.03
1002
}
  0
INSERT
  5
98
330
1F
100
AcDbEntity
  8
ASHADE
 62
     6
100
AcDbBlockReference
  2
AVE_RENDER
 10
0.0
 20
0.0
 30
0.0
1001
AVE_RENDER
1002
{
1070
     2
1000
Raytr Opt
1070
     2
1070
     0
1070
     2
1040
2.0
1040
4.0
1070
     0
1070
     1
1070
     1
1040
0.03
1070
     3
1040
0.03
1002
}
  0
INSERT
  5
99
330
1F
100
AcDbEntity
  8
ASHADE
 62
     7
100
AcDbBlockReference
  2
AVE_RENDER
 10
0.0
 20
0.0
 30
0.0
1001
AVE_RENDER
1002
{
1070
     0
1000
RFile Opt
1070
     1
1070
   640
1070
   480
1070
 10000
1070
     1
1070
     8
1070
     8
1070
     0
1070
     0
1070
     0
1070
     0
1070
     0
1070
     0
1070
     0
1002
}
  0
INSERT
  5
9A
330
1F
100
AcDbEntity
  8
ASHADE
 62
     8
100
AcDbBlockReference
  2
AVE_RENDER
 10
0.0
 20
0.0
 30
0.0
1001
AVE_RENDER
1002
{
1070
     0
1000
Fog Opt
1070
     0
1070
     0
1040
0.0
1040
1.0
1040
0.0
1040
1.0
1010
0.5
1020
0.5
1030
0.5
1002
}
  0
INSERT
  5
9B
330
1F
100
AcDbEntity
  8
ASHADE
 62
     9
100
AcDbBlockReference
  2
AVE_RENDER
 10
0.0
 20
0.0
 30
0.0
1001
AVE_RENDER
1002
{
1070
     0
1000
BG Opt
1070
     0
1070
     1
1010
0.0
1020
0.0
1030
0.0
1010
1.0
1020
0.0
1030
0.0
1010
0.0
1020
1.0
1030
0.0
1010
0.0
1020
0.0
1030
1.0
1040
0.5
1040
0.33
1040
0.0
1000

1070
     1
1000

1070
     1
1070
     1
1040
1.0
1040
1.0
1040
0.0
1040
0.0
1070
     0
1002
}
  0
INSERT
  5
A2
330
1F
100
AcDbEntity
  8
ASHADE
 62
     1
100
AcDbBlockReference
  2
AVE_GLOBAL
 10
0.0
 20
0.0
 30
0.0
1001
AVE_MATERIAL
1002
{
1000
*GLOBAL*
1000
2
1000
Global finish.
1002
{
1002
}
1002
{
1070
    63
1002
{
1002
{
1010
-1.0
1020
-1.0
1030
-1.0
1002
}
1040
0.1000000014901161
1000

1040
0.0
1002
{
1002
}
1040
0.0
1002
{
1002
}
1040
0.0
1002
}
1002
{
1002
{
1010
-1.0
1020
-1.0
1030
-1.0
1002
}
1040
0.6999999880790711
1000

1040
0.0
1002
{
1002
}
1040
0.0
1002
{
1002
}
1040
0.0
1002
}
1002
{
1002
{
1010
-1.0
1020
-1.0
1030
-1.0
1002
}
1040
0.2000000029802322
1000

1040
0.0
1002
{
1002
}
1040
0.0
1002
{
1002
}
1040
0.0
1002
}
1002
{
1070
     0
1002
{
1070
     1
1002
{
1040
1.0
1040
1.0
1000

1040
0.0
1002
{
1002
}
1040
0.0
1002
{
1002
}
1040
0.0
1002
}
1002
}
1040
1.0
1040
0.0
1040
0.0
1002
}
1002
{
1040
1.0
1040
1.0
1000

1040
0.0
1002
{
1002
}
1040
0.0
1002
{
1002
}
1040
0.0
1002
}
1002
{
1040
0.5
1040
1.0
1000

1040
0.0
1002
{
1002
}
1040
0.0
1002
{
1002
}
1040
0.0
1002
}
1002
{
1070
     0
1040
0.0
1002
{
1002
}
1040
1.0
1002
{
1002
}
1040
0.0
1002
}
1002
{
1040
0.0
1002
{
1002
{
1010
0.0
1020
0.0
1030
0.0
1002
}
1040
1.0
1000

1040
0.0
1002
{
1002
}
1040
0.0
1002
{
1002
}
1040
0.0
1002
}
1002
}
1002
{
1002
{
1070
     1
1002
{
1040
0.0
1040
1.0
1000

1040
0.0
1002
{
1002
}
1040
0.0
1002
{
1002
}
1040
0.0
1002
}
1002
}
1040
0.0
1002
{
1002
}
1010
1.0
1020
0.0
1030
0.0
1010
0.0
1020
1.0
1030
0.0
1010
0.0
1020
0.0
1030
1.0
1070
     0
1002
}
1002
{
1002
{
1040
1.0
1040
1.0
1002
{
1070
     1
1002
{
1040
1.0
1040
1.0
1000

1040
0.0
1002
{
1002
}
1040
0.0
1002
{
1002
}
1040
0.0
1002
}
1002
}
1002
}
1070
     0
1040
0.0
1002
{
1002
}
1002
}
1002
{
1002
}
1002
}
1002
{
1071
        3
1070
     3
1070
     0
1002
{
1070
     2
1070
     0
1070
     0
1040
0.0
1002
}
1070
     0
1070
     2
1002
{
1002
}
1002
}
1002
{
1040
8030.0
1040
190.3000030517578
1040
0.3050000071525574
1040
228.0
1040
545.0
1040
14.0
1040
17.39999961853027
1040
0.4560000002384186
1002
}
1002
}
  0
MESH
  5
F9
330
1F
100
AcDbEntity
  8
OracDecor_cornice_mouldings
 62
   114
420
  1814872
160
             25640
310
28640000C80200000C00000013000000020000003C00000006000000020000000000000000408F40000000000000083F000000E00C495CC00000000000408F40000000000000083F000000C0707D5DC00C000000130000000A0000003C00000006000000020000000000000000408F40000000000000083F000000C0707D5D
310
C00000000000408FC0000000000000163F00000000717D5DC00C00000013000000120000003C00000006000000020000000000000000408FC0000000000000163F00000000717D5DC00000000000408FC0000000000000163F000000000D495CC00C000000130000001A0000003C0000000600000002000000000000000040
310
8F40000000000000083F000000E00C495CC00000000000408FC0000000000000163F000000000D495CC00C00000013000000220000003C00000006000000020000000000000000408F40000000000000083F000000C0707D5DC00000000000408F4000000080A4B121C0000000C0707D5DC00C000000130000002A0000003C
310
00000006000000020000000000000000408F4000000080A4B121C0000000C0707D5DC00000000000408FC0000000009FB121C000000000717D5DC00C00000013000000320000003C00000006000000020000000000000000408FC0000000000000163F00000000717D5DC00000000000408FC0000000009FB121C000000000
310
717D5DC00C000000130000003A0000003C00000006000000020000000000000000408F4000000080A4B121C0000000C0707D5DC00000000000408F4000000000DC8322C00000002056C65CC00C00000013000000420000003C00000006000000020000000000000000408F4000000000DC8322C00000002056C65CC0000000
310
0000408FC000000080E18322C00000000052C65CC00C000000130000004A0000003C00000006000000020000000000000000408FC0000000009FB121C000000000717D5DC00000000000408FC000000080E18322C00000000052C65CC00C00000013000000520000003C00000006000000020000000000000000408F400000
310
0000DC8322C00000002056C65CC00000000000408F400000000029F724C000000040C31E5CC00C000000130000005A0000003C00000006000000020000000000000000408F400000000029F724C000000040C31E5CC00000000000408FC00000008031F724C0000000C0C01E5CC00C00000013000000620000003C00000006
310
000000020000000000000000408FC000000080E18322C00000000052C65CC00000000000408FC00000008031F724C0000000C0C01E5CC00C000000130000006A0000003C00000006000000020000000000000000408F400000000029F724C000000040C31E5CC00000000000408F40000000004DD528C0000000603E955BC0
310
0C00000013000000720000003C00000006000000020000000000000000408F40000000004DD528C0000000603E955BC00000000000408FC00000008035D528C00000004040955BC00C000000130000007A0000003C00000006000000020000000000000000408FC00000008031F724C0000000C0C01E5CC00000000000408F
310
C00000008035D528C00000004040955BC00C00000013000000820000003C00000006000000020000000000000000408F40000000004DD528C0000000603E955BC00000000000408F4000000080A2C82DC000000080AC355BC00C000000130000008A0000003C00000006000000020000000000000000408F4000000080A2C8
310
2DC000000080AC355BC00000000000408FC0000000807CC82DC000000040AE355BC00C00000013000000920000003C00000006000000020000000000000000408FC00000008035D528C00000004040955BC00000000000408FC0000000807CC82DC000000040AE355BC00C000000130000009A0000003C0000000600000002
310
0000000000000000408F4000000080A2C82DC000000080AC355BC00000000000408F4000000040A7B131C00000000052085BC00C00000013000000A20000003C00000006000000020000000000000000408F4000000040A7B131C00000000052085BC00000000000408FC000000080A4B131C00000000052085BC00C000000
310
13000000AA0000003C00000006000000020000000000000000408FC0000000807CC82DC000000040AE355BC00000000000408FC000000080A4B131C00000000052085BC00C00000013000000B20000003C00000006000000020000000000000000408F4000000040A7B131C00000000052085BC00000000000408F40000000
310
C0A6B131C0000000C0C2CD59C00C00000013000000BA0000003C00000006000000020000000000000000408F40000000C0A6B131C0000000C0C2CD59C00000000000408FC000000080A4B131C0000000C0C2CD59C00C00000013000000C20000003C00000006000000020000000000000000408FC000000080A4B131C00000
310
000052085BC00000000000408FC000000080A4B131C0000000C0C2CD59C00C00000013000000CA0000003C00000006000000020000000000000000408F40000000C0A6B131C0000000C0C2CD59C00000000000408F4000000040E49B36C0000000C0C2CD59C00C00000013000000D20000003C000000060000000200000000
310
00000000408F4000000040E49B36C0000000C0C2CD59C00000000000408FC0000000C0E19B36C0000000C0C2CD59C00C00000013000000DA0000003C00000006000000020000000000000000408FC000000080A4B131C0000000C0C2CD59C00000000000408FC0000000C0E19B36C0000000C0C2CD59C00C00000013000000
310
E20000003C00000006000000020000000000000000408F4000000040E49B36C0000000C0C2CD59C00000000000408F4000000080E49B36C000000040293255C00C00000013000000EA0000003C00000006000000020000000000000000408F4000000080E49B36C000000040293255C00000000000408FC0000000C0E19B36
310
C000000040293255C00C00000013000000F20000003C00000006000000020000000000000000408FC0000000C0E19B36C0000000C0C2CD59C00000000000408FC0000000C0E19B36C000000040293255C00C00000013000000FA0000003C00000006000000020000000000000000408F4000000080E49B36C0000000402932
310
55C00000000000408F400000000022863BC000000040293255C00C00000013000000020100003C00000006000000020000000000000000408F400000000022863BC000000040293255C00000000000408FC0000000601F863BC000000040293255C00C000000130000000A0100003C00000006000000020000000000000000
310
408FC0000000C0E19B36C000000040293255C00000000000408FC0000000601F863BC000000040293255C00C00000013000000120100003C00000006000000020000000000000000408F400000000022863BC000000040293255C00000000000408F400000000022863BC0000000E0F5A853C00C000000130000001A010000
310
3C00000006000000020000000000000000408F400000000022863BC0000000E0F5A853C00000000000408FC0000000601F863BC000000000F6A853C00C00000013000000220100003C00000006000000020000000000000000408FC0000000601F863BC000000040293255C00000000000408FC0000000601F863BC0000000
310
00F6A853C00C000000130000002A0100003C00000006000000020000000000000000408F400000000022863BC0000000E0F5A853C00000000000408F40000000C0D53341C000000000F6A853C00C00000013000000320100003C00000006000000020000000000000000408F40000000C0D53341C000000000F6A853C00000
310
000000408FC000000040D43341C000000000F6A853C00C000000130000003A0100003C00000006000000020000000000000000408FC0000000601F863BC000000000F6A853C00000000000408FC000000040D43341C000000000F6A853C00C00000013000000420100003C00000006000000020000000000000000408F4000
310
0000C0D53341C000000000F6A853C00000000000408F4000000040348A41C00000006058BB51C00C000000130000004A0100003C00000006000000020000000000000000408FC000000000348A41C0000000E054BB51C00000000000408F4000000040348A41C00000006058BB51C00C00000013000000520100003C000000
310
06000000020000000000000000408FC000000040D43341C000000000F6A853C00000000000408FC000000000348A41C0000000E054BB51C00C000000130000005A0100003C00000006000000020000000000000000408F4000000040750642C000000000005B50C00000000000408F400000000000AA42C000000040A6534E
310
C00C00000013000000620100003C00000006000000020000000000000000408FC0000000A0FFA942C000000060A2534EC00000000000408F400000000000AA42C000000040A6534EC00C000000130000006A0100003C00000006000000020000000000000000408FC0000000A0FFA942C000000060A2534EC0000000000040
310
8FC000000080750642C0000000A0FC5A50C00C00000013000000720100003C00000006000000020000000000000000408F4000000040750642C000000000005B50C00000000000408FC000000080750642C0000000A0FC5A50C00C000000130000007A0100003C00000006000000020000000000000000408F4000000000BC
310
9E43C0000000E03DB34BC00000000000408F40000000A0C4A944C0000000A0947649C00C00000013000000820100003C00000006000000020000000000000000408FC0000000E0C9A944C000000000877649C00000000000408F40000000A0C4A944C0000000A0947649C00C000000130000008A0100003C00000006000000
310
020000000000000000408FC0000000E0C9A944C000000000877649C00000000000408FC000000020BC9E43C0000000403AB34BC00C00000013000000920100003C00000006000000020000000000000000408F4000000000BC9E43C0000000E03DB34BC00000000000408FC000000020BC9E43C0000000403AB34BC00C0000
310
00130000009A0100003C00000006000000020000000000000000408F40000000A08B0F46C000000080E20A47C00000000000408F4000000000FB7947C000000000440545C00C00000013000000A20100003C00000006000000020000000000000000408FC000000020FF7947C0000000203C0545C00000000000408F400000
310
0000FB7947C000000000440545C00C00000013000000AA0100003C00000006000000020000000000000000408FC000000020FF7947C0000000203C0545C00000000000408FC0000000C0910F46C000000080D50A47C00C00000013000000B20100003C00000006000000020000000000000000408F40000000A08B0F46C000
310
000080E20A47C00000000000408FC0000000C0910F46C000000080D50A47C00C00000013000000BA0100003C00000006000000020000000000000000408F4000000080EE4549C0000000E01CE142C00000000000408F4000000000CA044BC000000040412241C00C00000013000000C20100003C0000000600000002000000
310
0000000000408FC000000060C1044BC000000060472241C00000000000408F4000000000CA044BC000000040412241C00C00000013000000CA0100003C00000006000000020000000000000000408FC000000060C1044BC000000060472241C00000000000408FC000000040F34549C00000008015E142C00C000000130000
310
00D20100003C00000006000000020000000000000000408F4000000080EE4549C0000000E01CE142C00000000000408FC000000040F34549C00000008015E142C00C00000013000000DA0100003C00000006000000020000000000000000408F4000000020F1284DC0000000809BAC3EC00000000000408F40000000808F2E
310
4FC000000080BCD73BC00C00000013000000E20100003C00000006000000020000000000000000408FC000000060812E4FC0000000A0CBD73BC00000000000408F40000000808F2E4FC000000080BCD73BC00C00000013000000EA0100003C00000006000000020000000000000000408FC000000060812E4FC0000000A0CB
310
D73BC00000000000408FC000000000E8284DC000000080A6AC3EC00C00000013000000F20100003C00000006000000020000000000000000408F4000000020F1284DC0000000809BAC3EC00000000000408FC000000000E8284DC000000080A6AC3EC00C00000013000000FA0100003C000000060000000200000000000000
310
00408F40000000E020CD50C0000000802E0C39C00000000000408F400000006075EB51C0000000401DF636C00C00000013000000020200003C00000006000000020000000000000000408FC00000000073EB51C00000006020F636C00000000000408F400000006075EB51C0000000401DF636C00C000000130000000A0200
310
003C00000006000000020000000000000000408FC00000000073EB51C00000006020F636C00000000000408FC00000008019CD50C0000000003C0C39C00C00000013000000120200003C00000006000000020000000000000000408F40000000E020CD50C0000000802E0C39C00000000000408FC00000008019CD50C00000
310
00003C0C39C00C000000130000001A0200003C00000006000000020000000000000000408F40000000A0A93B53C000000000A50C35C00000000000408F40000000C0D66C54C0000000808FC533C00C00000013000000220200003C00000006000000020000000000000000408FC0000000A0D26C54C00000004093C533C000
310
00000000408F40000000C0D66C54C0000000808FC533C00C000000130000002A0200003C00000006000000020000000000000000408FC0000000A0D26C54C00000004093C533C00000000000408FC000000020A73B53C000000080A70C35C00C00000013000000320200003C00000006000000020000000000000000408F40
310
000000A0A93B53C000000000A50C35C00000000000408FC000000020A73B53C000000080A70C35C00C000000130000003A0200003C00000006000000020000000000000000408F40000000002FCD55C0000000400DCD32C00000000000408F40000000C0E80757C000000080EA5E32C00C00000013000000420200003C0000
310
0006000000020000000000000000408FC000000020E80757C000000040EB5E32C00000000000408F40000000C0E80757C000000080EA5E32C00C000000130000004A0200003C00000006000000020000000000000000408FC000000020E80757C000000040EB5E32C00000000000408FC0000000E02ACD55C00000004010CD
310
32C00C00000013000000520200003C00000006000000020000000000000000408F40000000002FCD55C0000000400DCD32C00000000000408FC0000000E02ACD55C00000004010CD32C00C000000130000005A0200003C00000006000000020000000000000000408F40000000605F6E58C000000080502032C00000000000
310
408F40000000E01BD258C0000000C0502032C00C00000013000000620200003C00000006000000020000000000000000408F40000000E01BD258C0000000C0502032C00000000000408FC0000000401BD258C0000000C0502032C00C000000130000006A0200003C00000006000000020000000000000000408FC000000040
310
1BD258C0000000C0502032C00000000000408FC0000000C05E6E58C0000000C0502032C00C00000013000000720200003C00000006000000020000000000000000408F40000000605F6E58C000000080502032C00000000000408FC0000000C05E6E58C0000000C0502032C00C000000130000007A0200003C000000060000
310
00020000000000000000408F40000000E01BD258C0000000C0502032C00000000000408F40000000E01BD258C0000000006CAB2EC00C00000013000000820200003C00000006000000020000000000000000408F40000000E01BD258C0000000006CAB2EC00000000000408FC0000000401BD258C0000000006CAB2EC00C00
310
0000130000008A0200003C00000006000000020000000000000000408FC0000000401BD258C0000000C0502032C00000000000408FC0000000401BD258C0000000006CAB2EC00C00000013000000920200003C00000006000000020000000000000000408F40000000E01BD258C0000000006CAB2EC00000000000408F4000
310
0000004D3159C00000000008832EC00C000000130000009A0200003C00000006000000020000000000000000408FC0000000807B3159C000000080F9822EC00000000000408F40000000004D3159C00000000008832EC00C00000013000000A20200003C00000006000000020000000000000000408FC0000000401BD258C0
310
000000006CAB2EC00000000000408FC0000000807B3159C000000080F9822EC00C00000013000000AA0200003C00000006000000020000000000000000408F40000000004D3159C00000000008832EC00000000000408F4000000020909C59C000000080D83A2EC00C00000013000000B20200003C00000006000000020000
310
000000000000408FC000000000409E59C00000008066382EC00000000000408F4000000020909C59C000000080D83A2EC00C00000013000000BA0200003C00000006000000020000000000000000408FC0000000807B3159C000000080F9822EC00000000000408FC000000000409E59C00000008066382EC00C0000001300
310
0000C20200003C00000006000000020000000000000000408F400000006044F359C000000080DE5C2DC00000000000408F4000000020909C59C000000080D83A2EC00C00000013000000CA0200003C00000006000000020000000000000000408FC00000000080F359C000000080F45B2DC00000000000408F400000006044
310
F359C000000080DE5C2DC00C00000013000000D20200003C00000006000000020000000000000000408FC000000000409E59C00000008066382EC00000000000408FC00000000080F359C000000080F45B2DC00C00000013000000DA0200003C00000006000000020000000000000000408F400000008035355AC000000080
310
B7E72BC00000000000408F400000006044F359C000000080DE5C2DC00C00000013000000E20200003C00000006000000020000000000000000408F400000008035355AC000000080B7E72BC00000000000408FC00000004024345AC000000000CFEF2BC00C00000013000000EA0200003C0000000600000002000000000000
310
0000408FC00000000080F359C000000080F45B2DC00000000000408FC00000004024345AC000000000CFEF2BC00C00000013000000F20200003C00000006000000020000000000000000408F400000008035355AC000000080B7E72BC00000000000408F40000000C057655AC00000008061382AC00C00000013000000FA02
310
00003C00000006000000020000000000000000408FC0000000C0FE645AC000000080B33B2AC00000000000408F40000000C057655AC00000008061382AC00C00000013000000020300003C00000006000000020000000000000000408FC00000004024345AC000000000CFEF2BC00000000000408FC0000000C0FE645AC000
310
000080B33B2AC00C000000130000000A0300003C00000006000000020000000000000000408F40000000001BB25AC000000080077A27C00000000000408F40000000C057655AC00000008061382AC00C00000013000000120300003C00000006000000020000000000000000408FC0000000C0AEB45AC000000080916527C0
310
0000000000408F40000000001BB25AC000000080077A27C00C000000130000001A0300003C00000006000000020000000000000000408FC0000000C0FE645AC000000080B33B2AC00000000000408FC0000000C0AEB45AC000000080916527C00C00000013000000220300003C00000006000000020000000000000000408F
310
400000000092055BC000000080586325C00000000000408F40000000001BB25AC000000080077A27C00C000000130000002A0300003C00000006000000020000000000000000408FC000000080F1075BC000000080C25725C00000000000408F400000000092055BC000000080586325C00C00000013000000320300003C00
310
000006000000020000000000000000408FC0000000C0AEB45AC000000080916527C00000000000408FC000000080F1075BC000000080C25725C00C000000130000003A0300003C00000006000000020000000000000000408F400000000092055BC000000080586325C00000000000408F400000004037635BC0000000801E
310
2C24C00C00000013000000420300003C00000006000000020000000000000000408FC0000000A074635BC0000000804A2B24C00000000000408F400000004037635BC0000000801E2C24C00C000000130000004A0300003C00000006000000020000000000000000408FC000000080F1075BC000000080C25725C000000000
310
00408FC0000000A074635BC0000000804A2B24C00C00000013000000520300003C00000006000000020000000000000000408F40000000203BBB5BC0000000000DB323C00000000000408F400000004037635BC0000000801E2C24C00C000000130000005A0300003C00000006000000020000000000000000408F40000000
310
203BBB5BC0000000000DB323C00000000000408FC00000008065BA5BC00000000090B323C00C00000013000000620300003C00000006000000020000000000000000408FC0000000A074635BC0000000804A2B24C00000000000408FC00000008065BA5BC00000000090B323C00C000000130000006A0300003C0000000600
310
0000020000000000000000408F40000000203BBB5BC0000000000DB323C00000000000408F4000000020F7035CC000000000F7A823C00C00000013000000720300003C00000006000000020000000000000000408F4000000020F7035CC000000000F7A823C00000000000408FC000000080F6035CC000000000F7A823C00C
310
000000130000007A0300003C00000006000000020000000000000000408FC00000008065BA5BC00000000090B323C00000000000408FC000000080F6035CC000000000F7A823C00C00000013000000820300003C00000006000000020000000000000000408F4000000020F7035CC000000000F7A823C00000000000408F40
310
00000020F7035CC00000000027861BC00C000000130000008A0300003C00000006000000020000000000000000408F4000000020F7035CC00000000027861BC00000000000408FC000000080F6035CC00000000028861BC00C00000013000000920300003C00000006000000020000000000000000408FC000000080F6035C
310
C000000000F7A823C00000000000408FC000000080F6035CC00000000028861BC00C000000130000009A0300003C00000006000000020000000000000000408F4000000020F7035CC00000000027861BC00000000000408F40000000C06F7D5DC00000000027861BC00C00000013000000A20300003C000000060000000200
310
00000000000000408F40000000C06F7D5DC00000000027861BC00000000000408FC0000000406F7D5DC00000000028861BC00C00000013000000AA0300003C00000006000000020000000000000000408FC0000000406F7D5DC00000000028861BC00000000000408FC000000080F6035CC00000000028861BC00C00000013
310
000000B20300003C00000006000000020000000000000000408F40000000C06F7D5DC00000000027861BC00000000000408F40000000C06F7D5DC0000000000000E8BE0C00000013000000BA0300003C00000006000000020000000000000000408F40000000C06F7D5DC0000000000000E8BE0000000000408FC000000040
310
6F7D5DC0000000000000E8BE0C00000013000000C20300003C00000006000000020000000000000000408FC0000000406F7D5DC00000000028861BC00000000000408FC0000000406F7D5DC0000000000000E8BE0C00000013000000CA0300003C00000006000000020000000000000000408F40000000C06F7D5DC0000000
310
000000E8BE0000000000408F4000000060C4AB5BC0000000000000E8BE0C00000013000000D20300003C00000006000000020000000000000000408F4000000060C4AB5BC0000000000000E8BE0000000000408FC0000000C0C3AB5BC0000000000000E8BE0C00000013000000DA0300003C00000006000000020000000000
310
000000408FC0000000406F7D5DC0000000000000E8BE0000000000408FC0000000C0C3AB5BC0000000000000E8BE0C00000013000000E20300003C00000006000000020000000000000000408F4000000060C4AB5BC0000000000000E8BE0000000000408F400000002051085BC0000000009497F7BF0C00000013000000EA
310
0300003C00000006000000020000000000000000408F400000002051085BC0000000009497F7BF0000000000408FC00000008050085BC0000000009897F7BF0C00000013000000F20300003C00000006000000020000000000000000408FC00000008050085BC0000000009897F7BF0000000000408FC0000000C0C3AB5BC0
310
000000000000E8BE0C00000013000000FA0300003C00000006000000020000000000000000408F400000002051085BC0000000009497F7BF0000000000408F40000000E0DD645AC0000000000000E8BE0C00000013000000020400003C00000006000000020000000000000000408F40000000E0DD645AC0000000000000E8
310
BE0000000000408FC000000040DD645AC0000000000000E8BE0C000000130000000A0400003C00000006000000020000000000000000408FC000000040DD645AC0000000000000E8BE0000000000408FC00000008050085BC0000000009897F7BF0C00000013000000120400003C0000000600000002000000000000000040
310
8F40000000E0DD645AC0000000000000E8BE0000000000408F400000006052C458C0000000000000E8BE0C000000130000001A0400003C00000006000000020000000000000000408F400000006052C458C0000000000000E8BE0000000000408FC0000000C051C458C0000000000000E8BE0C00000013000000220400003C
310
00000006000000020000000000000000408FC0000000C051C458C0000000000000E8BE0000000000408FC000000040DD645AC0000000000000E8BE0C000000130000002A0400003C00000006000000020000000000000000408F400000006052C458C0000000000000E8BE0000000000408F4000000060BF9858C000000000
310
6053C5BF0C00000013000000320400003C00000006000000020000000000000000408F4000000060BF9858C0000000006053C5BF0000000000408FC0000000C0BE9858C000000000A053C5BF0C000000130000003A0400003C00000006000000020000000000000000408FC0000000C0BE9858C000000000A053C5BF000000
310
0000408FC0000000C051C458C0000000000000E8BE0C00000013000000420400003C00000006000000020000000000000000408F4000000060BF9858C0000000006053C5BF0000000000408F4000000020057758C000000000D81EE4BF0C000000130000004A0400003C00000006000000020000000000000000408F400000
310
0020057758C000000000D81EE4BF0000000000408FC000000080047758C000000000E81EE4BF0C00000013000000520400003C00000006000000020000000000000000408FC000000080047758C000000000E81EE4BF0000000000408FC0000000C0BE9858C000000000A053C5BF0C000000130000005A0400003C00000006
310
000000020000000000000000408F4000000020057758C000000000D81EE4BF0000000000408F40000000A0396457C000000000090B1BC00C00000013000000620400003C00000006000000020000000000000000408F40000000A0396457C000000000090B1BC00000000000408FC000000000396457C0000000000A0B1BC0
310
0C000000130000006A0400003C00000006000000020000000000000000408FC000000080047758C000000000E81EE4BF0000000000408FC000000000396457C0000000000A0B1BC00C00000013000000720400003C00000006000000020000000000000000408F40000000A0396457C000000000090B1BC00000000000408F
310
40000000607B3057C00000000014711EC00C000000130000007A0400003C00000006000000020000000000000000408F40000000607B3057C00000000014711EC00000000000408FC0000000C07A3057C0000000001C711EC00C00000013000000820400003C00000006000000020000000000000000408FC0000000003964
310
57C0000000000A0B1BC00000000000408FC0000000C07A3057C0000000001C711EC00C000000130000008A0400003C00000006000000020000000000000000408F40000000607B3057C00000000014711EC00000000000408F4000000080F9EE56C000000000355E20C00C00000013000000920400003C0000000600000002
310
0000000000000000408F4000000080F9EE56C000000000355E20C00000000000408FC000000040F9EE56C000000000375E20C00C000000130000009A0400003C00000006000000020000000000000000408FC0000000C07A3057C0000000001C711EC00000000000408FC000000040F9EE56C000000000375E20C00C000000
310
13000000A20400003C00000006000000020000000000000000408F4000000080F9EE56C000000000355E20C00000000000408F400000002095A556C0000000802ADC20C00C00000013000000AA0400003C00000006000000020000000000000000408F400000002095A556C0000000802ADC20C00000000000408FC0000000
310
8094A556C0000000002BDC20C00C00000013000000B20400003C00000006000000020000000000000000408FC00000008094A556C0000000002BDC20C00000000000408FC000000040F9EE56C000000000375E20C00C00000013000000BA0400003C00000006000000020000000000000000408F400000002095A556C00000
310
00802ADC20C00000000000408F40000000A0FBBE53C0000000800C4024C00C00000013000000C20400003C00000006000000020000000000000000408FC0000000C0FEBE53C000000080064024C00000000000408F40000000A0FBBE53C0000000800C4024C00C00000013000000CA0400003C000000060000000200000000
310
00000000408FC00000008094A556C0000000002BDC20C00000000000408FC0000000C0FEBE53C000000080064024C00C00000013000000D20400003C00000006000000020000000000000000408F4000000040B0F450C000000000E4722BC00000000000408F40000000A0FBBE53C0000000800C4024C00C00000013000000
310
DA0400003C00000006000000020000000000000000408F4000000040B0F450C000000000E4722BC00000000000408FC000000000B0F450C000000000E0722BC00C00000013000000E20400003C00000006000000020000000000000000408FC0000000C0FEBE53C000000080064024C00000000000408FC000000000B0F450
310
C000000000E0722BC00C00000013000000EA0400003C00000006000000020000000000000000408F4000000040B0F450C000000000E4722BC00000000000408F40000000E027B54CC000000040BB2033C00C00000013000000F20400003C00000006000000020000000000000000408F40000000E027B54CC000000040BB20
310
33C00000000000408FC0000000C01DB54CC0000000C0C62033C00C00000013000000FA0400003C00000006000000020000000000000000408FC000000000B0F450C000000000E0722BC00000000000408FC0000000C01DB54CC0000000C0C62033C00C00000013000000020500003C00000006000000020000000000000000
310
408F40000000E027B54CC000000040BB2033C00000000000408F40000000806E0648C0000000004E2F3AC00C000000130000000A0500003C00000006000000020000000000000000408F40000000806E0648C0000000004E2F3AC00000000000408FC0000000206D0648C0000000E04D2F3AC00C0000001300000012050000
310
3C00000006000000020000000000000000408FC0000000C01DB54CC0000000C0C62033C00000000000408FC0000000206D0648C0000000E04D2F3AC00C000000130000001A0500003C00000006000000020000000000000000408F40000000806E0648C0000000004E2F3AC00000000000408F40000000C06AFE43C0000000
310
60855941C00C00000013000000220500003C00000006000000020000000000000000408F40000000C06AFE43C000000060855941C00000000000408FC00000002070FE43C0000000207D5941C00C000000130000002A0500003C00000006000000020000000000000000408FC0000000206D0648C0000000E04D2F3AC00000
310
000000408FC00000002070FE43C0000000207D5941C00C00000013000000320500003C00000006000000020000000000000000408F40000000C06AFE43C000000060855941C00000000000408F40000000C0BDB940C000000000C73746C00C000000130000003A0500003C00000006000000020000000000000000408F4000
310
0000C0BDB940C000000000C73746C00000000000408FC000000000BBB940C0000000A0C73746C00C00000013000000420500003C00000006000000020000000000000000408FC00000002070FE43C0000000207D5941C00000000000408FC000000000BBB940C0000000A0C73746C00C000000130000004A0500003C000000
310
06000000020000000000000000408F40000000C0BDB940C000000000C73746C00000000000408F4000000040779F3CC0000000C0B08F4BC00C00000013000000520500003C00000006000000020000000000000000408FC0000000C06F9F3CC0000000E0B78F4BC00000000000408F4000000040779F3CC0000000C0B08F4B
310
C00C000000130000005A0500003C00000006000000020000000000000000408FC000000000BBB940C0000000A0C73746C00000000000408FC0000000C06F9F3CC0000000E0B78F4BC00C00000013000000620500003C00000006000000020000000000000000408F40000000E028A339C000000040989D50C0000000000040
310
8F4000000040779F3CC0000000C0B08F4BC00C000000130000006A0500003C00000006000000020000000000000000408F40000000E028A339C000000040989D50C00000000000408FC00000002026A339C000000040989D50C00C00000013000000720500003C00000006000000020000000000000000408FC0000000C06F
310
9F3CC0000000E0B78F4BC00000000000408FC00000002026A339C000000040989D50C00C000000130000007A0500003C00000006000000020000000000000000408F40000000E028A339C000000040989D50C00000000000408F40000000C0211239C000000080340951C00C00000013000000820500003C00000006000000
310
020000000000000000408F40000000C0211239C000000080340951C00000000000408FC0000000C01E1239C000000080340951C00C000000130000008A0500003C00000006000000020000000000000000408FC00000002026A339C000000040989D50C00000000000408FC0000000C01E1239C000000080340951C00C0000
310
0013000000920500003C00000006000000020000000000000000408F40000000C0211239C000000080340951C00000000000408F40000000C0A60738C0000000002A6551C00C000000130000009A0500003C00000006000000020000000000000000408F40000000C0A60738C0000000002A6551C00000000000408FC00000
310
0000A40738C0000000002A6551C00C00000013000000A20500003C00000006000000020000000000000000408FC000000000A40738C0000000002A6551C00000000000408FC0000000C01E1239C000000080340951C00C00000013000000AA0500003C00000006000000020000000000000000408F40000000C0A60738C000
310
0000002A6551C00000000000408F4000000000F9142EC00000004019AD53C00C00000013000000B20500003C00000006000000020000000000000000408F4000000000F9142EC00000004019AD53C00000000000408FC000000080F3142EC00000004019AD53C00C00000013000000BA0500003C0000000600000002000000
310
0000000000408FC000000000A40738C0000000002A6551C00000000000408FC000000080F3142EC00000004019AD53C00C00000013000000C20500003C00000006000000020000000000000000408F4000000000F9142EC00000004019AD53C00000000000408F400000000050A02BC000000080D61454C00C000000130000
310
00CA0500003C00000006000000020000000000000000408F400000000050A02BC000000080D61454C00000000000408FC00000008053A02BC000000080D41454C00C00000013000000D20500003C00000006000000020000000000000000408FC000000080F3142EC00000004019AD53C00000000000408FC00000008053A0
310
2BC000000080D41454C00C00000013000000DA0500003C00000006000000020000000000000000408F400000000050A02BC000000080D61454C00000000000408F400000008070152AC0000000E0448D54C00C00000013000000E20500003C00000006000000020000000000000000408FC00000000066152AC00000004047
310
8D54C00000000000408F400000008070152AC0000000E0448D54C00C00000013000000EA0500003C00000006000000020000000000000000408FC00000008053A02BC000000080D41454C00000000000408FC00000000066152AC000000040478D54C00C00000013000000F20500003C000000060000000200000000000000
310
00408F4000000080D38E29C0000000C0510E55C00000000000408F400000008070152AC0000000E0448D54C00C00000013000000FA0500003C00000006000000020000000000000000408F4000000080D38E29C0000000C0510E55C00000000000408FC000000000CE8E29C0000000C0510E55C00C00000013000000020600
310
003C00000006000000020000000000000000408FC000000000CE8E29C0000000C0510E55C00000000000408FC00000000066152AC000000040478D54C00C000000130000000A0600003C00000006000000020000000000000000408F4000000080D38E29C0000000C0510E55C00000000000408F4000000080D38E29C00000
310
0000602657C00C00000013000000120600003C00000006000000020000000000000000408F4000000080D38E29C000000000602657C00000000000408FC000000000CE8E29C000000000602657C00C000000130000001A0600003C00000006000000020000000000000000408FC000000000CE8E29C0000000C0510E55C000
310
00000000408FC000000000CE8E29C000000000602657C00C00000013000000220600003C00000006000000020000000000000000408F4000000080D38E29C000000000602657C00000000000408F40000000003B4A29C0000000A0816757C00C000000130000002A0600003C00000006000000020000000000000000408F40
310
000000003B4A29C0000000A0816757C00000000000408FC000000080364A29C000000000816757C00C00000013000000320600003C00000006000000020000000000000000408FC000000000CE8E29C000000000602657C00000000000408FC000000080364A29C000000000816757C00C000000130000003A0600003C0000
310
0006000000020000000000000000408F40000000003B4A29C0000000A0816757C00000000000408F40000000801D8128C0000000C032A457C00C00000013000000420600003C00000006000000020000000000000000408F40000000801D8128C0000000C032A457C00000000000408FC000000080158128C00000004033A4
310
57C00C000000130000004A0600003C00000006000000020000000000000000408FC000000080364A29C000000000816757C00000000000408FC000000080158128C00000004033A457C00C00000013000000520600003C00000006000000020000000000000000408F40000000801D8128C0000000C032A457C00000000000
310
408F40000000002E4127C00000000051D857C00C000000130000005A0600003C00000006000000020000000000000000408F40000000002E4127C00000000051D857C00000000000408FC000000080284127C00000000051D857C00C00000013000000620600003C00000006000000020000000000000000408FC000000080
310
284127C00000000051D857C00000000000408FC000000080158128C00000004033A457C00C000000130000006A0600003C00000006000000020000000000000000408F40000000002E4127C00000000051D857C00000000000408F4000000000408C1BC0000000A0B20759C00C00000013000000720600003C000000060000
310
00020000000000000000408F4000000000408C1BC0000000A0B20759C00000000000408FC000000000368C1BC0000000C0B20759C00C000000130000007A0600003C00000006000000020000000000000000408FC000000080284127C00000000051D857C00000000000408FC000000000368C1BC0000000C0B20759C00C00
310
000013000000820600003C00000006000000020000000000000000408F4000000000408C1BC0000000A0B20759C00000000000408F4000000000B18A17C000000020243B59C00C000000130000008A0600003C00000006000000020000000000000000408F4000000000B18A17C000000020243B59C00000000000408FC000
310
000000A68A17C000000040243B59C00C00000013000000920600003C00000006000000020000000000000000408FC000000000368C1BC0000000C0B20759C00000000000408FC000000000A68A17C000000040243B59C00C000000130000009A0600003C00000006000000020000000000000000408F4000000000B18A17C0
310
00000020243B59C00000000000408F40000000004AEF12C0000000207E5F59C00C00000013000000A20600003C00000006000000020000000000000000408F40000000004AEF12C0000000207E5F59C00000000000408FC00000000040EF12C0000000407E5F59C00C00000013000000AA0600003C00000006000000020000
310
000000000000408FC00000000040EF12C0000000407E5F59C00000000000408FC000000000A68A17C000000040243B59C00C00000013000000B20600003C00000006000000020000000000000000408F40000000004AEF12C0000000207E5F59C00000000000408F4000000000700BEFBF0000002029B759C00C0000001300
310
0000BA0600003C00000006000000020000000000000000408F4000000000700BEFBF0000002029B759C00000000000408FC000000000200BEFBF0000004029B759C00C00000013000000C20600003C00000006000000020000000000000000408FC00000000040EF12C0000000407E5F59C00000000000408FC00000000020
310
0BEFBF0000004029B759C00C00000013000000CA0600003C00000006000000020000000000000000408F4000000000700BEFBF0000002029B759C00000000000408F4000000000B09BDDBF000000E031CB59C00C00000013000000D20600003C00000006000000020000000000000000408F4000000000B09BDDBF000000E0
310
31CB59C00000000000408FC000000000509CDDBF000000C030CB59C00C00000013000000DA0600003C00000006000000020000000000000000408FC000000000200BEFBF0000004029B759C00000000000408FC000000000509CDDBF000000C030CB59C00C00000013000000E20600003C0000000600000002000000000000
310
0000408F4000000000B09BDDBF000000E031CB59C00000000000408F400000000080DBBEBF0000008076EA59C00C00000013000000EA0600003C00000006000000020000000000000000408FC00000000000D6BEBF0000004078EA59C00000000000408F400000000080DBBEBF0000008076EA59C00C00000013000000F206
310
00003C00000006000000020000000000000000408FC00000000000D6BEBF0000004078EA59C00000000000408FC000000000509CDDBF000000C030CB59C00C00000013000000FA0600003C00000006000000020000000000000000408F40000000000000083F00000060D60F5AC00000000000408F400000000080DBBEBF00
310
00008076EA59C00C00000013000000020700003C00000006000000020000000000000000408F40000000000000083F00000060D60F5AC00000000000408FC0000000000000163F00000080D60F5AC00C000000130000000A0700003C00000006000000020000000000000000408FC0000000000000163F00000080D60F5AC0
310
0000000000408FC00000000000D6BEBF0000004078EA59C00C00000013000000120700003C00000006000000020000000000000000408F40000000000000083F00000060D60F5AC00000000000408F40000000000000083F0000006026025BC00C000000130000001A0700003C00000006000000020000000000000000408F
310
40000000000000083F0000006026025BC00000000000408FC0000000000000163F0000008026025BC00C00000013000000220700003C00000006000000020000000000000000408FC0000000000000163F0000008026025BC00000000000408FC0000000000000163F00000080D60F5AC00C000000130000002A0700003C00
310
000006000000020000000000000000408F40000000000000083F0000006026025BC00000000000408F40000000005C97F7BF000000A099A55BC00C00000013000000320700003C00000006000000020000000000000000408F40000000005C97F7BF000000A099A55BC00000000000408FC0000000003497F7BF000000C099
310
A55BC00C000000130000003A0700003C00000006000000020000000000000000408FC0000000003497F7BF000000C099A55BC00000000000408FC0000000000000163F0000008026025BC00C00000013000000420700003C00000006000000020000000000000000408F40000000005C97F7BF000000A099A55BC000000000
310
00408F40000000000000083F000000E00C495CC00C000000130000004A0700003C00000006000000020000000000000000408FC0000000000000163F000000000D495CC00000000000408FC0000000003497F7BF000000C099A55BC00C00000013000000520700003C00000006000000020000000000000000408F40000000
310
40750642C000000000005B50C00000000000408F4000000040348A41C00000006058BB51C00C000000130000005A0700003C00000006000000020000000000000000408FC000000000348A41C0000000E054BB51C00000000000408FC000000080750642C0000000A0FC5A50C00C00000013000000620700003C0000000600
310
0000020000000000000000408F4000000000BC9E43C0000000E03DB34BC00000000000408F400000000000AA42C000000040A6534EC00C000000130000006A0700003C00000006000000020000000000000000408FC0000000A0FFA942C000000060A2534EC00000000000408FC000000020BC9E43C0000000403AB34BC00C
310
00000013000000720700003C00000006000000020000000000000000408F40000000A08B0F46C000000080E20A47C00000000000408F40000000A0C4A944C0000000A0947649C00C000000130000007A0700003C00000006000000020000000000000000408FC0000000E0C9A944C000000000877649C00000000000408FC0
310
000000C0910F46C000000080D50A47C00C00000013000000820700003C00000006000000020000000000000000408F4000000080EE4549C0000000E01CE142C00000000000408F4000000000FB7947C000000000440545C00C000000130000008A0700003C00000006000000020000000000000000408FC000000020FF7947
310
C0000000203C0545C00000000000408FC000000040F34549C00000008015E142C00C00000013000000920700003C00000006000000020000000000000000408F4000000020F1284DC0000000809BAC3EC00000000000408F4000000000CA044BC000000040412241C00C000000130000009A0700003C000000060000000200
310
00000000000000408FC000000060C1044BC000000060472241C00000000000408FC000000000E8284DC000000080A6AC3EC00C00000013000000A20700003C00000006000000020000000000000000408F40000000E020CD50C0000000802E0C39C00000000000408F40000000808F2E4FC000000080BCD73BC00C00000013
310
000000AA0700003C00000006000000020000000000000000408FC000000060812E4FC0000000A0CBD73BC00000000000408FC00000008019CD50C0000000003C0C39C00C00000013000000B20700003C00000006000000020000000000000000408F40000000A0A93B53C000000000A50C35C00000000000408F4000000060
310
75EB51C0000000401DF636C00C00000013000000BA0700003C00000006000000020000000000000000408FC00000000073EB51C00000006020F636C00000000000408FC000000020A73B53C000000080A70C35C00C00000013000000C20700003C00000006000000020000000000000000408F40000000002FCD55C0000000
310
400DCD32C00000000000408F40000000C0D66C54C0000000808FC533C00C00000013000000CA0700003C00000006000000020000000000000000408FC0000000A0D26C54C00000004093C533C00000000000408FC0000000E02ACD55C00000004010CD32C00C00000013000000D20700003C00000006000000020000000000
310
000000408F40000000605F6E58C000000080502032C00000000000408F40000000C0E80757C000000080EA5E32C00C00000013000000DA0700003C00000006000000020000000000000000408FC000000020E80757C000000040EB5E32C00000000000408FC0000000C05E6E58C0000000C0502032C00C00000013000000E2
310
0700003C00000006000000020000000000000000408FC000000080F6035CC00000000028861BC00000000000408FC0000000C0C3AB5BC0000000000000E8BE0C00000013000000EA0700003C00000006000000020000000000000000408FC000000080F6035CC000000000F7A823C00000000000408FC00000008050085BC0
310
000000009897F7BF0C00000013000000F20700003C00000006000000020000000000000000408FC00000008065BA5BC00000000090B323C00000000000408FC00000008050085BC0000000009897F7BF0C00000013000000FA0700003C00000006000000020000000000000000408FC000000080F1075BC000000080C25725
310
C00000000000408FC0000000C051C458C0000000000000E8BE0C00000013000000020800003C00000006000000020000000000000000408FC0000000A074635BC0000000804A2B24C00000000000408FC000000040DD645AC0000000000000E8BE0C000000130000000A0800003C0000000600000002000000000000000040
310
8FC0000000C0AEB45AC000000080916527C00000000000408FC0000000C051C458C0000000000000E8BE0C00000013000000120800003C00000006000000020000000000000000408FC0000000C0FE645AC000000080B33B2AC00000000000408FC0000000C0BE9858C000000000A053C5BF0C000000130000001A0800003C
310
00000006000000020000000000000000408FC000000080047758C000000000E81EE4BF0000000000408FC00000000080F359C000000080F45B2DC00C00000013000000220800003C00000006000000020000000000000000408FC00000004024345AC000000000CFEF2BC00000000000408FC0000000C0BE9858C000000000
310
A053C5BF0C000000130000002A0800003C00000006000000020000000000000000408FC000000000396457C0000000000A0B1BC00000000000408FC0000000807B3159C000000080F9822EC00C00000013000000320800003C00000006000000020000000000000000408FC000000080047758C000000000E81EE4BF000000
310
0000408FC000000000409E59C00000008066382EC00C000000130000003A0800003C00000006000000020000000000000000408FC0000000401BD258C0000000006CAB2EC00000000000408FC0000000C07A3057C0000000001C711EC00C00000013000000420800003C00000006000000020000000000000000408FC00000
310
00401BD258C0000000C0502032C00000000000408FC000000040F9EE56C000000000375E20C00C000000130000004A0800003C00000006000000020000000000000000408FC00000008094A556C0000000002BDC20C00000000000408FC0000000C05E6E58C0000000C0502032C00C00000013000000520800003C00000006
310
000000020000000000000000408FC0000000C0FEBE53C000000080064024C00000000000408FC000000020E80757C000000040EB5E32C00C000000130000005A0800003C00000006000000020000000000000000408FC000000000B0F450C000000000E0722BC00000000000408FC0000000A0D26C54C00000004093C533C0
310
0C00000013000000620800003C00000006000000020000000000000000408FC0000000C0FEBE53C000000080064024C00000000000408FC0000000E02ACD55C00000004010CD32C00C000000130000006A0800003C00000006000000020000000000000000408FC0000000C01DB54CC0000000C0C62033C00000000000408F
310
C00000000073EB51C00000006020F636C00C00000013000000720800003C00000006000000020000000000000000408FC000000000B0F450C000000000E0722BC00000000000408FC000000020A73B53C000000080A70C35C00C000000130000007A0800003C00000006000000020000000000000000408FC0000000206D06
310
48C0000000E04D2F3AC00000000000408FC000000060812E4FC0000000A0CBD73BC00C00000013000000820800003C00000006000000020000000000000000408FC0000000C01DB54CC0000000C0C62033C00000000000408FC00000008019CD50C0000000003C0C39C00C000000130000008A0800003C0000000600000002
310
0000000000000000408FC00000002070FE43C0000000207D5941C00000000000408FC000000060C1044BC000000060472241C00C00000013000000920800003C00000006000000020000000000000000408FC0000000206D0648C0000000E04D2F3AC00000000000408FC000000000E8284DC000000080A6AC3EC00C000000
310
130000009A0800003C00000006000000020000000000000000408FC000000000BBB940C0000000A0C73746C00000000000408FC000000020FF7947C0000000203C0545C00C00000013000000A20800003C00000006000000020000000000000000408FC00000002070FE43C0000000207D5941C00000000000408FC0000000
310
40F34549C00000008015E142C00C00000013000000AA0800003C00000006000000020000000000000000408FC0000000C06F9F3CC0000000E0B78F4BC00000000000408FC0000000E0C9A944C000000000877649C00C00000013000000B20800003C00000006000000020000000000000000408FC000000000BBB940C00000
310
00A0C73746C00000000000408FC0000000C0910F46C000000080D50A47C00C00000013000000BA0800003C00000006000000020000000000000000408FC00000002026A339C000000040989D50C00000000000408FC0000000A0FFA942C000000060A2534EC00C00000013000000C20800003C000000060000000200000000
310
00000000408FC0000000C06F9F3CC0000000E0B78F4BC00000000000408FC000000020BC9E43C0000000403AB34BC00C00000013000000CA0800003C00000006000000020000000000000000408FC000000000348A41C0000000E054BB51C00000000000408FC0000000C01E1239C000000080340951C00C00000013000000
310
D20800003C00000006000000020000000000000000408FC00000002026A339C000000040989D50C00000000000408FC000000080750642C0000000A0FC5A50C00C00000013000000DA0800003C00000006000000020000000000000000408FC000000000A40738C0000000002A6551C00000000000408FC0000000601F863B
310
C000000000F6A853C00C00000013000000E20800003C00000006000000020000000000000000408FC000000040D43341C000000000F6A853C00000000000408FC0000000C01E1239C000000080340951C00C00000013000000EA0800003C00000006000000020000000000000000408FC000000000A40738C0000000002A65
310
51C00000000000408FC0000000601F863BC000000040293255C00C00000013000000F20800003C00000006000000020000000000000000408FC000000080F3142EC00000004019AD53C00000000000408FC0000000C0E19B36C000000040293255C00C00000013000000FA0800003C00000006000000020000000000000000
310
408FC0000000C0E19B36C000000040293255C00000000000408FC00000008053A02BC000000080D41454C00C00000013000000020900003C00000006000000020000000000000000408FC0000000C0E19B36C000000040293255C00000000000408FC00000000066152AC000000040478D54C00C000000130000000A090000
310
3C00000006000000020000000000000000408FC000000000CE8E29C0000000C0510E55C00000000000408FC0000000C0E19B36C000000040293255C00C00000013000000120900003C00000006000000020000000000000000408FC000000000CE8E29C000000000602657C00000000000408FC0000000C0E19B36C0000000
310
C0C2CD59C00C000000130000001A0900003C00000006000000020000000000000000408FC0000000C0E19B36C0000000C0C2CD59C00000000000408FC000000080364A29C000000000816757C00C00000013000000220900003C00000006000000020000000000000000408FC000000080A4B131C0000000C0C2CD59C00000
310
000000408FC000000080158128C00000004033A457C00C000000130000002A0900003C00000006000000020000000000000000408FC000000000368C1BC0000000C0B20759C00000000000408FC000000080A4B131C00000000052085BC00C00000013000000320900003C00000006000000020000000000000000408FC000
310
000080284127C00000000051D857C00000000000408FC000000080A4B131C0000000C0C2CD59C00C000000130000003A0900003C00000006000000020000000000000000408FC0000000807CC82DC000000040AE355BC00000000000408FC000000000A68A17C000000040243B59C00C00000013000000420900003C000000
310
06000000020000000000000000408FC00000000040EF12C0000000407E5F59C00000000000408FC00000008035D528C00000004040955BC00C000000130000004A0900003C00000006000000020000000000000000408FC000000000200BEFBF0000004029B759C00000000000408FC00000008035D528C00000004040955B
310
C00C00000013000000520900003C00000006000000020000000000000000408FC000000080E18322C00000000052C65CC00000000000408FC0000000000000163F000000000D495CC00C000000130000005A0900003C00000006000000020000000000000000408FC000000080E18322C00000000052C65CC0000000000040
310
8FC0000000003497F7BF000000C099A55BC00C00000013000000620900003C00000006000000020000000000000000408FC00000008031F724C0000000C0C01E5CC00000000000408FC0000000000000163F0000008026025BC00C000000130000006A0900003C00000006000000020000000000000000408FC00000008031
310
F724C0000000C0C01E5CC00000000000408FC0000000000000163F00000080D60F5AC00C00000013000000720900003C00000006000000020000000000000000408FC00000008031F724C0000000C0C01E5CC00000000000408FC00000000000D6BEBF0000004078EA59C00C000000130000007A0900003C00000006000000
310
020000000000000000408FC00000008035D528C00000004040955BC00000000000408FC000000000509CDDBF000000C030CB59C00C00000013000000820900003C00000006000000020000000000000000408F4000000020F7035CC00000000027861BC00000000000408F4000000060C4AB5BC0000000000000E8BE0C0000
310
00130000008A0900003C00000006000000020000000000000000408F4000000020F7035CC000000000F7A823C00000000000408F400000002051085BC0000000009497F7BF0C00000013000000920900003C00000006000000020000000000000000408F40000000203BBB5BC0000000000DB323C00000000000408F400000
310
002051085BC0000000009497F7BF0C000000130000009A0900003C00000006000000020000000000000000408F40000000E0DD645AC0000000000000E8BE0000000000408F400000004037635BC0000000801E2C24C00C00000013000000A20900003C00000006000000020000000000000000408F400000006052C458C000
310
0000000000E8BE0000000000408F400000000092055BC000000080586325C00C00000013000000AA0900003C00000006000000020000000000000000408F400000006052C458C0000000000000E8BE0000000000408F40000000001BB25AC000000080077A27C00C00000013000000B20900003C0000000600000002000000
310
0000000000408F4000000060BF9858C0000000006053C5BF0000000000408F40000000C057655AC00000008061382AC00C00000013000000BA0900003C00000006000000020000000000000000408F400000008035355AC000000080B7E72BC00000000000408F4000000060BF9858C0000000006053C5BF0C000000130000
310
00C20900003C00000006000000020000000000000000408F4000000020057758C000000000D81EE4BF0000000000408F400000006044F359C000000080DE5C2DC00C00000013000000CA0900003C00000006000000020000000000000000408F4000000020057758C000000000D81EE4BF0000000000408F4000000020909C
310
59C000000080D83A2EC00C00000013000000D20900003C00000006000000020000000000000000408F40000000A0396457C000000000090B1BC00000000000408F40000000004D3159C00000000008832EC00C00000013000000DA0900003C00000006000000020000000000000000408F40000000E01BD258C0000000006C
310
AB2EC00000000000408F40000000607B3057C00000000014711EC00C00000013000000E20900003C00000006000000020000000000000000408F40000000E01BD258C0000000C0502032C00000000000408F4000000080F9EE56C000000000355E20C00C00000013000000EA0900003C000000060000000200000000000000
310
00408F40000000605F6E58C000000080502032C00000000000408F400000002095A556C0000000802ADC20C00C00000013000000F20900003C00000006000000020000000000000000408F40000000C0E80757C000000080EA5E32C00000000000408F40000000A0FBBE53C0000000800C4024C00C00000013000000FA0900
310
003C00000006000000020000000000000000408F40000000002FCD55C0000000400DCD32C00000000000408F40000000A0FBBE53C0000000800C4024C00C00000013000000020A00003C00000006000000020000000000000000408F4000000040B0F450C000000000E4722BC00000000000408F40000000C0D66C54C00000
310
00808FC533C00C000000130000000A0A00003C00000006000000020000000000000000408F40000000A0A93B53C000000000A50C35C00000000000408F4000000040B0F450C000000000E4722BC00C00000013000000120A00003C00000006000000020000000000000000408F40000000E027B54CC000000040BB2033C000
310
00000000408F400000006075EB51C0000000401DF636C00C000000130000001A0A00003C00000006000000020000000000000000408F40000000E020CD50C0000000802E0C39C00000000000408F40000000E027B54CC000000040BB2033C00C00000013000000220A00003C00000006000000020000000000000000408F40
310
000000806E0648C0000000004E2F3AC00000000000408F40000000808F2E4FC000000080BCD73BC00C000000130000002A0A00003C00000006000000020000000000000000408F4000000020F1284DC0000000809BAC3EC00000000000408F40000000806E0648C0000000004E2F3AC00C00000013000000320A00003C0000
310
0006000000020000000000000000408F40000000C06AFE43C000000060855941C00000000000408F4000000000CA044BC000000040412241C00C000000130000003A0A00003C00000006000000020000000000000000408F4000000080EE4549C0000000E01CE142C00000000000408F40000000C06AFE43C0000000608559
310
41C00C00000013000000420A00003C00000006000000020000000000000000408F40000000C0BDB940C000000000C73746C00000000000408F4000000000FB7947C000000000440545C00C000000130000004A0A00003C00000006000000020000000000000000408F40000000A08B0F46C000000080E20A47C00000000000
310
408F40000000C0BDB940C000000000C73746C00C00000013000000520A00003C00000006000000020000000000000000408F40000000A0C4A944C0000000A0947649C00000000000408F4000000040779F3CC0000000C0B08F4BC00C000000130000005A0A00003C00000006000000020000000000000000408F4000000000
310
BC9E43C0000000E03DB34BC00000000000408F4000000040779F3CC0000000C0B08F4BC00C00000013000000620A00003C00000006000000020000000000000000408F40000000E028A339C000000040989D50C00000000000408F400000000000AA42C000000040A6534EC00C000000130000006A0A00003C000000060000
310
00020000000000000000408F4000000040750642C000000000005B50C00000000000408F40000000E028A339C000000040989D50C00C00000013000000720A00003C00000006000000020000000000000000408F40000000C0211239C000000080340951C00000000000408F4000000040348A41C00000006058BB51C00C00
310
0000130000007A0A00003C00000006000000020000000000000000408F40000000C0D53341C000000000F6A853C00000000000408F40000000C0211239C000000080340951C00C00000013000000820A00003C00000006000000020000000000000000408F400000000022863BC0000000E0F5A853C00000000000408F4000
310
0000C0A60738C0000000002A6551C00C000000130000008A0A00003C00000006000000020000000000000000408F400000000022863BC000000040293255C00000000000408F40000000C0A60738C0000000002A6551C00C00000013000000920A00003C00000006000000020000000000000000408F4000000080E49B36C0
310
00000040293255C00000000000408F4000000000F9142EC00000004019AD53C00C000000130000009A0A00003C00000006000000020000000000000000408F4000000080E49B36C000000040293255C00000000000408F400000000050A02BC000000080D61454C00C00000013000000A20A00003C00000006000000020000
310
000000000000408F4000000080E49B36C000000040293255C00000000000408F400000008070152AC0000000E0448D54C00C00000013000000AA0A00003C00000006000000020000000000000000408F4000000080D38E29C0000000C0510E55C00000000000408F4000000080E49B36C000000040293255C00C0000001300
310
0000B20A00003C00000006000000020000000000000000408F4000000080D38E29C000000000602657C00000000000408F4000000040E49B36C0000000C0C2CD59C00C00000013000000BA0A00003C00000006000000020000000000000000408F40000000003B4A29C0000000A0816757C00000000000408F4000000040E4
310
9B36C0000000C0C2CD59C00C00000013000000C20A00003C00000006000000020000000000000000408F40000000801D8128C0000000C032A457C00000000000408F40000000C0A6B131C0000000C0C2CD59C00C00000013000000CA0A00003C00000006000000020000000000000000408F40000000002E4127C000000000
310
51D857C00000000000408F40000000C0A6B131C0000000C0C2CD59C00C00000013000000D20A00003C00000006000000020000000000000000408F4000000000408C1BC0000000A0B20759C00000000000408F4000000040A7B131C00000000052085BC00C00000013000000DA0A00003C0000000600000002000000000000
310
0000408F4000000000B18A17C000000020243B59C00000000000408F4000000080A2C82DC000000080AC355BC00C00000013000000E20A00003C00000006000000020000000000000000408F40000000004AEF12C0000000207E5F59C00000000000408F40000000004DD528C0000000603E955BC00C00000013000000EA0A
310
00003C00000006000000020000000000000000408F4000000000700BEFBF0000002029B759C00000000000408F40000000004DD528C0000000603E955BC00C00000013000000F20A00003C00000006000000020000000000000000408F40000000000000083F000000E00C495CC00000000000408F4000000000DC8322C000
310
00002056C65CC00C00000013000000FA0A00003C00000006000000020000000000000000408F40000000005C97F7BF000000A099A55BC00000000000408F4000000000DC8322C00000002056C65CC00C00000013000000020B00003C00000006000000020000000000000000408F40000000000000083F0000006026025BC0
310
0000000000408F400000000029F724C000000040C31E5CC00C000000130000000A0B00003C00000006000000020000000000000000408F400000000029F724C000000040C31E5CC00000000000408F400000000080DBBEBF0000008076EA59C00C00000013000000120B00003C00000006000000020000000000000000408F
310
40000000000000083F00000060D60F5AC00000000000408F400000000029F724C000000040C31E5CC00C000000130000001A0B00003C00000006000000020000000000000000408F4000000000B09BDDBF000000E031CB59C00000000000408F40000000004DD528C0000000603E955BC0
100
AcDbSubDMesh
 71
     2
 72
     0
 91
        0
 92
      168
 10
1000.0
 20
-12.77895736694336
 30
-84.22373962402344
 10
1000.0
 20
-12.77895736694336
 30
-92.599609375
 10
1000.0
 20
-12.64498138427734
 30
-93.6172866821289
 10
1000.0
 20
-12.25217819213867
 30
-94.56559753417968
 10
1000.0
 20
-11.62730407714843
 30
-95.37994384765625
 10
1000.0
 20
-6.886962890625
 30
-100.1202774047851
 10
1000.0
 20
-5.885440826416015
 30
-100.9240798950195
 10
1000.0
 20
-4.733680725097656
 30
-101.492073059082
 10
1000.0
 20
-0.9701461791992187
 30
-102.8618850708008
 10
1000.0
 20
-0.4626274108886719
 30
-103.1749191284179
 10
1000.0
 20
0.0000457763671875
 30
-104.2474594116211
 10
1000.0
 20
0.0000457763671875
 30
-108.0335922241211
 10
1000.0
 20
-1.474452972412109
 30
-110.5875015258789
 10
1000.0
 20
0.0000457763671875
 30
-113.1414108276367
 10
1000.0
 20
0.0000457763671875
 30
-117.9600067138672
 10
1000.0
 20
-8.84695816040039
 30
-117.9600067138672
 10
1000.0
 20
-9.257537841796875
 30
-115.099006652832
 10
1000.0
 20
-10.48273468017578
 30
-112.4806671142578
 10
1000.0
 20
-12.41660308837891
 30
-110.3319320678711
 10
1000.0
 20
-14.89186477661133
 30
-108.8386535644531
 10
1000.0
 20
-17.6939582824707
 30
-108.1300048828125
 10
1000.0
 20
-17.69395065307617
 30
-103.2150115966797
 10
1000.0
 20
-22.60895156860351
 30
-103.2150115966797
 10
1000.0
 20
-22.60895538330078
 30
-84.78376770019531
 10
1000.0
 20
-27.52395629882812
 30
-84.78376770019531
 10
1000.0
 20
-27.52395629882812
 30
-78.64000701904297
 10
1000.0
 20
-34.40496063232422
 30
-78.6400146484375
 10
1000.0
 20
-36.05045318603516
 30
-65.421875
 10
1000.0
 20
-39.2401123046875
 30
-55.40032577514648
 10
1000.0
 20
-44.1214485168457
 30
-46.08503723144531
 10
1000.0
 20
-50.54634094238281
 30
-37.75869369506836
 10
1000.0
 20
-58.31985855102539
 30
-30.67424774169922
 10
1000.0
 20
-67.20513153076172
 30
-25.04758453369141
 10
1000.0
 20
-76.93222808837891
 30
-21.04939270019531
 10
1000.0
 20
-87.20599365234376
 30
-18.80098342895507
 10
1000.0
 20
-97.72457122802734
 30
-18.12622833251953
 10
1000.0
 20
-99.28295135498046
 30
-18.1262321472168
 10
1000.0
 20
-99.28295135498046
 30
-15.33480834960937
 10
1000.0
 20
-104.8313903808594
 30
-13.95257186889648
 10
1000.0
 20
-110.9254837036133
 30
-9.849708557128906
 10
1000.0
 20
-112.0619583129883
 30
-9.830009460449218
 10
1000.0
 20
-112.0619583129883
 30
-6.881008148193359
 10
1000.0
 20
-117.9599456787109
 30
-6.881008148193359
 10
1000.0
 20
-117.9599456787109
 30
-0.0000114440917969
 10
1000.0
 20
-110.6838607788086
 30
-0.0000114440917969
 10
1000.0
 20
-108.1299514770508
 30
-1.474506378173828
 10
1000.0
 20
-105.5760421752929
 30
-0.0000114440917969
 10
1000.0
 20
-99.0675277709961
 30
-0.0000114440917969
 10
1000.0
 20
-98.38668060302735
 30
-0.1666069030761719
 10
1000.0
 20
-97.85968780517578
 30
-0.6287651062011719
 10
1000.0
 20
-93.5660171508789
 30
-6.76077651977539
 10
1000.0
 20
-92.75753021240234
 30
-7.610427856445312
 10
1000.0
 20
-91.73397827148438
 30
-8.183998107910156
 10
1000.0
 20
-90.58722686767579
 30
-8.430011749267578
 10
1000.0
 20
-67.82325744628906
 30
-13.72439575195312
 10
1000.0
 20
-57.41527938842773
 30
-19.12785720825195
 10
1000.0
 20
-48.05024719238281
 30
-26.18478393554688
 10
1000.0
 20
-39.98763275146485
 30
-34.69938278198242
 10
1000.0
 20
-33.45110321044922
 30
-44.43576049804687
 10
1000.0
 20
-25.63734245300293
 30
-66.46241760253906
 10
1000.0
 20
-25.07082748413086
 30
-68.14382934570312
 10
1000.0
 20
-24.02988815307617
 30
-69.5806884765625
 10
1000.0
 20
-15.04096221923828
 30
-78.70466613769531
 10
1000.0
 20
-13.8131103515625
 30
-80.32559204101563
 10
-1000.0
 20
-117.9599151611328
 30
-6.881011962890625
 10
-1000.0
 20
-117.9599151611328
 30
-0.0000114440917969
 10
-1000.0
 20
-97.85964965820312
 30
-0.6287727355957032
 10
-1000.0
 20
-93.56597900390625
 30
-6.760780334472656
 10
-1000.0
 20
-90.58718872070313
 30
-8.430015563964843
 10
-1000.0
 20
-78.98429870605468
 30
-10.12504959106445
 10
-1000.0
 20
-67.8232421875
 30
-13.724365234375
 10
-1000.0
 20
-57.41497039794921
 30
-19.12803268432617
 10
-1000.0
 20
-48.05020523071289
 30
-26.18478202819825
 10
-1000.0
 20
-39.98779678344727
 30
-34.69913101196289
 10
-1000.0
 20
-33.45101928710938
 30
-44.4357795715332
 10
-1000.0
 20
-28.62279891967773
 30
-55.12279891967773
 10
-1000.0
 20
-25.63730049133301
 30
-66.46241760253906
 10
-1000.0
 20
-24.02984619140625
 30
-69.5806884765625
 10
-1000.0
 20
-15.04092025756836
 30
-78.70466613769531
 10
-1000.0
 20
-12.77891540527344
 30
-84.22373962402344
 10
-1000.0
 20
-12.77891540527344
 30
-92.599609375
 10
-1000.0
 20
-11.62726211547851
 30
-95.37994384765625
 10
-1000.0
 20
-6.886924743652343
 30
-100.1202850341797
 10
-1000.0
 20
-4.733642578125
 30
-101.4920806884765
 10
-1000.0
 20
-0.9701080322265625
 30
-102.8618927001953
 10
-1000.0
 20
0.0000839233398438
 30
-117.9600219726562
 10
-1000.0
 20
-8.846916198730468
 30
-117.9600219726562
 10
-1000.0
 20
-9.257579803466796
 30
-115.0987548828125
 10
-1000.0
 20
-10.48279953002929
 30
-112.4805145263672
 10
-1000.0
 20
-12.41642379760742
 30
-110.332046508789
 10
-1000.0
 20
-14.89157485961914
 30
-108.8387603759765
 10
-1000.0
 20
-17.69391632080078
 30
-108.1300048828125
 10
-1000.0
 20
-17.69391632080078
 30
-103.2150115966797
 10
-1000.0
 20
-22.60891342163086
 30
-103.2150115966797
 10
-1000.0
 20
-22.60891342163086
 30
-84.78376770019531
 10
-1000.0
 20
-27.52391624450684
 30
-84.78376770019531
 10
-1000.0
 20
-27.52391624450684
 30
-78.6400146484375
 10
-1000.0
 20
-34.40491485595703
 30
-78.6400146484375
 10
-1000.0
 20
-35.0797119140625
 30
-70.92705535888672
 10
-1000.0
 20
-37.32811355590821
 30
-60.65339279174804
 10
-1000.0
 20
-41.32647323608398
 30
-50.92599487304688
 10
-1000.0
 20
-46.95309829711914
 30
-42.04089736938477
 10
-1000.0
 20
-54.03715133666992
 30
-34.26780319213867
 10
-1000.0
 20
-62.36332321166992
 30
-27.84295082092285
 10
-1000.0
 20
-71.67889404296875
 30
-22.9614315032959
 10
-1000.0
 20
-81.70035552978516
 30
-19.77177810668945
 10
-1000.0
 20
-92.12354278564452
 30
-18.37077713012695
 10
-1000.0
 20
-99.28291320800781
 30
-18.1262321472168
 10
-1000.0
 20
-99.28291320800781
 30
-15.33480834960937
 10
-1000.0
 20
-100.7731628417968
 30
-15.25580978393555
 10
-1000.0
 20
-102.47265625
 30
-15.11015701293945
 10
-1000.0
 20
-103.8046875
 30
-14.67959976196289
 10
-1000.0
 20
-104.814712524414
 30
-13.96837615966797
 10
-1000.0
 20
-105.5780487060547
 30
-13.11660385131836
 10
-1000.0
 20
-106.8231658935547
 30
-11.69837570190429
 10
-1000.0
 20
-108.1241149902343
 30
-10.67140579223633
 10
-1000.0
 20
-109.5539932250976
 30
-10.08455276489258
 10
-1000.0
 20
-110.9124450683593
 30
-9.8507080078125
 10
-1000.0
 20
-112.0619201660156
 30
-9.830009460449218
 10
-1000.0
 20
-112.0619201660156
 30
-6.881011962890625
 10
-1000.0
 20
-12.64494705200195
 30
-93.61724853515625
 10
-1000.0
 20
-12.25211715698242
 30
-94.56562805175781
 10
-1000.0
 20
-92.75749206542968
 30
-7.610458374023437
 10
-1000.0
 20
-91.73396301269532
 30
-8.184013366699218
 10
-1000.0
 20
-25.07078170776367
 30
-68.14382934570312
 10
-1000.0
 20
-5.885398864746093
 30
-100.924087524414
 10
-1000.0
 20
-13.81313705444336
 30
-80.32546997070312
 10
-1000.0
 20
-13.04179382324219
 30
-82.20747375488281
 10
-1000.0
 20
-98.38664245605469
 30
-0.1666145324707031
 10
-1000.0
 20
-99.06748962402344
 30
-0.0000114440917969
 10
-1000.0
 20
-105.5760040283203
 30
-0.0000114440917969
 10
-1000.0
 20
-108.1299133300781
 30
-1.474510192871093
 10
-1000.0
 20
-110.6838226318359
 30
-0.0000114440917969
 10
-1000.0
 20
0.0000839233398438
 30
-113.1414184570312
 10
-1000.0
 20
-1.474414825439453
 30
-110.5875091552734
 10
-1000.0
 20
0.0000839233398438
 30
-108.0335998535156
 10
-1000.0
 20
0.0000839233398438
 30
-104.2474670410156
 10
-1000.0
 20
-0.120452880859375
 30
-103.663589477539
 10
-1000.0
 20
-0.4626655578613282
 30
-103.1748504638672
 10
1000.0
 20
-35.07971954345703
 30
-70.92726898193359
 10
1000.0
 20
-37.328125
 30
-60.65351104736328
 10
1000.0
 20
-41.32631301879882
 30
-50.92641067504882
 10
1000.0
 20
-46.95297241210937
 30
-42.04113769531249
 10
1000.0
 20
-54.03741455078125
 30
-34.26761627197266
 10
1000.0
 20
-62.36375427246094
 30
-27.84272003173828
 10
1000.0
 20
-71.67903900146484
 30
-22.96138381958008
 10
1000.0
 20
-81.70060729980468
 30
-19.77172088623047
 10
1000.0
 20
-92.12358093261718
 30
-18.37076568603515
 10
-1000.0
 20
-36.05046081542969
 30
-65.42166900634765
 10
-1000.0
 20
-39.24011611938477
 30
-55.40021514892578
 10
-1000.0
 20
-44.12163543701171
 30
-46.08464050292968
 10
-1000.0
 20
-50.5464859008789
 30
-37.75846862792969
 10
-1000.0
 20
-58.319580078125
 30
-30.67441558837891
 10
-1000.0
 20
-67.20468139648438
 30
-25.04779052734375
 10
-1000.0
 20
-76.93207550048828
 30
-21.04943084716797
 10
-1000.0
 20
-87.20574188232422
 30
-18.80102920532226
 10
-1000.0
 20
-97.72453308105468
 30
-18.1262321472168
 10
1000.0
 20
-108.0870361328125
 30
-10.69403457641601
 10
1000.0
 20
-109.5502471923828
 30
-10.0861701965332
 10
1000.0
 20
-106.7828979492187
 30
-11.73833847045898
 10
1000.0
 20
-105.5834808349609
 30
-13.11011886596679
 10
1000.0
 20
-103.8010482788086
 30
-14.6813850402832
 10
1000.0
 20
-100.7703247070312
 30
-15.25592041015625
 10
1000.0
 20
-102.4462966918945
 30
-15.11493301391601
 10
1000.0
 20
-78.9841079711914
 30
-10.12509536743164
 10
1000.0
 20
-28.6229133605957
 30
-55.12258148193359
 10
1000.0
 20
-13.04187393188476
 30
-82.20732879638672
 10
1000.0
 20
-0.1205368041992187
 30
-103.6634826660156
 93
      902
 90
        4
 90
       13
 90
       14
 90
       85
 90
      133
 90
        4
 90
       14
 90
       15
 90
       86
 90
       85
 90
        4
 90
       15
 90
       16
 90
       87
 90
       86
 90
        4
 90
       16
 90
       17
 90
       88
 90
       87
 90
        4
 90
       17
 90
       18
 90
       89
 90
       88
 90
        4
 90
       18
 90
       19
 90
       90
 90
       89
 90
        4
 90
       19
 90
       20
 90
       91
 90
       90
 90
        4
 90
       20
 90
       21
 90
       92
 90
       91
 90
        4
 90
       21
 90
       22
 90
       93
 90
       92
 90
        4
 90
       22
 90
       23
 90
       94
 90
       93
 90
        4
 90
       23
 90
       24
 90
       95
 90
       94
 90
        4
 90
       24
 90
       25
 90
       96
 90
       95
 90
        4
 90
       25
 90
       26
 90
       97
 90
       96
 90
        4
 90
       26
 90
      139
 90
       98
 90
       97
 90
        4
 90
       27
 90
      140
 90
       99
 90
      148
 90
        4
 90
       28
 90
      141
 90
      100
 90
      149
 90
        4
 90
       29
 90
      142
 90
      101
 90
      150
 90
        4
 90
       30
 90
      143
 90
      102
 90
      151
 90
        4
 90
       31
 90
      144
 90
      103
 90
      152
 90
        4
 90
       32
 90
      145
 90
      104
 90
      153
 90
        4
 90
       33
 90
      146
 90
      105
 90
      154
 90
        4
 90
       34
 90
      147
 90
      106
 90
      155
 90
        4
 90
       35
 90
       36
 90
      107
 90
      156
 90
        4
 90
       36
 90
       37
 90
      108
 90
      107
 90
        4
 90
       37
 90
      162
 90
      109
 90
      108
 90
        4
 90
      162
 90
      163
 90
      110
 90
      109
 90
        4
 90
      163
 90
      161
 90
      111
 90
      110
 90
        4
 90
      161
 90
       38
 90
      112
 90
      111
 90
        4
 90
       38
 90
      160
 90
      113
 90
      112
 90
        4
 90
      160
 90
      159
 90
      114
 90
      113
 90
        4
 90
      159
 90
      157
 90
      115
 90
      114
 90
        4
 90
      157
 90
      158
 90
      116
 90
      115
 90
        4
 90
      158
 90
       39
 90
      117
 90
      116
 90
        4
 90
       39
 90
       40
 90
      118
 90
      117
 90
        4
 90
       40
 90
       41
 90
      119
 90
      118
 90
        4
 90
       41
 90
       42
 90
       64
 90
      119
 90
        4
 90
       42
 90
       43
 90
       65
 90
       64
 90
        4
 90
       43
 90
       44
 90
      132
 90
       65
 90
        4
 90
       44
 90
       45
 90
      131
 90
      132
 90
        4
 90
       45
 90
       46
 90
      130
 90
      131
 90
        4
 90
       46
 90
       47
 90
      129
 90
      130
 90
        4
 90
       47
 90
       48
 90
      128
 90
      129
 90
        4
 90
       48
 90
       49
 90
       66
 90
      128
 90
        4
 90
       49
 90
       50
 90
       67
 90
       66
 90
        4
 90
       50
 90
       51
 90
      122
 90
       67
 90
        4
 90
       51
 90
       52
 90
      123
 90
      122
 90
        4
 90
       52
 90
       53
 90
       68
 90
      123
 90
        4
 90
       53
 90
      164
 90
       69
 90
       68
 90
        4
 90
      164
 90
       54
 90
       70
 90
       69
 90
        4
 90
       54
 90
       55
 90
       71
 90
       70
 90
        4
 90
       55
 90
       56
 90
       72
 90
       71
 90
        4
 90
       56
 90
       57
 90
       73
 90
       72
 90
        4
 90
       57
 90
       58
 90
       74
 90
       73
 90
        4
 90
       58
 90
      165
 90
       75
 90
       74
 90
        4
 90
      165
 90
       59
 90
       76
 90
       75
 90
        4
 90
       59
 90
       60
 90
      124
 90
       76
 90
        4
 90
       60
 90
       61
 90
       77
 90
      124
 90
        4
 90
       61
 90
       62
 90
       78
 90
       77
 90
        4
 90
       62
 90
       63
 90
      126
 90
       78
 90
        4
 90
       63
 90
      166
 90
      127
 90
      126
 90
        4
 90
      166
 90
        0
 90
       79
 90
      127
 90
        4
 90
        0
 90
        1
 90
       80
 90
       79
 90
        4
 90
        1
 90
        2
 90
      120
 90
       80
 90
        4
 90
        2
 90
        3
 90
      121
 90
      120
 90
        4
 90
        3
 90
        4
 90
       81
 90
      121
 90
        4
 90
        4
 90
        5
 90
       82
 90
       81
 90
        4
 90
        5
 90
        6
 90
      125
 90
       82
 90
        4
 90
        6
 90
        7
 90
       83
 90
      125
 90
        4
 90
        7
 90
        8
 90
       84
 90
       83
 90
        4
 90
        8
 90
        9
 90
      138
 90
       84
 90
        4
 90
        9
 90
      167
 90
      137
 90
      138
 90
        4
 90
      167
 90
       10
 90
      136
 90
      137
 90
        4
 90
       10
 90
       11
 90
      135
 90
      136
 90
        4
 90
       11
 90
       12
 90
      134
 90
      135
 90
        4
 90
       12
 90
       13
 90
      133
 90
      134
 90
        4
 90
      139
 90
       27
 90
      148
 90
       98
 90
        4
 90
      140
 90
       28
 90
      149
 90
       99
 90
        4
 90
      141
 90
       29
 90
      150
 90
      100
 90
        4
 90
      142
 90
       30
 90
      151
 90
      101
 90
        4
 90
      143
 90
       31
 90
      152
 90
      102
 90
        4
 90
      144
 90
       32
 90
      153
 90
      103
 90
        4
 90
      145
 90
       33
 90
      154
 90
      104
 90
        4
 90
      146
 90
       34
 90
      155
 90
      105
 90
        4
 90
      147
 90
       35
 90
      156
 90
      106
 90
        4
 90
       65
 90
      132
 90
      119
 90
       64
 90
        4
 90
      132
 90
      131
 90
      118
 90
      119
 90
        3
 90
      131
 90
      117
 90
      118
 90
        4
 90
      130
 90
      129
 90
      115
 90
      116
 90
        4
 90
      131
 90
      130
 90
      116
 90
      117
 90
        3
 90
      129
 90
      114
 90
      115
 90
        4
 90
      129
 90
      128
 90
      113
 90
      114
 90
        4
 90
      128
 90
       66
 90
      111
 90
      112
 90
        3
 90
      128
 90
      112
 90
      113
 90
        4
 90
       66
 90
       67
 90
      109
 90
      110
 90
        3
 90
       66
 90
      110
 90
      111
 90
        4
 90
       67
 90
      122
 90
      108
 90
      109
 90
        4
 90
      122
 90
      123
 90
      107
 90
      108
 90
        4
 90
      123
 90
       68
 90
      156
 90
      107
 90
        4
 90
       68
 90
       69
 90
      106
 90
      156
 90
        4
 90
       69
 90
       70
 90
      105
 90
      155
 90
        3
 90
       69
 90
      155
 90
      106
 90
        4
 90
       70
 90
       71
 90
      104
 90
      154
 90
        3
 90
       70
 90
      154
 90
      105
 90
        4
 90
       71
 90
       72
 90
      103
 90
      153
 90
        3
 90
       71
 90
      153
 90
      104
 90
        4
 90
       72
 90
       73
 90
      102
 90
      152
 90
        3
 90
       72
 90
      152
 90
      103
 90
        4
 90
       73
 90
       74
 90
      101
 90
      151
 90
        3
 90
       73
 90
      151
 90
      102
 90
        4
 90
       74
 90
       75
 90
      100
 90
      150
 90
        3
 90
       74
 90
      150
 90
      101
 90
        4
 90
       75
 90
       76
 90
       99
 90
      149
 90
        3
 90
       75
 90
      149
 90
      100
 90
        4
 90
       76
 90
      124
 90
       98
 90
      148
 90
        3
 90
       76
 90
      148
 90
       99
 90
        4
 90
      124
 90
       77
 90
       96
 90
       97
 90
        3
 90
      124
 90
       97
 90
       98
 90
        3
 90
       77
 90
       95
 90
       96
 90
        4
 90
       77
 90
       78
 90
       94
 90
       95
 90
        3
 90
       78
 90
      126
 90
       94
 90
        3
 90
      126
 90
      127
 90
       94
 90
        3
 90
      127
 90
       79
 90
       94
 90
        4
 90
       79
 90
       80
 90
       93
 90
       94
 90
        3
 90
       80
 90
      120
 90
       93
 90
        4
 90
      120
 90
      121
 90
       92
 90
       93
 90
        4
 90
       81
 90
       82
 90
       91
 90
       92
 90
        3
 90
      121
 90
       81
 90
       92
 90
        4
 90
       82
 90
      125
 90
       90
 90
       91
 90
        4
 90
      125
 90
       83
 90
       89
 90
       90
 90
        3
 90
       83
 90
       84
 90
       89
 90
        4
 90
      133
 90
       85
 90
       86
 90
       87
 90
        3
 90
      134
 90
      133
 90
       87
 90
        4
 90
      135
 90
      134
 90
       87
 90
       88
 90
        3
 90
      137
 90
      136
 90
       88
 90
        3
 90
      136
 90
      135
 90
       88
 90
        3
 90
       84
 90
      138
 90
       89
 90
        4
 90
      138
 90
      137
 90
       88
 90
       89
 90
        4
 90
       43
 90
       42
 90
       41
 90
       44
 90
        4
 90
       44
 90
       41
 90
       40
 90
       45
 90
        3
 90
       45
 90
       40
 90
       39
 90
        4
 90
       46
 90
      158
 90
      157
 90
       47
 90
        4
 90
       45
 90
       39
 90
      158
 90
       46
 90
        3
 90
       47
 90
      157
 90
      159
 90
        4
 90
       47
 90
      159
 90
      160
 90
       48
 90
        4
 90
       48
 90
       38
 90
      161
 90
       49
 90
        3
 90
       48
 90
      160
 90
       38
 90
        4
 90
       49
 90
      163
 90
      162
 90
       50
 90
        3
 90
       49
 90
      161
 90
      163
 90
        4
 90
       50
 90
      162
 90
       37
 90
       51
 90
        4
 90
       51
 90
       37
 90
       36
 90
       52
 90
        4
 90
       52
 90
       36
 90
       35
 90
       53
 90
        4
 90
       53
 90
       35
 90
      147
 90
      164
 90
        4
 90
      164
 90
       34
 90
      146
 90
       54
 90
        3
 90
      164
 90
      147
 90
       34
 90
        4
 90
       54
 90
       33
 90
      145
 90
       55
 90
        3
 90
       54
 90
      146
 90
       33
 90
        4
 90
       55
 90
       32
 90
      144
 90
       56
 90
        3
 90
       55
 90
      145
 90
       32
 90
        4
 90
       56
 90
       31
 90
      143
 90
       57
 90
        3
 90
       56
 90
      144
 90
       31
 90
        4
 90
       57
 90
       30
 90
      142
 90
       58
 90
        3
 90
       57
 90
      143
 90
       30
 90
        4
 90
       58
 90
       29
 90
      141
 90
      165
 90
        3
 90
       58
 90
      142
 90
       29
 90
        4
 90
      165
 90
       28
 90
      140
 90
       59
 90
        3
 90
      165
 90
      141
 90
       28
 90
        4
 90
       59
 90
       27
 90
      139
 90
       60
 90
        3
 90
       59
 90
      140
 90
       27
 90
        4
 90
       60
 90
       26
 90
       25
 90
       61
 90
        3
 90
       60
 90
      139
 90
       26
 90
        3
 90
       61
 90
       25
 90
       24
 90
        4
 90
       61
 90
       24
 90
       23
 90
       62
 90
        3
 90
       62
 90
       23
 90
       63
 90
        3
 90
       63
 90
       23
 90
      166
 90
        3
 90
      166
 90
       23
 90
        0
 90
        4
 90
        0
 90
       23
 90
       22
 90
        1
 90
        3
 90
        1
 90
       22
 90
        2
 90
        4
 90
        2
 90
       22
 90
       21
 90
        3
 90
        4
 90
        4
 90
       21
 90
       20
 90
        5
 90
        3
 90
        3
 90
       21
 90
        4
 90
        4
 90
        5
 90
       20
 90
       19
 90
        6
 90
        4
 90
        6
 90
       19
 90
       18
 90
        7
 90
        3
 90
        7
 90
       18
 90
        8
 90
        4
 90
       13
 90
       16
 90
       15
 90
       14
 90
        3
 90
       12
 90
       16
 90
       13
 90
        4
 90
       11
 90
       17
 90
       16
 90
       12
 90
        3
 90
      167
 90
       17
 90
       10
 90
        3
 90
       10
 90
       17
 90
       11
 90
        3
 90
        8
 90
       18
 90
        9
 90
        4
 90
        9
 90
       18
 90
       17
 90
      167
 94
      356
 90
       13
 90
       14
 90
       14
 90
       85
 90
       85
 90
      133
 90
       13
 90
      133
 90
       14
 90
       15
 90
       15
 90
       86
 90
       85
 90
       86
 90
       15
 90
       16
 90
       16
 90
       87
 90
       86
 90
       87
 90
       16
 90
       17
 90
       17
 90
       88
 90
       87
 90
       88
 90
       17
 90
       18
 90
       18
 90
       89
 90
       88
 90
       89
 90
       18
 90
       19
 90
       19
 90
       90
 90
       89
 90
       90
 90
       19
 90
       20
 90
       20
 90
       91
 90
       90
 90
       91
 90
       20
 90
       21
 90
       21
 90
       92
 90
       91
 90
       92
 90
       21
 90
       22
 90
       22
 90
       93
 90
       92
 90
       93
 90
       22
 90
       23
 90
       23
 90
       94
 90
       93
 90
       94
 90
       23
 90
       24
 90
       24
 90
       95
 90
       94
 90
       95
 90
       24
 90
       25
 90
       25
 90
       96
 90
       95
 90
       96
 90
       25
 90
       26
 90
       26
 90
       97
 90
       96
 90
       97
 90
       26
 90
      139
 90
       98
 90
      139
 90
       97
 90
       98
 90
       27
 90
      140
 90
       99
 90
      140
 90
       99
 90
      148
 90
       27
 90
      148
 90
       28
 90
      141
 90
      100
 90
      141
 90
      100
 90
      149
 90
       28
 90
      149
 90
       29
 90
      142
 90
      101
 90
      142
 90
      101
 90
      150
 90
       29
 90
      150
 90
       30
 90
      143
 90
      102
 90
      143
 90
      102
 90
      151
 90
       30
 90
      151
 90
       31
 90
      144
 90
      103
 90
      144
 90
      103
 90
      152
 90
       31
 90
      152
 90
       32
 90
      145
 90
      104
 90
      145
 90
      104
 90
      153
 90
       32
 90
      153
 90
       33
 90
      146
 90
      105
 90
      146
 90
      105
 90
      154
 90
       33
 90
      154
 90
       34
 90
      147
 90
      106
 90
      147
 90
      106
 90
      155
 90
       34
 90
      155
 90
       35
 90
       36
 90
       36
 90
      107
 90
      107
 90
      156
 90
       35
 90
      156
 90
       36
 90
       37
 90
       37
 90
      108
 90
      107
 90
      108
 90
       37
 90
      162
 90
      109
 90
      162
 90
      108
 90
      109
 90
      162
 90
      163
 90
      110
 90
      163
 90
      109
 90
      110
 90
      161
 90
      163
 90
      111
 90
      161
 90
      110
 90
      111
 90
       38
 90
      161
 90
       38
 90
      112
 90
      111
 90
      112
 90
       38
 90
      160
 90
      113
 90
      160
 90
      112
 90
      113
 90
      159
 90
      160
 90
      114
 90
      159
 90
      113
 90
      114
 90
      157
 90
      159
 90
      115
 90
      157
 90
      114
 90
      115
 90
      157
 90
      158
 90
      116
 90
      158
 90
      115
 90
      116
 90
       39
 90
      158
 90
       39
 90
      117
 90
      116
 90
      117
 90
       39
 90
       40
 90
       40
 90
      118
 90
      117
 90
      118
 90
       40
 90
       41
 90
       41
 90
      119
 90
      118
 90
      119
 90
       41
 90
       42
 90
       42
 90
       64
 90
       64
 90
      119
 90
       42
 90
       43
 90
       43
 90
       65
 90
       64
 90
       65
 90
       43
 90
       44
 90
       44
 90
      132
 90
       65
 90
      132
 90
       44
 90
       45
 90
       45
 90
      131
 90
      131
 90
      132
 90
       45
 90
       46
 90
       46
 90
      130
 90
      130
 90
      131
 90
       46
 90
       47
 90
       47
 90
      129
 90
      129
 90
      130
 90
       47
 90
       48
 90
       48
 90
      128
 90
      128
 90
      129
 90
       48
 90
       49
 90
       49
 90
       66
 90
       66
 90
      128
 90
       49
 90
       50
 90
       50
 90
       67
 90
       66
 90
       67
 90
       50
 90
       51
 90
       51
 90
      122
 90
       67
 90
      122
 90
       51
 90
       52
 90
       52
 90
      123
 90
      122
 90
      123
 90
       52
 90
       53
 90
       53
 90
       68
 90
       68
 90
      123
 90
       53
 90
      164
 90
       69
 90
      164
 90
       68
 90
       69
 90
       54
 90
      164
 90
       54
 90
       70
 90
       69
 90
       70
 90
       54
 90
       55
 90
       55
 90
       71
 90
       70
 90
       71
 90
       55
 90
       56
 90
       56
 90
       72
 90
       71
 90
       72
 90
       56
 90
       57
 90
       57
 90
       73
 90
       72
 90
       73
 90
       57
 90
       58
 90
       58
 90
       74
 90
       73
 90
       74
 90
       58
 90
      165
 90
       75
 90
      165
 90
       74
 90
       75
 90
       59
 90
      165
 90
       59
 90
       76
 90
       75
 90
       76
 90
       59
 90
       60
 90
       60
 90
      124
 90
       76
 90
      124
 90
       60
 90
       61
 90
       61
 90
       77
 90
       77
 90
      124
 90
       61
 90
       62
 90
       62
 90
       78
 90
       77
 90
       78
 90
       62
 90
       63
 90
       63
 90
      126
 90
       78
 90
      126
 90
       63
 90
      166
 90
      127
 90
      166
 90
      126
 90
      127
 90
        0
 90
      166
 90
        0
 90
       79
 90
       79
 90
      127
 90
        0
 90
        1
 90
        1
 90
       80
 90
       79
 90
       80
 90
        1
 90
        2
 90
        2
 90
      120
 90
       80
 90
      120
 90
        2
 90
        3
 90
        3
 90
      121
 90
      120
 90
      121
 90
        3
 90
        4
 90
        4
 90
       81
 90
       81
 90
      121
 90
        4
 90
        5
 90
        5
 90
       82
 90
       81
 90
       82
 90
        5
 90
        6
 90
        6
 90
      125
 90
       82
 90
      125
 90
        6
 90
        7
 90
        7
 90
       83
 90
       83
 90
      125
 90
        7
 90
        8
 90
        8
 90
       84
 90
       83
 90
       84
 90
        8
 90
        9
 90
        9
 90
      138
 90
       84
 90
      138
 90
        9
 90
      167
 90
      137
 90
      167
 90
      137
 90
      138
 90
       10
 90
      167
 90
       10
 90
      136
 90
      136
 90
      137
 90
       10
 90
       11
 90
       11
 90
      135
 90
      135
 90
      136
 90
       11
 90
       12
 90
       12
 90
      134
 90
      134
 90
      135
 90
       12
 90
       13
 90
      133
 90
      134
 90
       27
 90
      139
 90
       98
 90
      148
 90
       28
 90
      140
 90
       99
 90
      149
 90
       29
 90
      141
 90
      100
 90
      150
 90
       30
 90
      142
 90
      101
 90
      151
 90
       31
 90
      143
 90
      102
 90
      152
 90
       32
 90
      144
 90
      103
 90
      153
 90
       33
 90
      145
 90
      104
 90
      154
 90
       34
 90
      146
 90
      105
 90
      155
 90
       35
 90
      147
 90
      106
 90
      156
 90
      119
 90
      132
 90
      118
 90
      131
 90
      117
 90
      131
 90
      115
 90
      129
 90
      116
 90
      130
 90
      114
 90
      129
 90
      113
 90
      128
 90
       66
 90
      111
 90
      112
 90
      128
 90
       67
 90
      109
 90
       66
 90
      110
 90
      108
 90
      122
 90
      107
 90
      123
 90
       68
 90
      156
 90
       69
 90
      106
 90
       70
 90
      105
 90
       69
 90
      155
 90
       71
 90
      104
 90
       70
 90
      154
 90
       72
 90
      103
 90
       71
 90
      153
 90
       73
 90
      102
 90
       72
 90
      152
 90
       74
 90
      101
 90
       73
 90
      151
 90
       75
 90
      100
 90
       74
 90
      150
 90
       76
 90
       99
 90
       75
 90
      149
 90
       98
 90
      124
 90
       76
 90
      148
 90
       77
 90
       96
 90
       97
 90
      124
 90
       77
 90
       95
 90
       78
 90
       94
 90
       94
 90
      126
 90
       94
 90
      127
 90
       79
 90
       94
 90
       80
 90
       93
 90
       93
 90
      120
 90
       92
 90
      121
 90
       82
 90
       91
 90
       81
 90
       92
 90
       90
 90
      125
 90
       83
 90
       89
 90
       84
 90
       89
 90
       87
 90
      133
 90
       87
 90
      134
 90
       88
 90
      135
 90
       88
 90
      136
 90
       88
 90
      137
 90
       89
 90
      138
 90
       41
 90
       44
 90
       40
 90
       45
 90
       39
 90
       45
 90
       46
 90
      158
 90
       47
 90
      157
 90
       47
 90
      159
 90
       48
 90
      160
 90
       38
 90
       48
 90
       49
 90
      161
 90
       49
 90
      163
 90
       50
 90
      162
 90
       37
 90
       51
 90
       36
 90
       52
 90
       35
 90
       53
 90
      147
 90
      164
 90
       34
 90
      164
 90
       54
 90
      146
 90
       33
 90
       54
 90
       55
 90
      145
 90
       32
 90
       55
 90
       56
 90
      144
 90
       31
 90
       56
 90
       57
 90
      143
 90
       30
 90
       57
 90
       58
 90
      142
 90
       29
 90
       58
 90
      141
 90
      165
 90
       28
 90
      165
 90
       59
 90
      140
 90
       27
 90
       59
 90
       60
 90
      139
 90
       26
 90
       60
 90
       25
 90
       61
 90
       24
 90
       61
 90
       23
 90
       62
 90
       23
 90
       63
 90
       23
 90
      166
 90
        0
 90
       23
 90
        1
 90
       22
 90
        2
 90
       22
 90
        3
 90
       21
 90
        4
 90
       21
 90
        5
 90
       20
 90
        6
 90
       19
 90
        7
 90
       18
 90
        8
 90
       18
 90
       13
 90
       16
 90
       12
 90
       16
 90
       11
 90
       17
 90
       17
 90
      167
 90
       10
 90
       17
 90
        9
 90
       18
 95
      356
140
0.0
140
0.0
140
0.0
140
0.0
140
0.0
140
0.0
140
0.0
140
0.0
140
0.0
140
0.0
140
0.0
140
0.0
140
0.0
140
0.0
140
0.0
140
0.0
140
0.0
140
0.0
140
0.0
140
0.0
140
0.0
140
0.0
140
0.0
140
0.0
140
0.0
140
0.0
140
0.0
140
0.0
140
0.0
140
0.0
140
0.0
140
0.0
140
0.0
140
0.0
140
0.0
140
0.0
140
0.0
140
0.0
140
0.0
140
0.0
140
0.0
140
0.0
140
0.0
140
0.0
140
0.0
140
0.0
140
0.0
140
0.0
140
0.0
140
0.0
140
0.0
140
0.0
140
0.0
140
0.0
140
0.0
140
0.0
140
0.0
140
0.0
140
0.0
140
0.0
140
0.0
140
0.0
140
0.0
140
0.0
140
0.0
140
0.0
140
0.0
140
0.0
140
0.0
140
0.0
140
0.0
140
0.0
140
0.0
140
0.0
140
0.0
140
0.0
140
0.0
140
0.0
140
0.0
140
0.0
140
0.0
140
0.0
140
0.0
140
0.0
140
0.0
140
0.0
140
0.0
140
0.0
140
0.0
140
0.0
140
0.0
140
0.0
140
0.0
140
0.0
140
0.0
140
0.0
140
0.0
140
0.0
140
0.0
140
0.0
140
0.0
140
0.0
140
0.0
140
0.0
140
0.0
140
0.0
140
0.0
140
0.0
140
0.0
140
0.0
140
0.0
140
0.0
140
0.0
140
0.0
140
0.0
140
0.0
140
0.0
140
0.0
140
0.0
140
0.0
140
0.0
140
0.0
140
0.0
140
0.0
140
0.0
140
0.0
140
0.0
140
0.0
140
0.0
140
0.0
140
0.0
140
0.0
140
0.0
140
0.0
140
0.0
140
0.0
140
0.0
140
0.0
140
0.0
140
0.0
140
0.0
140
0.0
140
0.0
140
0.0
140
0.0
140
0.0
140
0.0
140
0.0
140
0.0
140
0.0
140
0.0
140
0.0
140
0.0
140
0.0
140
0.0
140
0.0
140
0.0
140
0.0
140
0.0
140
0.0
140
0.0
140
0.0
140
0.0
140
0.0
140
0.0
140
0.0
140
0.0
140
0.0
140
0.0
140
0.0
140
0.0
140
0.0
140
0.0
140
0.0
140
0.0
140
0.0
140
0.0
140
0.0
140
0.0
140
0.0
140
0.0
140
0.0
140
0.0
140
0.0
140
0.0
140
0.0
140
0.0
140
0.0
140
0.0
140
0.0
140
0.0
140
0.0
140
0.0
140
0.0
140
0.0
140
0.0
140
0.0
140
0.0
140
0.0
140
0.0
140
0.0
140
0.0
140
0.0
140
0.0
140
0.0
140
0.0
140
0.0
140
0.0
140
0.0
140
0.0
140
0.0
140
0.0
140
0.0
140
0.0
140
0.0
140
0.0
140
0.0
140
0.0
140
0.0
140
0.0
140
0.0
140
0.0
140
0.0
140
0.0
140
0.0
140
0.0
140
0.0
140
0.0
140
0.0
140
0.0
140
0.0
140
0.0
140
0.0
140
0.0
140
0.0
140
0.0
140
0.0
140
0.0
140
0.0
140
0.0
140
0.0
140
0.0
140
0.0
140
0.0
140
0.0
140
0.0
140
0.0
140
0.0
140
0.0
140
0.0
140
0.0
140
0.0
140
0.0
140
0.0
140
0.0
140
0.0
140
0.0
140
0.0
140
0.0
140
0.0
140
0.0
140
0.0
140
0.0
140
0.0
140
0.0
140
0.0
140
0.0
140
0.0
140
0.0
140
0.0
140
0.0
140
0.0
140
0.0
140
0.0
140
0.0
140
0.0
140
0.0
140
0.0
140
0.0
140
0.0
140
0.0
140
0.0
140
0.0
140
0.0
140
0.0
140
0.0
140
0.0
140
0.0
140
0.0
140
0.0
140
0.0
140
0.0
140
0.0
140
0.0
140
0.0
140
0.0
140
0.0
140
0.0
140
0.0
140
0.0
140
0.0
140
0.0
140
0.0
140
0.0
140
0.0
140
0.0
140
0.0
140
0.0
140
0.0
140
0.0
140
0.0
140
0.0
140
0.0
140
0.0
140
0.0
140
0.0
140
0.0
140
0.0
140
0.0
140
0.0
140
0.0
140
0.0
140
0.0
140
0.0
140
0.0
140
0.0
140
0.0
140
0.0
140
0.0
140
0.0
140
0.0
140
0.0
140
0.0
140
0.0
140
0.0
140
0.0
140
0.0
140
0.0
140
0.0
140
0.0
140
0.0
140
0.0
140
0.0
140
0.0
140
0.0
140
0.0
140
0.0
140
0.0
140
0.0
140
0.0
140
0.0
140
0.0
140
0.0
140
0.0
140
0.0
140
0.0
 90
        0
  0
POLYLINE
  5
FA
330
1F
100
AcDbEntity
  8
OracDecor_cornice_mouldings
 62
    34
420
 11622427
100
AcDb3dPolyline
 66
     1
 10
0.0
 20
0.0
 30
0.0
 70
     9
  0
VERTEX
  5
FB
330
FA
100
AcDbEntity
  8
OracDecor_cornice_mouldings
 62
    34
420
 11622427
100
AcDbVertex
100
AcDb3dPolylineVertex
 10
0.0
 20
12.77900314331054
 30
-84.22373962402344
 70
    32
  0
VERTEX
  5
FC
330
FA
100
AcDbEntity
  8
OracDecor_cornice_mouldings
 62
    34
420
 11622427
100
AcDbVertex
100
AcDb3dPolylineVertex
 10
-0.0000076293945313
 20
12.77900314331054
 30
-92.599609375
 70
    32
  0
VERTEX
  5
FD
330
FA
100
AcDbEntity
  8
OracDecor_cornice_mouldings
 62
    34
420
 11622427
100
AcDbVertex
100
AcDb3dPolylineVertex
 10
-0.000015258788153
 20
12.64501571655273
 30
-93.61732482910156
 70
    32
  0
VERTEX
  5
FE
330
FA
100
AcDbEntity
  8
OracDecor_cornice_mouldings
 62
    34
420
 11622427
100
AcDbVertex
100
AcDb3dPolylineVertex
 10
-0.000015258788153
 20
12.25223922729492
 30
-94.56556701660156
 70
    32
  0
VERTEX
  5
FF
330
FA
100
AcDbEntity
  8
OracDecor_cornice_mouldings
 62
    34
420
 11622427
100
AcDbVertex
100
AcDb3dPolylineVertex
 10
-0.0000152587890625
 20
11.62734603881836
 30
-95.37994384765625
 70
    32
  0
VERTEX
  5
100
330
FA
100
AcDbEntity
  8
OracDecor_cornice_mouldings
 62
    34
420
 11622427
100
AcDbVertex
100
AcDb3dPolylineVertex
 10
-0.0000076293936218
 20
6.887000560760498
 30
-100.1202697753906
 70
    32
  0
VERTEX
  5
101
330
FA
100
AcDbEntity
  8
OracDecor_cornice_mouldings
 62
    34
420
 11622427
100
AcDbVertex
100
AcDb3dPolylineVertex
 10
-0.0000076293940765
 20
5.885478496551513
 30
-100.924072265625
 70
    32
  0
VERTEX
  5
102
330
FA
100
AcDbEntity
  8
OracDecor_cornice_mouldings
 62
    34
420
 11622427
100
AcDbVertex
100
AcDb3dPolylineVertex
 10
0.0
 20
4.733718395233154
 30
-101.4920654296875
 70
    32
  0
VERTEX
  5
103
330
FA
100
AcDbEntity
  8
OracDecor_cornice_mouldings
 62
    34
420
 11622427
100
AcDbVertex
100
AcDb3dPolylineVertex
 10
0.0
 20
0.9701840281486511
 30
-102.8618774414062
 70
    32
  0
VERTEX
  5
104
330
FA
100
AcDbEntity
  8
OracDecor_cornice_mouldings
 62
    34
420
 11622427
100
AcDbVertex
100
AcDb3dPolylineVertex
 10
0.0
 20
0.462592750787735
 30
-103.1749877929687
 70
    32
  0
VERTEX
  5
105
330
FA
100
AcDbEntity
  8
OracDecor_cornice_mouldings
 62
    34
420
 11622427
100
AcDbVertex
100
AcDb3dPolylineVertex
 10
0.0
 20
0.1206242144107819
 30
-103.6633758544922
 70
    32
  0
VERTEX
  5
106
330
FA
100
AcDbEntity
  8
OracDecor_cornice_mouldings
 62
    34
420
 11622427
100
AcDbVertex
100
AcDb3dPolylineVertex
 10
0.0
 20
-0.0000079549199654
 30
-104.2474517822265
 70
    32
  0
VERTEX
  5
107
330
FA
100
AcDbEntity
  8
OracDecor_cornice_mouldings
 62
    34
420
 11622427
100
AcDbVertex
100
AcDb3dPolylineVertex
 10
-0.0000152587890625
 20
-0.0000079549208749
 30
-108.0335845947265
 70
    32
  0
VERTEX
  5
108
330
FA
100
AcDbEntity
  8
OracDecor_cornice_mouldings
 62
    34
420
 11622427
100
AcDbVertex
100
AcDb3dPolylineVertex
 10
-0.0000152587890625
 20
1.474494576454162
 30
-110.5874938964843
 70
    32
  0
VERTEX
  5
109
330
FA
100
AcDbEntity
  8
OracDecor_cornice_mouldings
 62
    34
420
 11622427
100
AcDbVertex
100
AcDb3dPolylineVertex
 10
-0.0000152587890625
 20
-0.0000079549208749
 30
-113.1414031982422
 70
    32
  0
VERTEX
  5
10A
330
FA
100
AcDbEntity
  8
OracDecor_cornice_mouldings
 62
    34
420
 11622427
100
AcDbVertex
100
AcDb3dPolylineVertex
 10
-0.0000076293945313
 20
-0.0000079549199654
 30
-117.9599914550781
 70
    32
  0
VERTEX
  5
10B
330
FA
100
AcDbEntity
  8
OracDecor_cornice_mouldings
 62
    34
420
 11622427
100
AcDbVertex
100
AcDb3dPolylineVertex
 10
-0.0000076293954407
 20
8.846996307373046
 30
-117.9599914550781
 70
    32
  0
VERTEX
  5
10C
330
FA
100
AcDbEntity
  8
OracDecor_cornice_mouldings
 62
    34
420
 11622427
100
AcDbVertex
100
AcDb3dPolylineVertex
 10
-0.000015258788153
 20
9.257495880126953
 30
-115.0992584228515
 70
    32
  0
VERTEX
  5
10D
330
FA
100
AcDbEntity
  8
OracDecor_cornice_mouldings
 62
    34
420
 11622427
100
AcDbVertex
100
AcDb3dPolylineVertex
 10
-0.0000152587890625
 20
10.48266983032226
 30
-112.4808197021484
 70
    32
  0
VERTEX
  5
10E
330
FA
100
AcDbEntity
  8
OracDecor_cornice_mouldings
 62
    34
420
 11622427
100
AcDbVertex
100
AcDb3dPolylineVertex
 10
-0.0000152587890625
 20
12.41678237915039
 30
-110.3318176269531
 70
    32
  0
VERTEX
  5
10F
330
FA
100
AcDbEntity
  8
OracDecor_cornice_mouldings
 62
    34
420
 11622427
100
AcDbVertex
100
AcDb3dPolylineVertex
 10
-0.0000152587890625
 20
14.89215469360351
 30
-108.8385467529297
 70
    32
  0
VERTEX
  5
110
330
FA
100
AcDbEntity
  8
OracDecor_cornice_mouldings
 62
    34
420
 11622427
100
AcDbVertex
100
AcDb3dPolylineVertex
 10
-0.0000152587890625
 20
17.69399642944336
 30
-108.1300048828125
 70
    32
  0
VERTEX
  5
111
330
FA
100
AcDbEntity
  8
OracDecor_cornice_mouldings
 62
    34
420
 11622427
100
AcDbVertex
100
AcDb3dPolylineVertex
 10
-0.0000076293940765
 20
17.69398880004883
 30
-103.2150115966797
 70
    32
  0
VERTEX
  5
112
330
FA
100
AcDbEntity
  8
OracDecor_cornice_mouldings
 62
    34
420
 11622427
100
AcDbVertex
100
AcDb3dPolylineVertex
 10
-0.0000076293945313
 20
22.60898971557617
 30
-103.2150115966797
 70
    32
  0
VERTEX
  5
113
330
FA
100
AcDbEntity
  8
OracDecor_cornice_mouldings
 62
    34
420
 11622427
100
AcDbVertex
100
AcDb3dPolylineVertex
 10
0.0
 20
22.6089973449707
 30
-84.78376770019531
 70
    32
  0
VERTEX
  5
114
330
FA
100
AcDbEntity
  8
OracDecor_cornice_mouldings
 62
    34
420
 11622427
100
AcDbVertex
100
AcDb3dPolylineVertex
 10
0.0
 20
27.52399444580078
 30
-84.78376770019531
 70
    32
  0
VERTEX
  5
115
330
FA
100
AcDbEntity
  8
OracDecor_cornice_mouldings
 62
    34
420
 11622427
100
AcDbVertex
100
AcDb3dPolylineVertex
 10
0.0
 20
27.52399444580078
 30
-78.63999938964844
 70
    32
  0
VERTEX
  5
116
330
FA
100
AcDbEntity
  8
OracDecor_cornice_mouldings
 62
    34
420
 11622427
100
AcDbVertex
100
AcDb3dPolylineVertex
 10
-0.0000076293945313
 20
34.40500259399414
 30
-78.6400146484375
 70
    32
  0
VERTEX
  5
117
330
FA
100
AcDbEntity
  8
OracDecor_cornice_mouldings
 62
    34
420
 11622427
100
AcDbVertex
100
AcDb3dPolylineVertex
 10
0.0
 20
35.0797233581543
 30
-70.92748260498047
 70
    32
  0
VERTEX
  5
118
330
FA
100
AcDbEntity
  8
OracDecor_cornice_mouldings
 62
    34
420
 11622427
100
AcDbVertex
100
AcDb3dPolylineVertex
 10
0.0
 20
36.05044555664063
 30
-65.42208862304687
 70
    32
  0
VERTEX
  5
119
330
FA
100
AcDbEntity
  8
OracDecor_cornice_mouldings
 62
    34
420
 11622427
100
AcDbVertex
100
AcDb3dPolylineVertex
 10
0.0
 20
37.32813262939453
 30
-60.65362548828125
 70
    32
  0
VERTEX
  5
11A
330
FA
100
AcDbEntity
  8
OracDecor_cornice_mouldings
 62
    34
420
 11622427
100
AcDbVertex
100
AcDb3dPolylineVertex
 10
0.0
 20
39.24010848999023
 30
-55.40043640136719
 70
    32
  0
VERTEX
  5
11B
330
FA
100
AcDbEntity
  8
OracDecor_cornice_mouldings
 62
    34
420
 11622427
100
AcDbVertex
100
AcDb3dPolylineVertex
 10
0.0
 20
41.32615280151367
 30
-50.92682647705078
 70
    32
  0
VERTEX
  5
11C
330
FA
100
AcDbEntity
  8
OracDecor_cornice_mouldings
 62
    34
420
 11622427
100
AcDbVertex
100
AcDb3dPolylineVertex
 10
0.0
 20
44.12126159667969
 30
-46.0854377746582
 70
    32
  0
VERTEX
  5
11D
330
FA
100
AcDbEntity
  8
OracDecor_cornice_mouldings
 62
    34
420
 11622427
100
AcDbVertex
100
AcDb3dPolylineVertex
 10
0.0
 20
46.95284271240234
 30
-42.04137802124023
 70
    32
  0
VERTEX
  5
11E
330
FA
100
AcDbEntity
  8
OracDecor_cornice_mouldings
 62
    34
420
 11622427
100
AcDbVertex
100
AcDb3dPolylineVertex
 10
0.0
 20
50.54619216918945
 30
-37.75891876220703
 70
    32
  0
VERTEX
  5
11F
330
FA
100
AcDbEntity
  8
OracDecor_cornice_mouldings
 62
    34
420
 11622427
100
AcDbVertex
100
AcDb3dPolylineVertex
 10
0.0000076293945313
 20
54.03768157958984
 30
-34.26743316650391
 70
    32
  0
VERTEX
  5
120
330
FA
100
AcDbEntity
  8
OracDecor_cornice_mouldings
 62
    34
420
 11622427
100
AcDbVertex
100
AcDb3dPolylineVertex
 10
0.0000076293940765
 20
58.32013702392578
 30
-30.6740779876709
 70
    32
  0
VERTEX
  5
121
330
FA
100
AcDbEntity
  8
OracDecor_cornice_mouldings
 62
    34
420
 11622427
100
AcDbVertex
100
AcDb3dPolylineVertex
 10
0.0000152587890625
 20
62.36418914794922
 30
-27.84248924255371
 70
    32
  0
VERTEX
  5
122
330
FA
100
AcDbEntity
  8
OracDecor_cornice_mouldings
 62
    34
420
 11622427
100
AcDbVertex
100
AcDb3dPolylineVertex
 10
0.0000076293940765
 20
67.20558166503906
 30
-25.04737854003906
 70
    32
  0
VERTEX
  5
123
330
FA
100
AcDbEntity
  8
OracDecor_cornice_mouldings
 62
    34
420
 11622427
100
AcDbVertex
100
AcDb3dPolylineVertex
 10
0.0000076293945313
 20
71.67918395996093
 30
-22.96133422851562
 70
    32
  0
VERTEX
  5
124
330
FA
100
AcDbEntity
  8
OracDecor_cornice_mouldings
 62
    34
420
 11622427
100
AcDbVertex
100
AcDb3dPolylineVertex
 10
0.0
 20
76.93238067626953
 30
-21.04935646057129
 70
    32
  0
VERTEX
  5
125
330
FA
100
AcDbEntity
  8
OracDecor_cornice_mouldings
 62
    34
420
 11622427
100
AcDbVertex
100
AcDb3dPolylineVertex
 10
0.0000076293945313
 20
81.70085906982421
 30
-19.77166557312012
 70
    32
  0
VERTEX
  5
126
330
FA
100
AcDbEntity
  8
OracDecor_cornice_mouldings
 62
    34
420
 11622427
100
AcDbVertex
100
AcDb3dPolylineVertex
 10
0.0000076293940765
 20
87.20625305175781
 30
-18.80093955993652
 70
    32
  0
VERTEX
  5
127
330
FA
100
AcDbEntity
  8
OracDecor_cornice_mouldings
 62
    34
420
 11622427
100
AcDbVertex
100
AcDb3dPolylineVertex
 10
0.0
 20
92.12361907958984
 30
-18.37075233459472
 70
    32
  0
VERTEX
  5
128
330
FA
100
AcDbEntity
  8
OracDecor_cornice_mouldings
 62
    34
420
 11622427
100
AcDbVertex
100
AcDb3dPolylineVertex
 10
0.0
 20
97.724609375
 30
-18.1262264251709
 70
    32
  0
VERTEX
  5
129
330
FA
100
AcDbEntity
  8
OracDecor_cornice_mouldings
 62
    34
420
 11622427
100
AcDbVertex
100
AcDb3dPolylineVertex
 10
0.0
 20
99.28298950195312
 30
-18.12622833251953
 70
    32
  0
VERTEX
  5
12A
330
FA
100
AcDbEntity
  8
OracDecor_cornice_mouldings
 62
    34
420
 11622427
100
AcDbVertex
100
AcDb3dPolylineVertex
 10
0.0
 20
99.28298950195312
 30
-15.33480834960937
 70
    32
  0
VERTEX
  5
12B
330
FA
100
AcDbEntity
  8
OracDecor_cornice_mouldings
 62
    34
420
 11622427
100
AcDbVertex
100
AcDb3dPolylineVertex
 10
0.0
 20
100.7674789428711
 30
-15.25602722167969
 70
    32
  0
VERTEX
  5
12C
330
FA
100
AcDbEntity
  8
OracDecor_cornice_mouldings
 62
    34
420
 11622427
100
AcDbVertex
100
AcDb3dPolylineVertex
 10
0.0
 20
102.419937133789
 30
-15.11971282958984
 70
    32
  0
VERTEX
  5
12D
330
FA
100
AcDbEntity
  8
OracDecor_cornice_mouldings
 62
    34
420
 11622427
100
AcDbVertex
100
AcDb3dPolylineVertex
 10
0.0
 20
103.7974090576172
 30
-14.68317413330078
 70
    32
  0
VERTEX
  5
12E
330
FA
100
AcDbEntity
  8
OracDecor_cornice_mouldings
 62
    34
420
 11622427
100
AcDbVertex
100
AcDb3dPolylineVertex
 10
0.0
 20
104.8480682373047
 30
-13.936767578125
 70
    32
  0
VERTEX
  5
12F
330
FA
100
AcDbEntity
  8
OracDecor_cornice_mouldings
 62
    34
420
 11622427
100
AcDbVertex
100
AcDb3dPolylineVertex
 10
0.0
 20
105.5889129638672
 30
-13.10363388061523
 70
    32
  0
VERTEX
  5
130
330
FA
100
AcDbEntity
  8
OracDecor_cornice_mouldings
 62
    34
420
 11622427
100
AcDbVertex
100
AcDb3dPolylineVertex
 10
0.0
 20
106.7426223754883
 30
-11.77830505371094
 70
    32
  0
VERTEX
  5
131
330
FA
100
AcDbEntity
  8
OracDecor_cornice_mouldings
 62
    34
420
 11622427
100
AcDbVertex
100
AcDb3dPolylineVertex
 10
0.0
 20
108.0499496459961
 30
-10.71665573120117
 70
    32
  0
VERTEX
  5
132
330
FA
100
AcDbEntity
  8
OracDecor_cornice_mouldings
 62
    34
420
 11622427
100
AcDbVertex
100
AcDb3dPolylineVertex
 10
0.0
 20
109.5465087890625
 30
-10.08779144287109
 70
    32
  0
VERTEX
  5
133
330
FA
100
AcDbEntity
  8
OracDecor_cornice_mouldings
 62
    34
420
 11622427
100
AcDbVertex
100
AcDb3dPolylineVertex
 10
0.0
 20
110.9385223388672
 30
-9.848709106445312
 70
    32
  0
VERTEX
  5
134
330
FA
100
AcDbEntity
  8
OracDecor_cornice_mouldings
 62
    34
420
 11622427
100
AcDbVertex
100
AcDb3dPolylineVertex
 10
0.0
 20
112.0619964599609
 30
-9.830009460449218
 70
    32
  0
VERTEX
  5
135
330
FA
100
AcDbEntity
  8
OracDecor_cornice_mouldings
 62
    34
420
 11622427
100
AcDbVertex
100
AcDb3dPolylineVertex
 10
0.0000076293954407
 20
112.0619964599609
 30
-6.881004333496093
 70
    32
  0
VERTEX
  5
136
330
FA
100
AcDbEntity
  8
OracDecor_cornice_mouldings
 62
    34
420
 11622427
100
AcDbVertex
100
AcDb3dPolylineVertex
 10
0.0000076293954407
 20
117.9599914550781
 30
-6.881004333496093
 70
    32
  0
VERTEX
  5
137
330
FA
100
AcDbEntity
  8
OracDecor_cornice_mouldings
 62
    34
420
 11622427
100
AcDbVertex
100
AcDb3dPolylineVertex
 10
0.0000076293945313
 20
117.9599914550781
 30
-0.0000078678131104
 70
    32
  0
VERTEX
  5
138
330
FA
100
AcDbEntity
  8
OracDecor_cornice_mouldings
 62
    34
420
 11622427
100
AcDbVertex
100
AcDb3dPolylineVertex
 10
0.0000076293945313
 20
110.6838989257812
 30
-0.0000078678131104
 70
    32
  0
VERTEX
  5
139
330
FA
100
AcDbEntity
  8
OracDecor_cornice_mouldings
 62
    34
420
 11622427
100
AcDbVertex
100
AcDb3dPolylineVertex
 10
0.0000076293945313
 20
108.1299896240234
 30
-1.474502801895141
 70
    32
  0
VERTEX
  5
13A
330
FA
100
AcDbEntity
  8
OracDecor_cornice_mouldings
 62
    34
420
 11622427
100
AcDbVertex
100
AcDb3dPolylineVertex
 10
0.0000076293945313
 20
105.5760803222656
 30
-0.0000078678131104
 70
    32
  0
VERTEX
  5
13B
330
FA
100
AcDbEntity
  8
OracDecor_cornice_mouldings
 62
    34
420
 11622427
100
AcDbVertex
100
AcDb3dPolylineVertex
 10
0.0000076293945313
 20
99.06756591796876
 30
-0.0000078678131104
 70
    32
  0
VERTEX
  5
13C
330
FA
100
AcDbEntity
  8
OracDecor_cornice_mouldings
 62
    34
420
 11622427
100
AcDbVertex
100
AcDb3dPolylineVertex
 10
0.0000076293936218
 20
98.38671875000001
 30
-0.1665956974029541
 70
    32
  0
VERTEX
  5
13D
330
FA
100
AcDbEntity
  8
OracDecor_cornice_mouldings
 62
    34
420
 11622427
100
AcDbVertex
100
AcDb3dPolylineVertex
 10
0.0000076293936218
 20
97.85972595214843
 30
-0.6287539005279541
 70
    32
  0
VERTEX
  5
13E
330
FA
100
AcDbEntity
  8
OracDecor_cornice_mouldings
 62
    34
420
 11622427
100
AcDbVertex
100
AcDb3dPolylineVertex
 10
0.0000076293936218
 20
93.56605529785156
 30
-6.760772705078125
 70
    32
  0
VERTEX
  5
13F
330
FA
100
AcDbEntity
  8
OracDecor_cornice_mouldings
 62
    34
420
 11622427
100
AcDbVertex
100
AcDb3dPolylineVertex
 10
0.0000076293945313
 20
92.757568359375
 30
-7.610397338867187
 70
    32
  0
VERTEX
  5
140
330
FA
100
AcDbEntity
  8
OracDecor_cornice_mouldings
 62
    34
420
 11622427
100
AcDbVertex
100
AcDb3dPolylineVertex
 10
0.0
 20
91.73399353027344
 30
-8.183982849121093
 70
    32
  0
VERTEX
  5
141
330
FA
100
AcDbEntity
  8
OracDecor_cornice_mouldings
 62
    34
420
 11622427
100
AcDbVertex
100
AcDb3dPolylineVertex
 10
0.0
 20
90.58726501464844
 30
-8.430007934570312
 70
    32
  0
VERTEX
  5
142
330
FA
100
AcDbEntity
  8
OracDecor_cornice_mouldings
 62
    34
420
 11622427
100
AcDbVertex
100
AcDb3dPolylineVertex
 10
0.0
 20
78.98391723632812
 30
-10.12514495849609
 70
    32
  0
VERTEX
  5
143
330
FA
100
AcDbEntity
  8
OracDecor_cornice_mouldings
 62
    34
420
 11622427
100
AcDbVertex
100
AcDb3dPolylineVertex
 10
0.0
 20
67.8232650756836
 30
-13.72442626953125
 70
    32
  0
VERTEX
  5
144
330
FA
100
AcDbEntity
  8
OracDecor_cornice_mouldings
 62
    34
420
 11622427
100
AcDbVertex
100
AcDb3dPolylineVertex
 10
0.0
 20
57.41558837890625
 30
-19.12767791748047
 70
    32
  0
VERTEX
  5
145
330
FA
100
AcDbEntity
  8
OracDecor_cornice_mouldings
 62
    34
420
 11622427
100
AcDbVertex
100
AcDb3dPolylineVertex
 10
0.0000152587890625
 20
48.05028533935547
 30
-26.18478393554688
 70
    32
  0
VERTEX
  5
146
330
FA
100
AcDbEntity
  8
OracDecor_cornice_mouldings
 62
    34
420
 11622427
100
AcDbVertex
100
AcDb3dPolylineVertex
 10
0.0000076293940765
 20
39.98746490478516
 30
-34.69963455200196
 70
    32
  0
VERTEX
  5
147
330
FA
100
AcDbEntity
  8
OracDecor_cornice_mouldings
 62
    34
420
 11622427
100
AcDbVertex
100
AcDb3dPolylineVertex
 10
0.0000152587890625
 20
33.4511833190918
 30
-44.43574142456054
 70
    32
  0
VERTEX
  5
148
330
FA
100
AcDbEntity
  8
OracDecor_cornice_mouldings
 62
    34
420
 11622427
100
AcDbVertex
100
AcDb3dPolylineVertex
 10
-0.0000076293945313
 20
28.62302970886231
 30
-55.12236404418946
 70
    32
  0
VERTEX
  5
149
330
FA
100
AcDbEntity
  8
OracDecor_cornice_mouldings
 62
    34
420
 11622427
100
AcDbVertex
100
AcDb3dPolylineVertex
 10
0.0
 20
25.63738441467285
 30
-66.46241760253906
 70
    32
  0
VERTEX
  5
14A
330
FA
100
AcDbEntity
  8
OracDecor_cornice_mouldings
 62
    34
420
 11622427
100
AcDbVertex
100
AcDb3dPolylineVertex
 10
-0.0000076293945313
 20
25.07087135314942
 30
-68.14382934570312
 70
    32
  0
VERTEX
  5
14B
330
FA
100
AcDbEntity
  8
OracDecor_cornice_mouldings
 62
    34
420
 11622427
100
AcDbVertex
100
AcDb3dPolylineVertex
 10
-0.0000076293945313
 20
24.0299301147461
 30
-69.5806884765625
 70
    32
  0
VERTEX
  5
14C
330
FA
100
AcDbEntity
  8
OracDecor_cornice_mouldings
 62
    34
420
 11622427
100
AcDbVertex
100
AcDb3dPolylineVertex
 10
0.0
 20
15.0410041809082
 30
-78.70466613769531
 70
    32
  0
VERTEX
  5
14D
330
FA
100
AcDbEntity
  8
OracDecor_cornice_mouldings
 62
    34
420
 11622427
100
AcDbVertex
100
AcDb3dPolylineVertex
 10
0.0
 20
13.81308364868164
 30
-80.32571411132812
 70
    32
  0
VERTEX
  5
14E
330
FA
100
AcDbEntity
  8
OracDecor_cornice_mouldings
 62
    34
420
 11622427
100
AcDbVertex
100
AcDb3dPolylineVertex
 10
0.0000076293945313
 20
13.04195785522461
 30
-82.20718383789062
 70
    32
  0
SEQEND
  5
14F
330
FA
100
AcDbEntity
  8
OracDecor_cornice_mouldings
 62
    34
420
 11622427
  0
ENDSEC
  0
SECTION
  2
OBJECTS
  0
DICTIONARY
  5
C
330
0
100
AcDbDictionary
281
     1
  3
ACAD_COLOR
350
DC
  3
ACAD_DETAILVIEWSTYLE
350
F5
  3
ACAD_GROUP
350
D
  3
ACAD_LAYOUT
350
1A
  3
ACAD_MATERIAL
350
AA
  3
ACAD_MLEADERSTYLE
350
F1
  3
ACAD_MLINESTYLE
350
17
  3
ACAD_PLOTSETTINGS
350
19
  3
ACAD_PLOTSTYLENAME
350
E
  3
ACAD_SCALELIST
350
DF
  3
ACAD_SECTIONVIEWSTYLE
350
F3
  3
ACAD_TABLESTYLE
350
DD
  3
ACAD_VISUALSTYLE
350
C3
  3
ACDB_RECOMPOSE_DATA
350
15C
  3
AcDbVariableDictionary
350
150
  0
DICTIONARY
  5
DC
102
{ACAD_REACTORS
330
C
102
}
330
C
100
AcDbDictionary
281
     1
  0
DICTIONARY
  5
F5
102
{ACAD_REACTORS
330
C
102
}
330
C
100
AcDbDictionary
281
     1
  3
Imperial24
350
F6
  0
DICTIONARY
  5
D
102
{ACAD_REACTORS
330
C
102
}
330
C
100
AcDbDictionary
281
     1
  0
DICTIONARY
  5
1A
102
{ACAD_REACTORS
330
C
102
}
330
C
100
AcDbDictionary
281
     1
  3
Layout1
350
1E
  3
Layout2
350
26
  3
Model
350
22
  0
DICTIONARY
  5
AA
102
{ACAD_REACTORS
330
C
102
}
330
C
100
AcDbDictionary
281
     1
  3
ByBlock
350
B3
  3
ByLayer
350
AB
  3
Global
350
BB
  0
DICTIONARY
  5
F1
102
{ACAD_REACTORS
330
C
102
}
330
C
100
AcDbDictionary
281
     1
  3
Standard
350
F2
  0
DICTIONARY
  5
17
102
{ACAD_REACTORS
330
C
102
}
330
C
100
AcDbDictionary
281
     1
  3
Standard
350
18
  0
DICTIONARY
  5
19
102
{ACAD_REACTORS
330
C
102
}
330
C
100
AcDbDictionary
281
     1
  0
ACDBDICTIONARYWDFLT
  5
E
102
{ACAD_REACTORS
330
C
102
}
330
C
100
AcDbDictionary
281
     1
  3
ByLayer
350
2D
  3
Normal
350
F
100
AcDbDictionaryWithDefault
340
F
  0
DICTIONARY
  5
DF
102
{ACAD_REACTORS
330
C
102
}
330
C
100
AcDbDictionary
281
     1
  3
A0
350
E0
  3
A1
350
E1
  3
A2
350
E2
  3
A3
350
E3
  3
A4
350
E4
  3
A5
350
E5
  3
A6
350
E6
  3
A7
350
E7
  3
A8
350
E8
  3
A9
350
E9
  3
B0
350
EA
  3
B1
350
EB
  3
B2
350
EC
  3
B3
350
ED
  3
B4
350
EE
  3
B5
350
EF
  3
B6
350
F0
  0
DICTIONARY
  5
F3
102
{ACAD_REACTORS
330
C
102
}
330
C
100
AcDbDictionary
281
     1
  3
Imperial24
350
F4
  0
DICTIONARY
  5
DD
102
{ACAD_REACTORS
330
C
102
}
330
C
100
AcDbDictionary
281
     1
  3
Standard
350
DE
  0
DICTIONARY
  5
C3
102
{ACAD_REACTORS
330
C
102
}
330
C
100
AcDbDictionary
281
     1
  3
2dWireframe
350
C9
  3
Basic
350
C8
  3
Brighten
350
CF
  3
ColorChange
350
D3
  3
Conceptual
350
CC
  3
Dim
350
CE
  3
EdgeColorOff
350
DB
  3
Facepattern
350
D2
  3
Flat
350
C4
  3
FlatWithEdges
350
C5
  3
Gouraud
350
C6
  3
GouraudWithEdges
350
C7
  3
Hidden
350
CB
  3
JitterOff
350
D9
  3
Linepattern
350
D1
  3
OverhangOff
350
DA
  3
Realistic
350
CD
  3
Shaded
350
D8
  3
Shaded with edges
350
D7
  3
Shades of Gray
350
D4
  3
Sketchy
350
D5
  3
Thicken
350
D0
  3
Wireframe
350
CA
  3
X-Ray
350
D6
  0
XRECORD
  5
15C
102
{ACAD_REACTORS
330
C
102
}
330
C
100
AcDbXrecord
280
     1
 90
        1
330
DE
  0
DICTIONARY
  5
150
102
{ACAD_REACTORS
330
C
102
}
330
C
100
AcDbDictionary
281
     1
  3
CANNOSCALE
350
156
  3
CMLEADERSTYLE
350
152
  3
CTABLESTYLE
350
151
  3
CVIEWDETAILSTYLE
350
153
  3
CVIEWSECTIONSTYLE
350
154
  3
LAYEREVAL
350
158
  3
LAYERNOTIFY
350
159
  3
LIGHTINGUNITS
350
157
  3
MSLTSCALE
350
155
  0
ACDBDETAILVIEWSTYLE
  5
F6
102
{ACAD_XDICTIONARY
360
191
102
}
102
{ACAD_REACTORS
330
F5
102
}
330
F5
100
AcDbModelDocViewStyle
 70
     0
  3
Imperial24
290
     0
100
AcDbDetailViewStyle
 70
     0
 71
     0
 90
        3
 71
     1
340
11
 62
   256
 40
0.24
340
0
 62
   256
 40
0.24
300

 40
0.36
280
     3
 71
     2
340
16
 90
       25
 62
   256
 71
     3
340
11
 62
   256
 40
0.24
 90
        1
 40
0.75
 90
        1
300
%<\AcVar ViewType \f "%tc1">% %<\AcVar ViewDetailId>%\PSCALE %<\AcVar ViewScale \f "%sn">%
 71
     4
340
16
 90
       25
 62
   256
340
16
 90
       25
 62
   256
280
     0
  0
LAYOUT
  5
1E
102
{ACAD_REACTORS
330
1A
102
}
330
1A
100
AcDbPlotSettings
  1

  2
\\KTXNTBDC\CASF2PN1
  4

  6

 40
0.0
 41
0.0
 42
0.0
 43
0.0
 44
0.0
 45
0.0
 46
0.0
 47
0.0
 48
0.0
 49
0.0
140
0.0
141
0.0
142
1.0
143
1.0
 70
   688
 72
     0
 73
     0
 74
     5
  7

 75
    16
147
1.0
 76
     0
 77
     2
 78
   300
148
0.0
149
0.0
100
AcDbLayout
  1
Layout1
 70
     1
 71
     1
 10
0.0
 20
0.0
 11
12.0
 21
9.0
 12
0.0
 22
0.0
 32
0.0
 14
1.000000000000000E+20
 24
1.000000000000000E+20
 34
1.000000000000000E+20
 15
-1.000000000000000E+20
 25
-1.000000000000000E+20
 35
-1.000000000000000E+20
146
0.0
 13
0.0
 23
0.0
 33
0.0
 16
1.0
 26
0.0
 36
0.0
 17
0.0
 27
1.0
 37
0.0
 76
     0
330
1B
  0
LAYOUT
  5
26
102
{ACAD_REACTORS
330
1A
102
}
330
1A
100
AcDbPlotSettings
  1

  2
\\KTXNTBDC\CASF2PN1
  4

  6

 40
0.0
 41
0.0
 42
0.0
 43
0.0
 44
0.0
 45
0.0
 46
0.0
 47
0.0
 48
0.0
 49
0.0
140
0.0
141
0.0
142
1.0
143
1.0
 70
   688
 72
     0
 73
     0
 74
     5
  7

 75
    16
147
1.0
 76
     0
 77
     2
 78
   300
148
0.0
149
0.0
100
AcDbLayout
  1
Layout2
 70
     1
 71
     2
 10
0.0
 20
0.0
 11
12.0
 21
9.0
 12
0.0
 22
0.0
 32
0.0
 14
0.0
 24
0.0
 34
0.0
 15
0.0
 25
0.0
 35
0.0
146
0.0
 13
0.0
 23
0.0
 33
0.0
 16
1.0
 26
0.0
 36
0.0
 17
0.0
 27
1.0
 37
0.0
 76
     0
330
23
  0
LAYOUT
  5
22
102
{ACAD_REACTORS
330
1A
102
}
330
1A
100
AcDbPlotSettings
  1

  2
\\KTXNTBDC\CASF2PN1
  4

  6

 40
0.0
 41
0.0
 42
0.0
 43
0.0
 44
0.0
 45
0.0
 46
0.0
 47
0.0
 48
0.0
 49
0.0
140
0.0
141
0.0
142
1.0
143
1.0
 70
  1712
 72
     0
 73
     0
 74
     0
  7

 75
     0
147
1.0
 76
     0
 77
     2
 78
   300
148
0.0
149
0.0
100
AcDbLayout
  1
Model
 70
     1
 71
     0
 10
0.0
 20
0.0
 11
12.0
 21
9.0
 12
0.0
 22
0.0
 32
0.0
 14
0.0
 24
0.0
 34
0.0
 15
0.0
 25
0.0
 35
0.0
146
0.0
 13
0.0
 23
0.0
 33
0.0
 16
1.0
 26
0.0
 36
0.0
 17
0.0
 27
1.0
 37
0.0
 76
     0
330
1F
  0
MATERIAL
  5
B3
102
{ACAD_XDICTIONARY
360
B4
102
}
102
{ACAD_REACTORS
330
AA
102
}
330
AA
100
AcDbMaterial
  1
ByBlock
 72
     0
 43
0.0208333333333333
 43
0.0
 43
0.0
 43
0.0
 43
0.0
 43
0.0208333333333333
 43
0.0
 43
0.0
 43
0.0
 43
0.0
 43
1.0
 43
0.0
 43
0.0
 43
0.0
 43
0.0
 43
1.0
 77
     0
 47
0.0208333333333333
 47
0.0
 47
0.0
 47
0.0
 47
0.0
 47
0.0208333333333333
 47
0.0
 47
0.0
 47
0.0
 47
0.0
 47
1.0
 47
0.0
 47
0.0
 47
0.0
 47
0.0
 47
1.0
171
     0
 49
0.0208333333333333
 49
0.0
 49
0.0
 49
0.0
 49
0.0
 49
0.0208333333333333
 49
0.0
 49
0.0
 49
0.0
 49
0.0
 49
1.0
 49
0.0
 49
0.0
 49
0.0
 49
0.0
 49
1.0
175
     0
142
0.0208333333333333
142
0.0
142
0.0
142
0.0
142
0.0
142
0.0208333333333333
142
0.0
142
0.0
142
0.0
142
0.0
142
1.0
142
0.0
142
0.0
142
0.0
142
0.0
142
1.0
179
     0
144
0.0208333333333333
144
0.0
144
0.0
144
0.0
144
0.0
144
0.0208333333333333
144
0.0
144
0.0
144
0.0
144
0.0
144
1.0
144
0.0
144
0.0
144
0.0
144
0.0
144
1.0
147
0.0208333333333333
147
0.0
147
0.0
147
0.0
147
0.0
147
0.0208333333333333
147
0.0
147
0.0
147
0.0
147
0.0
147
1.0
147
0.0
147
0.0
147
0.0
147
0.0
147
1.0
  0
MATERIAL
  5
AB
102
{ACAD_XDICTIONARY
360
AC
102
}
102
{ACAD_REACTORS
330
AA
102
}
330
AA
100
AcDbMaterial
  1
ByLayer
 72
     0
 43
0.0208333333333333
 43
0.0
 43
0.0
 43
0.0
 43
0.0
 43
0.0208333333333333
 43
0.0
 43
0.0
 43
0.0
 43
0.0
 43
1.0
 43
0.0
 43
0.0
 43
0.0
 43
0.0
 43
1.0
 77
     0
 47
0.0208333333333333
 47
0.0
 47
0.0
 47
0.0
 47
0.0
 47
0.0208333333333333
 47
0.0
 47
0.0
 47
0.0
 47
0.0
 47
1.0
 47
0.0
 47
0.0
 47
0.0
 47
0.0
 47
1.0
171
     0
 49
0.0208333333333333
 49
0.0
 49
0.0
 49
0.0
 49
0.0
 49
0.0208333333333333
 49
0.0
 49
0.0
 49
0.0
 49
0.0
 49
1.0
 49
0.0
 49
0.0
 49
0.0
 49
0.0
 49
1.0
175
     0
142
0.0208333333333333
142
0.0
142
0.0
142
0.0
142
0.0
142
0.0208333333333333
142
0.0
142
0.0
142
0.0
142
0.0
142
1.0
142
0.0
142
0.0
142
0.0
142
0.0
142
1.0
179
     0
144
0.0208333333333333
144
0.0
144
0.0
144
0.0
144
0.0
144
0.0208333333333333
144
0.0
144
0.0
144
0.0
144
0.0
144
1.0
144
0.0
144
0.0
144
0.0
144
0.0
144
1.0
147
0.0208333333333333
147
0.0
147
0.0
147
0.0
147
0.0
147
0.0208333333333333
147
0.0
147
0.0
147
0.0
147
0.0
147
1.0
147
0.0
147
0.0
147
0.0
147
0.0
147
1.0
  0
MATERIAL
  5
BB
102
{ACAD_XDICTIONARY
360
BC
102
}
102
{ACAD_REACTORS
330
AA
102
}
330
AA
100
AcDbMaterial
  1
Global
 72
     0
 43
0.0208333333333333
 43
0.0
 43
0.0
 43
0.0
 43
0.0
 43
0.0208333333333333
 43
0.0
 43
0.0
 43
0.0
 43
0.0
 43
1.0
 43
0.0
 43
0.0
 43
0.0
 43
0.0
 43
1.0
 77
     0
 47
0.0208333333333333
 47
0.0
 47
0.0
 47
0.0
 47
0.0
 47
0.0208333333333333
 47
0.0
 47
0.0
 47
0.0
 47
0.0
 47
1.0
 47
0.0
 47
0.0
 47
0.0
 47
0.0
 47
1.0
171
     0
 49
0.0208333333333333
 49
0.0
 49
0.0
 49
0.0
 49
0.0
 49
0.0208333333333333
 49
0.0
 49
0.0
 49
0.0
 49
0.0
 49
1.0
 49
0.0
 49
0.0
 49
0.0
 49
0.0
 49
1.0
175
     0
142
0.0208333333333333
142
0.0
142
0.0
142
0.0
142
0.0
142
0.0208333333333333
142
0.0
142
0.0
142
0.0
142
0.0
142
1.0
142
0.0
142
0.0
142
0.0
142
0.0
142
1.0
179
     0
144
0.0208333333333333
144
0.0
144
0.0
144
0.0
144
0.0
144
0.0208333333333333
144
0.0
144
0.0
144
0.0
144
0.0
144
1.0
144
0.0
144
0.0
144
0.0
144
0.0
144
1.0
147
0.0208333333333333
147
0.0
147
0.0
147
0.0
147
0.0
147
0.0208333333333333
147
0.0
147
0.0
147
0.0
147
0.0
147
1.0
147
0.0
147
0.0
147
0.0
147
0.0
147
1.0
  0
MLEADERSTYLE
  5
F2
102
{ACAD_XDICTIONARY
360
18D
102
}
102
{ACAD_REACTORS
330
F1
102
}
330
F1
100
AcDbMLeaderStyle
179
     2
170
     2
171
     1
172
     0
 90
        2
 40
0.0
 41
0.0
173
     1
 91
-1056964608
340
14
 92
       -2
290
     1
 42
0.09
291
     1
 43
0.36
  3
Standard
 44
0.18
300

342
11
174
     1
178
     6
175
     1
176
     0
 93
-1056964608
 45
0.18
292
     0
297
     0
 46
0.18
 94
-1056964608
 47
1.0
 49
1.0
140
1.0
293
     1
141
0.0
294
     1
177
     0
142
1.0
295
     0
296
     0
143
0.125
271
     0
272
     9
273
     9
  0
MLINESTYLE
  5
18
102
{ACAD_REACTORS
330
17
102
}
330
17
100
AcDbMlineStyle
  2
STANDARD
 70
     0
  3

 62
   256
 51
90.0
 52
90.0
 71
     2
 49
0.5
 62
   256
  6
BYLAYER
 49
-0.5
 62
   256
  6
BYLAYER
  0
ACDBPLACEHOLDER
  5
2D
102
{ACAD_REACTORS
330
E
102
}
330
E
  0
ACDBPLACEHOLDER
  5
F
102
{ACAD_REACTORS
330
E
102
}
330
E
  0
SCALE
  5
E0
102
{ACAD_REACTORS
330
DF
102
}
330
DF
100
AcDbScale
 70
     0
300
1:1
140
1.0
141
1.0
290
     1
  0
SCALE
  5
E1
102
{ACAD_REACTORS
330
DF
102
}
330
DF
100
AcDbScale
 70
     0
300
1/128" = 1'-0"
140
0.0078125
141
12.0
290
     0
  0
SCALE
  5
E2
102
{ACAD_REACTORS
330
DF
102
}
330
DF
100
AcDbScale
 70
     0
300
1/64" = 1'-0"
140
0.015625
141
12.0
290
     0
  0
SCALE
  5
E3
102
{ACAD_REACTORS
330
DF
102
}
330
DF
100
AcDbScale
 70
     0
300
1/32" = 1'-0"
140
0.03125
141
12.0
290
     0
  0
SCALE
  5
E4
102
{ACAD_REACTORS
330
DF
102
}
330
DF
100
AcDbScale
 70
     0
300
1/16" = 1'-0"
140
0.0625
141
12.0
290
     0
  0
SCALE
  5
E5
102
{ACAD_REACTORS
330
DF
102
}
330
DF
100
AcDbScale
 70
     0
300
3/32" = 1'-0"
140
0.09375
141
12.0
290
     0
  0
SCALE
  5
E6
102
{ACAD_REACTORS
330
DF
102
}
330
DF
100
AcDbScale
 70
     0
300
1/8" = 1'-0"
140
0.125
141
12.0
290
     0
  0
SCALE
  5
E7
102
{ACAD_REACTORS
330
DF
102
}
330
DF
100
AcDbScale
 70
     0
300
3/16" = 1'-0"
140
0.1875
141
12.0
290
     0
  0
SCALE
  5
E8
102
{ACAD_REACTORS
330
DF
102
}
330
DF
100
AcDbScale
 70
     0
300
1/4" = 1'-0"
140
0.25
141
12.0
290
     0
  0
SCALE
  5
E9
102
{ACAD_REACTORS
330
DF
102
}
330
DF
100
AcDbScale
 70
     0
300
3/8" = 1'-0"
140
0.375
141
12.0
290
     0
  0
SCALE
  5
EA
102
{ACAD_REACTORS
330
DF
102
}
330
DF
100
AcDbScale
 70
     0
300
1/2" = 1'-0"
140
0.5
141
12.0
290
     0
  0
SCALE
  5
EB
102
{ACAD_REACTORS
330
DF
102
}
330
DF
100
AcDbScale
 70
     0
300
3/4" = 1'-0"
140
0.75
141
12.0
290
     0
  0
SCALE
  5
EC
102
{ACAD_REACTORS
330
DF
102
}
330
DF
100
AcDbScale
 70
     0
300
1" = 1'-0"
140
1.0
141
12.0
290
     0
  0
SCALE
  5
ED
102
{ACAD_REACTORS
330
DF
102
}
330
DF
100
AcDbScale
 70
     0
300
1-1/2" = 1'-0"
140
1.5
141
12.0
290
     0
  0
SCALE
  5
EE
102
{ACAD_REACTORS
330
DF
102
}
330
DF
100
AcDbScale
 70
     0
300
3" = 1'-0"
140
3.0
141
12.0
290
     0
  0
SCALE
  5
EF
102
{ACAD_REACTORS
330
DF
102
}
330
DF
100
AcDbScale
 70
     0
300
6" = 1'-0"
140
6.0
141
12.0
290
     0
  0
SCALE
  5
F0
102
{ACAD_REACTORS
330
DF
102
}
330
DF
100
AcDbScale
 70
     0
300
1'-0" = 1'-0"
140
12.0
141
12.0
290
     0
  0
ACDBSECTIONVIEWSTYLE
  5
F4
102
{ACAD_XDICTIONARY
360
18F
102
}
102
{ACAD_REACTORS
330
F3
102
}
330
F3
100
AcDbModelDocViewStyle
 70
     0
  3
Imperial24
290
     0
100
AcDbSectionViewStyle
 70
     0
 71
     0
 90
       78
 71
     1
340
11
 62
   256
 40
0.24
340
0
340
0
 62
   256
 40
0.24
300
I, O, Q, S, X, Z
 40
0.48
 90
        3
 40
0.18
 90
        1
 71
     2
340
16
 90
       25
 62
   256
340
16
 90
       50
 62
   256
 40
0.24
 40
0.0
 40
0.24
 71
     3
340
11
 62
   256
 40
0.24
 90
        1
 40
0.75
 90
        1
300
%<\AcVar ViewType \f "%tc1">% %<\AcVar ViewSectionStartId>%-%<\AcVar ViewSectionEndId>%\PSCALE %<\AcVar ViewScale \f "%sn">%
 71
     4
 62
   256
 62
   257
300
ANSI31
 40
1.0
 90
        0
290
     0
290
     0
 90
        6
 40
0.0
 40
1.570796326794896
 40
0.2617993877991494
 40
1.308996938995747
 40
-0.2617993877991494
 40
1.832595714594046
  0
TABLESTYLE
  5
DE
102
{ACAD_XDICTIONARY
360
15A
102
}
102
{ACAD_REACTORS
330
DD
102
}
330
DD
100
AcDbTableStyle
280
     0
  3
Standard
 70
     0
 71
     0
 40
0.06
 41
0.06
280
     0
281
     0
  7
Standard
140
0.18
170
     2
 62
     0
 63
     7
283
     0
 90
      512
 91
        0
  1

274
    -2
284
     1
 64
     0
275
    -2
285
     1
 65
     0
276
    -2
286
     1
 66
     0
277
    -2
287
     1
 67
     0
278
    -2
288
     1
 68
     0
279
    -2
289
     1
 69
     0
  7
Standard
140
0.25
170
     5
 62
     0
 63
     7
283
     0
 90
      512
 91
        0
  1

274
    -2
284
     1
 64
     0
275
    -2
285
     1
 65
     0
276
    -2
286
     1
 66
     0
277
    -2
287
     1
 67
     0
278
    -2
288
     1
 68
     0
279
    -2
289
     1
 69
     0
  7
Standard
140
0.18
170
     5
 62
     0
 63
     7
283
     0
 90
      512
 91
        0
  1

274
    -2
284
     1
 64
     0
275
    -2
285
     1
 65
     0
276
    -2
286
     1
 66
     0
277
    -2
287
     1
 67
     0
278
    -2
288
     1
 68
     0
279
    -2
289
     1
 69
     0
  0
VISUALSTYLE
  5
C9
102
{ACAD_XDICTIONARY
360
167
102
}
102
{ACAD_REACTORS
330
C3
102
}
330
C3
100
AcDbVisualStyle
  2
2dWireframe
 70
     4
177
     2
291
     0
 71
     0
176
     1
 72
     2
176
     1
 73
     0
176
     1
 90
        0
176
     1
 40
0.6
176
     1
 41
30.0
176
     1
 63
     7
421
 16777215
176
     1
 74
     1
176
     1
 91
        4
176
     1
 64
     7
176
     1
 65
   257
176
     1
 75
     1
176
     1
175
     1
176
     1
 42
1.0
176
     1
 92
        0
176
     1
 66
   257
176
     1
 43
1.0
176
     1
 76
     1
176
     1
 77
     6
176
     1
 78
     2
176
     1
 67
     7
176
     1
 79
     5
176
     1
170
     0
176
     1
171
     0
176
     1
290
     0
176
     1
 93
        1
176
     1
 44
0.0
176
     1
173
     0
176
     1
1001
ACAD
1000
AcDbSavedByObjectVersion
1070
     0
  0
VISUALSTYLE
  5
C8
102
{ACAD_XDICTIONARY
360
165
102
}
102
{ACAD_REACTORS
330
C3
102
}
330
C3
100
AcDbVisualStyle
  2
Basic
 70
     7
177
     2
291
     1
 71
     1
176
     1
 72
     0
176
     1
 73
     1
176
     1
 90
        0
176
     1
 40
0.6
176
     1
 41
30.0
176
     1
 63
     7
421
 16777215
176
     1
 74
     0
176
     1
 91
        4
176
     1
 64
     7
176
     1
 65
   257
176
     1
 75
     1
176
     1
175
     1
176
     1
 42
1.0
176
     1
 92
        8
176
     1
 66
     7
176
     1
 43
1.0
176
     1
 76
     1
176
     1
 77
     6
176
     1
 78
     2
176
     1
 67
     7
176
     1
 79
     5
176
     1
170
     0
176
     1
171
     0
176
     1
290
     0
176
     1
 93
        1
176
     1
 44
0.0
176
     1
173
     0
176
     1
1001
ACAD
1000
AcDbSavedByObjectVersion
1070
     0
  0
VISUALSTYLE
  5
CF
102
{ACAD_XDICTIONARY
360
173
102
}
102
{ACAD_REACTORS
330
C3
102
}
330
C3
100
AcDbVisualStyle
  2
Brighten
 70
    12
177
     2
291
     1
 71
     2
176
     1
 72
     2
176
     1
 73
     0
176
     1
 90
        0
176
     1
 40
0.6
176
     1
 41
30.0
176
     1
 63
     7
421
 16777215
176
     1
 74
     1
176
     1
 91
        4
176
     1
 64
     7
176
     1
 65
   257
176
     1
 75
     1
176
     1
175
     1
176
     1
 42
1.0
176
     1
 92
        8
176
     1
 66
     7
176
     1
 43
1.0
176
     1
 76
     1
176
     1
 77
     6
176
     1
 78
     2
176
     1
 67
     7
176
     1
 79
     5
176
     1
170
     0
176
     1
171
     0
176
     1
290
     0
176
     1
 93
        1
176
     1
 44
50.0
176
     1
173
     0
176
     1
1001
ACAD
1000
AcDbSavedByObjectVersion
1070
     0
  0
VISUALSTYLE
  5
D3
102
{ACAD_XDICTIONARY
360
17B
102
}
102
{ACAD_REACTORS
330
C3
102
}
330
C3
100
AcDbVisualStyle
  2
ColorChange
 70
    16
177
     2
291
     1
 71
     2
176
     1
 72
     2
176
     1
 73
     3
176
     1
 90
        0
176
     1
 40
0.6
176
     1
 41
30.0
176
     1
 63
     8
421
  8421504
176
     1
 74
     1
176
     1
 91
        4
176
     1
 64
     7
176
     1
 65
   257
176
     1
 75
     1
176
     1
175
     1
176
     1
 42
1.0
176
     1
 92
        8
176
     1
 66
     8
424
  8421504
176
     1
 43
1.0
176
     1
 76
     1
176
     1
 77
     6
176
     1
 78
     2
176
     1
 67
     7
176
     1
 79
     5
176
     1
170
     0
176
     1
171
     0
176
     1
290
     0
176
     1
 93
        1
176
     1
 44
0.0
176
     1
173
     0
176
     1
1001
ACAD
1000
AcDbSavedByObjectVersion
1070
     0
  0
VISUALSTYLE
  5
CC
102
{ACAD_XDICTIONARY
360
16D
102
}
102
{ACAD_REACTORS
330
C3
102
}
330
C3
100
AcDbVisualStyle
  2
Conceptual
 70
     9
177
     2
291
     0
 71
     3
176
     1
 72
     2
176
     1
 73
     0
176
     1
 90
        0
176
     1
 40
0.6
176
     1
 41
30.0
176
     1
 63
     7
421
 16777215
176
     1
 74
     2
176
     1
 91
        2
176
     1
 64
     7
176
     1
 65
   257
176
     1
 75
     1
176
     1
175
     1
176
     1
 42
179.0
176
     1
 92
        8
176
     1
 66
     7
176
     1
 43
1.0
176
     1
 76
     1
176
     1
 77
     6
176
     1
 78
     2
176
     1
 67
     7
176
     1
 79
     3
176
     1
170
     0
176
     1
171
     0
176
     1
290
     0
176
     1
 93
        1
176
     1
 44
0.0
176
     1
173
     0
176
     1
1001
ACAD
1000
AcDbSavedByObjectVersion
1070
     0
  0
VISUALSTYLE
  5
CE
102
{ACAD_XDICTIONARY
360
171
102
}
102
{ACAD_REACTORS
330
C3
102
}
330
C3
100
AcDbVisualStyle
  2
Dim
 70
    11
177
     2
291
     1
 71
     2
176
     1
 72
     2
176
     1
 73
     0
176
     1
 90
        0
176
     1
 40
0.6
176
     1
 41
30.0
176
     1
 63
     7
421
 16777215
176
     1
 74
     1
176
     1
 91
        4
176
     1
 64
     7
176
     1
 65
   257
176
     1
 75
     1
176
     1
175
     1
176
     1
 42
1.0
176
     1
 92
        8
176
     1
 66
     7
176
     1
 43
1.0
176
     1
 76
     1
176
     1
 77
     6
176
     1
 78
     2
176
     1
 67
     7
176
     1
 79
     5
176
     1
170
     0
176
     1
171
     0
176
     1
290
     0
176
     1
 93
        1
176
     1
 44
-50.0
176
     1
173
     0
176
     1
1001
ACAD
1000
AcDbSavedByObjectVersion
1070
     0
  0
VISUALSTYLE
  5
DB
102
{ACAD_XDICTIONARY
360
18B
102
}
102
{ACAD_REACTORS
330
C3
102
}
330
C3
100
AcDbVisualStyle
  2
EdgeColorOff
 70
    22
177
     2
291
     1
 71
     2
176
     0
 72
     2
176
     0
 73
     0
176
     0
 90
        0
176
     0
 40
0.6
176
     0
 41
30.0
176
     0
 63
     7
421
 16777215
176
     0
 74
     1
176
     0
 91
        4
176
     0
 64
     7
176
     0
 65
   257
176
     0
 75
     1
176
     0
175
     1
176
     0
 42
1.0
176
     0
 92
        8
176
     2
 66
     7
176
     0
 43
1.0
176
     0
 76
     1
176
     0
 77
     6
176
     0
 78
     2
176
     0
 67
     7
176
     0
 79
     5
176
     0
170
     0
176
     0
171
     0
176
     0
290
     0
176
     0
 93
        1
176
     0
 44
0.0
176
     0
173
     0
176
     0
1001
ACAD
1000
AcDbSavedByObjectVersion
1070
     0
  0
VISUALSTYLE
  5
D2
102
{ACAD_XDICTIONARY
360
179
102
}
102
{ACAD_REACTORS
330
C3
102
}
330
C3
100
AcDbVisualStyle
  2
Facepattern
 70
    15
177
     2
291
     1
 71
     2
176
     1
 72
     2
176
     1
 73
     0
176
     1
 90
        0
176
     1
 40
0.6
176
     1
 41
30.0
176
     1
 63
     7
421
 16777215
176
     1
 74
     1
176
     1
 91
        4
176
     1
 64
     7
176
     1
 65
   257
176
     1
 75
     1
176
     1
175
     1
176
     1
 42
1.0
176
     1
 92
        8
176
     1
 66
     7
176
     1
 43
1.0
176
     1
 76
     1
176
     1
 77
     6
176
     1
 78
     2
176
     1
 67
     7
176
     1
 79
     5
176
     1
170
     0
176
     1
171
     0
176
     1
290
     0
176
     1
 93
        1
176
     1
 44
0.0
176
     1
173
     0
176
     1
1001
ACAD
1000
AcDbSavedByObjectVersion
1070
     0
  0
VISUALSTYLE
  5
C4
102
{ACAD_XDICTIONARY
360
15D
102
}
102
{ACAD_REACTORS
330
C3
102
}
330
C3
100
AcDbVisualStyle
  2
Flat
 70
     0
177
     2
291
     1
 71
     2
176
     1
 72
     1
176
     1
 73
     1
176
     1
 90
        2
176
     1
 40
0.6
176
     1
 41
30.0
176
     1
 63
     7
421
 16777215
176
     1
 74
     0
176
     1
 91
        0
176
     1
 64
     7
176
     1
 65
   257
176
     1
 75
     1
176
     1
175
     1
176
     1
 42
1.0
176
     1
 92
        8
176
     1
 66
     7
176
     1
 43
1.0
176
     1
 76
     1
176
     1
 77
     6
176
     1
 78
     2
176
     1
 67
     7
176
     1
 79
     5
176
     1
170
     0
176
     1
171
     0
176
     1
290
     0
176
     1
 93
       13
176
     1
 44
0.0
176
     1
173
     0
176
     1
1001
ACAD
1000
AcDbSavedByObjectVersion
1070
     0
  0
VISUALSTYLE
  5
C5
102
{ACAD_XDICTIONARY
360
15F
102
}
102
{ACAD_REACTORS
330
C3
102
}
330
C3
100
AcDbVisualStyle
  2
FlatWithEdges
 70
     1
177
     2
291
     1
 71
     2
176
     1
 72
     1
176
     1
 73
     1
176
     1
 90
        2
176
     1
 40
0.6
176
     1
 41
30.0
176
     1
 63
     7
421
 16777215
176
     1
 74
     1
176
     1
 91
        0
176
     1
 64
     7
176
     1
 65
   257
176
     1
 75
     1
176
     1
175
     1
176
     1
 42
1.0
176
     1
 92
        0
176
     1
 66
   257
176
     1
 43
1.0
176
     1
 76
     1
176
     1
 77
     6
176
     1
 78
     2
176
     1
 67
     7
176
     1
 79
     5
176
     1
170
     0
176
     1
171
     0
176
     1
290
     0
176
     1
 93
       13
176
     1
 44
0.0
176
     1
173
     0
176
     1
1001
ACAD
1000
AcDbSavedByObjectVersion
1070
     0
  0
VISUALSTYLE
  5
C6
102
{ACAD_XDICTIONARY
360
161
102
}
102
{ACAD_REACTORS
330
C3
102
}
330
C3
100
AcDbVisualStyle
  2
Gouraud
 70
     2
177
     2
291
     1
 71
     2
176
     1
 72
     2
176
     1
 73
     1
176
     1
 90
        2
176
     1
 40
0.6
176
     1
 41
30.0
176
     1
 63
     7
421
 16777215
176
     1
 74
     0
176
     1
 91
        0
176
     1
 64
     7
176
     1
 65
   257
176
     1
 75
     1
176
     1
175
     1
176
     1
 42
1.0
176
     1
 92
        0
176
     1
 66
     7
176
     1
 43
1.0
176
     1
 76
     1
176
     1
 77
     6
176
     1
 78
     2
176
     1
 67
     7
176
     1
 79
     5
176
     1
170
     0
176
     1
171
     0
176
     1
290
     0
176
     1
 93
       13
176
     1
 44
0.0
176
     1
173
     0
176
     1
1001
ACAD
1000
AcDbSavedByObjectVersion
1070
     0
  0
VISUALSTYLE
  5
C7
102
{ACAD_XDICTIONARY
360
163
102
}
102
{ACAD_REACTORS
330
C3
102
}
330
C3
100
AcDbVisualStyle
  2
GouraudWithEdges
 70
     3
177
     2
291
     1
 71
     2
176
     1
 72
     2
176
     1
 73
     1
176
     1
 90
        2
176
     1
 40
0.6
176
     1
 41
30.0
176
     1
 63
     7
421
 16777215
176
     1
 74
     1
176
     1
 91
        0
176
     1
 64
     7
176
     1
 65
   257
176
     1
 75
     1
176
     1
175
     1
176
     1
 42
1.0
176
     1
 92
        0
176
     1
 66
   257
176
     1
 43
1.0
176
     1
 76
     1
176
     1
 77
     6
176
     1
 78
     2
176
     1
 67
     7
176
     1
 79
     5
176
     1
170
     0
176
     1
171
     0
176
     1
290
     0
176
     1
 93
       13
176
     1
 44
0.0
176
     1
173
     0
176
     1
1001
ACAD
1000
AcDbSavedByObjectVersion
1070
     0
  0
VISUALSTYLE
  5
CB
102
{ACAD_XDICTIONARY
360
16B
102
}
102
{ACAD_REACTORS
330
C3
102
}
330
C3
100
AcDbVisualStyle
  2
Hidden
 70
     6
177
     2
291
     0
 71
     1
176
     1
 72
     2
176
     1
 73
     2
176
     1
 90
        0
176
     1
 40
0.6
176
     1
 41
30.0
176
     1
 63
     7
421
 16777215
176
     1
 74
     2
176
     1
 91
        2
176
     1
 64
     7
176
     1
 65
   257
176
     1
 75
     2
176
     1
175
     1
176
     1
 42
40.0
176
     1
 92
        0
176
     1
 66
   257
176
     1
 43
1.0
176
     1
 76
     1
176
     1
 77
     6
176
     1
 78
     2
176
     1
 67
     7
176
     1
 79
     3
176
     1
170
     0
176
     1
171
     0
176
     1
290
     0
176
     1
 93
        1
176
     1
 44
0.0
176
     1
173
     0
176
     1
1001
ACAD
1000
AcDbSavedByObjectVersion
1070
     0
  0
VISUALSTYLE
  5
D9
102
{ACAD_XDICTIONARY
360
187
102
}
102
{ACAD_REACTORS
330
C3
102
}
330
C3
100
AcDbVisualStyle
  2
JitterOff
 70
    20
177
     2
291
     1
 71
     2
176
     0
 72
     2
176
     0
 73
     0
176
     0
 90
        0
176
     0
 40
0.6
176
     0
 41
30.0
176
     0
 63
     7
421
 16777215
176
     0
 74
     1
176
     0
 91
        4
176
     0
 64
     7
176
     0
 65
   257
176
     0
 75
     1
176
     0
175
     1
176
     0
 42
1.0
176
     0
 92
       10
176
     2
 66
     7
176
     0
 43
1.0
176
     0
 76
     1
176
     0
 77
     6
176
     0
 78
     2
176
     0
 67
     7
176
     0
 79
     5
176
     0
170
     0
176
     0
171
     0
176
     0
290
     0
176
     0
 93
        1
176
     0
 44
0.0
176
     0
173
     0
176
     0
1001
ACAD
1000
AcDbSavedByObjectVersion
1070
     0
  0
VISUALSTYLE
  5
D1
102
{ACAD_XDICTIONARY
360
177
102
}
102
{ACAD_REACTORS
330
C3
102
}
330
C3
100
AcDbVisualStyle
  2
Linepattern
 70
    14
177
     2
291
     1
 71
     2
176
     1
 72
     2
176
     1
 73
     0
176
     1
 90
        0
176
     1
 40
0.6
176
     1
 41
30.0
176
     1
 63
     7
421
 16777215
176
     1
 74
     1
176
     1
 91
        4
176
     1
 64
     7
176
     1
 65
   257
176
     1
 75
     7
176
     1
175
     7
176
     1
 42
1.0
176
     1
 92
        8
176
     1
 66
     7
176
     1
 43
1.0
176
     1
 76
     1
176
     1
 77
     6
176
     1
 78
     2
176
     1
 67
     7
176
     1
 79
     5
176
     1
170
     0
176
     1
171
     0
176
     1
290
     0
176
     1
 93
        1
176
     1
 44
0.0
176
     1
173
     0
176
     1
1001
ACAD
1000
AcDbSavedByObjectVersion
1070
     0
  0
VISUALSTYLE
  5
DA
102
{ACAD_XDICTIONARY
360
189
102
}
102
{ACAD_REACTORS
330
C3
102
}
330
C3
100
AcDbVisualStyle
  2
OverhangOff
 70
    21
177
     2
291
     1
 71
     2
176
     0
 72
     2
176
     0
 73
     0
176
     0
 90
        0
176
     0
 40
0.6
176
     0
 41
30.0
176
     0
 63
     7
421
 16777215
176
     0
 74
     1
176
     0
 91
        4
176
     0
 64
     7
176
     0
 65
   257
176
     0
 75
     1
176
     0
175
     1
176
     0
 42
1.0
176
     0
 92
        9
176
     2
 66
     7
176
     0
 43
1.0
176
     0
 76
     1
176
     0
 77
     6
176
     0
 78
     2
176
     0
 67
     7
176
     0
 79
     5
176
     0
170
     0
176
     0
171
     0
176
     0
290
     0
176
     0
 93
        1
176
     0
 44
0.0
176
     0
173
     0
176
     0
1001
ACAD
1000
AcDbSavedByObjectVersion
1070
     0
  0
VISUALSTYLE
  5
CD
102
{ACAD_XDICTIONARY
360
16F
102
}
102
{ACAD_REACTORS
330
C3
102
}
330
C3
100
AcDbVisualStyle
  2
Realistic
 70
     8
177
     2
291
     0
 71
     2
176
     1
 72
     3
176
     1
 73
     0
176
     1
 90
        2
176
     1
 40
0.6
176
     1
 41
30.0
176
     1
 63
     7
421
 16777215
176
     1
 74
     0
176
     1
 91
        0
176
     1
 64
     7
176
     1
 65
   257
176
     1
 75
     1
176
     1
175
     1
176
     1
 42
1.0
176
     1
 92
        8
176
     1
 66
   257
176
     1
 43
1.0
176
     1
 76
     1
176
     1
 77
     6
176
     1
 78
     2
176
     1
 67
     7
176
     1
 79
     3
176
     1
170
     0
176
     1
171
     0
176
     1
290
     0
176
     1
 93
       13
176
     1
 44
0.0
176
     1
173
     0
176
     1
1001
ACAD
1000
AcDbSavedByObjectVersion
1070
     0
  0
VISUALSTYLE
  5
D8
102
{ACAD_XDICTIONARY
360
185
102
}
102
{ACAD_REACTORS
330
C3
102
}
330
C3
100
AcDbVisualStyle
  2
Shaded
 70
    27
177
     2
291
     0
 71
     2
176
     1
 72
     2
176
     1
 73
     1
176
     1
 90
        2
176
     1
 40
0.6
176
     1
 41
30.0
176
     1
 63
     7
421
 16777215
176
     1
 74
     0
176
     1
 91
        4
176
     1
 64
     7
176
     1
 65
   257
176
     1
 75
     1
176
     1
175
     1
176
     1
 42
1.0
176
     1
 92
        8
176
     1
 66
   257
176
     1
 43
1.0
176
     1
 76
     1
176
     1
 77
     6
176
     1
 78
     2
176
     1
 67
     8
425
  7895160
176
     1
 79
     3
176
     1
170
     0
176
     1
171
     0
176
     1
290
     0
176
     1
 93
        5
176
     1
 44
0.0
176
     1
173
     0
176
     1
1001
ACAD
1000
AcDbSavedByObjectVersion
1070
     0
  0
VISUALSTYLE
  5
D7
102
{ACAD_XDICTIONARY
360
183
102
}
102
{ACAD_REACTORS
330
C3
102
}
330
C3
100
AcDbVisualStyle
  2
Shaded with edges
 70
    26
177
     2
291
     0
 71
     2
176
     1
 72
     2
176
     1
 73
     1
176
     1
 90
        2
176
     1
 40
0.6
176
     1
 41
30.0
176
     1
 63
     7
421
 16777215
176
     1
 74
     1
176
     1
 91
       10
176
     1
 64
     7
176
     1
 65
   257
176
     1
 75
     2
176
     1
175
     1
176
     1
 42
1.0
176
     1
 92
        8
176
     1
 66
   257
176
     1
 43
1.0
176
     1
 76
     1
176
     1
 77
     6
176
     1
 78
     2
176
     1
 67
     7
176
     1
 79
     3
176
     1
170
     0
176
     1
171
     0
176
     1
290
     0
176
     1
 93
        5
176
     1
 44
0.0
176
     1
173
     0
176
     1
1001
ACAD
1000
AcDbSavedByObjectVersion
1070
     0
  0
VISUALSTYLE
  5
D4
102
{ACAD_XDICTIONARY
360
17D
102
}
102
{ACAD_REACTORS
330
C3
102
}
330
C3
100
AcDbVisualStyle
  2
Shades of Gray
 70
    23
177
     2
291
     0
 71
     2
176
     1
 72
     2
176
     1
 73
     3
176
     1
 90
        0
176
     1
 40
0.6
176
     1
 41
30.0
176
     1
 63
     7
421
 16777215
176
     1
 74
     2
176
     1
 91
        2
176
     1
 64
     7
176
     1
 65
     7
176
     1
 75
     1
176
     1
175
     1
176
     1
 42
40.0
176
     1
 92
        8
176
     1
 66
     7
176
     1
 43
1.0
176
     1
 76
     1
176
     1
 77
     6
176
     1
 78
     2
176
     1
 67
     7
176
     1
 79
     3
176
     1
170
     0
176
     1
171
     0
176
     1
290
     0
176
     1
 93
        1
176
     1
 44
0.0
176
     1
173
     0
176
     1
1001
ACAD
1000
AcDbSavedByObjectVersion
1070
     0
  0
VISUALSTYLE
  5
D5
102
{ACAD_XDICTIONARY
360
17F
102
}
102
{ACAD_REACTORS
330
C3
102
}
330
C3
100
AcDbVisualStyle
  2
Sketchy
 70
    24
177
     2
291
     0
 71
     1
176
     1
 72
     2
176
     1
 73
     2
176
     1
 90
        0
176
     1
 40
0.6
176
     1
 41
30.0
176
     1
 63
     7
421
 16777215
176
     1
 74
     2
176
     1
 91
        2
176
     1
 64
     7
176
     1
 65
     7
176
     1
 75
     1
176
     1
175
     1
176
     1
 42
40.0
176
     1
 92
       11
176
     1
 66
     7
176
     1
 43
1.0
176
     1
 76
     1
176
     1
 77
     6
176
     1
 78
     2
176
     1
 67
     7
176
     1
 79
     6
176
     1
170
     0
176
     1
171
     0
176
     1
290
     0
176
     1
 93
        1
176
     1
 44
0.0
176
     1
173
     0
176
     1
1001
ACAD
1000
AcDbSavedByObjectVersion
1070
     0
  0
VISUALSTYLE
  5
D0
102
{ACAD_XDICTIONARY
360
175
102
}
102
{ACAD_REACTORS
330
C3
102
}
330
C3
100
AcDbVisualStyle
  2
Thicken
 70
    13
177
     2
291
     1
 71
     2
176
     1
 72
     2
176
     1
 73
     0
176
     1
 90
        0
176
     1
 40
0.6
176
     1
 41
30.0
176
     1
 63
     7
421
 16777215
176
     1
 74
     1
176
     1
 91
        4
176
     1
 64
     7
176
     1
 65
   257
176
     1
 75
     1
176
     1
175
     1
176
     1
 42
1.0
176
     1
 92
       12
176
     1
 66
     7
176
     1
 43
1.0
176
     1
 76
     1
176
     1
 77
     6
176
     1
 78
     2
176
     1
 67
     7
176
     1
 79
     5
176
     1
170
     0
176
     1
171
     0
176
     1
290
     0
176
     1
 93
        1
176
     1
 44
0.0
176
     1
173
     0
176
     1
1001
ACAD
1000
AcDbSavedByObjectVersion
1070
     0
  0
VISUALSTYLE
  5
CA
102
{ACAD_XDICTIONARY
360
169
102
}
102
{ACAD_REACTORS
330
C3
102
}
330
C3
100
AcDbVisualStyle
  2
Wireframe
 70
     5
177
     2
291
     0
 71
     0
176
     1
 72
     2
176
     1
 73
     0
176
     1
 90
        0
176
     1
 40
0.6
176
     1
 41
30.0
176
     1
 63
     7
421
 16777215
176
     1
 74
     1
176
     1
 91
        4
176
     1
 64
     7
176
     1
 65
   257
176
     1
 75
     1
176
     1
175
     1
176
     1
 42
1.0
176
     1
 92
        0
176
     1
 66
   257
176
     1
 43
1.0
176
     1
 76
     1
176
     1
 77
     6
176
     1
 78
     2
176
     1
 67
     7
176
     1
 79
     3
176
     1
170
     0
176
     1
171
     0
176
     1
290
     0
176
     1
 93
        1
176
     1
 44
0.0
176
     1
173
     0
176
     1
1001
ACAD
1000
AcDbSavedByObjectVersion
1070
     0
  0
VISUALSTYLE
  5
D6
102
{ACAD_XDICTIONARY
360
181
102
}
102
{ACAD_REACTORS
330
C3
102
}
330
C3
100
AcDbVisualStyle
  2
X-Ray
 70
    25
177
     2
291
     0
 71
     2
176
     1
 72
     2
176
     1
 73
     1
176
     1
 90
        1
176
     1
 40
0.5
176
     1
 41
30.0
176
     1
 63
     7
421
 16777215
176
     1
 74
     1
176
     1
 91
        0
176
     1
 64
     7
176
     1
 65
   257
176
     1
 75
     1
176
     1
175
     1
176
     1
 42
1.0
176
     1
 92
        8
176
     1
 66
     7
176
     1
 43
1.0
176
     1
 76
     1
176
     1
 77
     6
176
     1
 78
     2
176
     1
 67
     7
176
     1
 79
     3
176
     1
170
     0
176
     1
171
     0
176
     1
290
     0
176
     1
 93
       13
176
     1
 44
0.0
176
     1
173
     0
176
     1
1001
ACAD
1000
AcDbSavedByObjectVersion
1070
     0
  0
DICTIONARYVAR
  5
156
102
{ACAD_REACTORS
330
150
102
}
330
150
100
DictionaryVariables
280
     0
  1
1:1
  0
DICTIONARYVAR
  5
152
102
{ACAD_REACTORS
330
150
102
}
330
150
100
DictionaryVariables
280
     0
  1
STANDARD
  0
DICTIONARYVAR
  5
151
102
{ACAD_REACTORS
330
150
102
}
330
150
100
DictionaryVariables
280
     0
  1
STANDARD
  0
DICTIONARYVAR
  5
153
102
{ACAD_REACTORS
330
150
102
}
330
150
100
DictionaryVariables
280
     0
  1
Imperial24
  0
DICTIONARYVAR
  5
154
102
{ACAD_REACTORS
330
150
102
}
330
150
100
DictionaryVariables
280
     0
  1
Imperial24
  0
DICTIONARYVAR
  5
158
102
{ACAD_REACTORS
330
150
102
}
330
150
100
DictionaryVariables
280
     0
  1
1
  0
DICTIONARYVAR
  5
159
102
{ACAD_REACTORS
330
150
102
}
330
150
100
DictionaryVariables
280
     0
  1
15
  0
DICTIONARYVAR
  5
157
102
{ACAD_REACTORS
330
150
102
}
330
150
100
DictionaryVariables
280
     0
  1
0
  0
DICTIONARYVAR
  5
155
102
{ACAD_REACTORS
330
150
102
}
330
150
100
DictionaryVariables
280
     0
  1
0
  0
DICTIONARY
  5
191
330
F6
100
AcDbDictionary
280
     1
281
     1
  3
ACAD_XREC_ROUNDTRIP
360
192
  0
DICTIONARY
  5
B4
330
B3
100
AcDbDictionary
280
     1
281
     1
  3
BUMPTILE
360
B6
  3
DIFFUSETILE
360
B5
  3
OPACITYTILE
360
B9
  3
REFLECTIONTILE
360
B8
  3
REFRACTIONTILE
360
BA
  3
SPECULARTILE
360
B7
  0
DICTIONARY
  5
AC
330
AB
100
AcDbDictionary
280
     1
281
     1
  3
BUMPTILE
360
AE
  3
DIFFUSETILE
360
AD
  3
OPACITYTILE
360
B1
  3
REFLECTIONTILE
360
B0
  3
REFRACTIONTILE
360
B2
  3
SPECULARTILE
360
AF
  0
DICTIONARY
  5
BC
330
BB
100
AcDbDictionary
280
     1
281
     1
  3
BUMPTILE
360
BE
  3
DIFFUSETILE
360
BD
  3
OPACITYTILE
360
C1
  3
REFLECTIONTILE
360
C0
  3
REFRACTIONTILE
360
C2
  3
SPECULARTILE
360
BF
  0
DICTIONARY
  5
18D
330
F2
100
AcDbDictionary
280
     1
281
     1
  3
ACAD_XREC_ROUNDTRIP
360
18E
  0
DICTIONARY
  5
18F
330
F4
100
AcDbDictionary
280
     1
281
     1
  3
ACAD_XREC_ROUNDTRIP
360
190
  0
DICTIONARY
  5
15A
330
DE
100
AcDbDictionary
280
     1
281
     1
  3
ACAD_ROUNDTRIP_2008_TABLESTYLE_CELLSTYLEMAP
360
15B
  0
DICTIONARY
  5
167
330
C9
100
AcDbDictionary
280
     1
281
     1
  3
ACAD_XREC_ROUNDTRIP
360
168
  0
DICTIONARY
  5
165
330
C8
100
AcDbDictionary
280
     1
281
     1
  3
ACAD_XREC_ROUNDTRIP
360
166
  0
DICTIONARY
  5
173
330
CF
100
AcDbDictionary
280
     1
281
     1
  3
ACAD_XREC_ROUNDTRIP
360
174
  0
DICTIONARY
  5
17B
330
D3
100
AcDbDictionary
280
     1
281
     1
  3
ACAD_XREC_ROUNDTRIP
360
17C
  0
DICTIONARY
  5
16D
330
CC
100
AcDbDictionary
280
     1
281
     1
  3
ACAD_XREC_ROUNDTRIP
360
16E
  0
DICTIONARY
  5
171
330
CE
100
AcDbDictionary
280
     1
281
     1
  3
ACAD_XREC_ROUNDTRIP
360
172
  0
DICTIONARY
  5
18B
330
DB
100
AcDbDictionary
280
     1
281
     1
  3
ACAD_XREC_ROUNDTRIP
360
18C
  0
DICTIONARY
  5
179
330
D2
100
AcDbDictionary
280
     1
281
     1
  3
ACAD_XREC_ROUNDTRIP
360
17A
  0
DICTIONARY
  5
15D
330
C4
100
AcDbDictionary
280
     1
281
     1
  3
ACAD_XREC_ROUNDTRIP
360
15E
  0
DICTIONARY
  5
15F
330
C5
100
AcDbDictionary
280
     1
281
     1
  3
ACAD_XREC_ROUNDTRIP
360
160
  0
DICTIONARY
  5
161
330
C6
100
AcDbDictionary
280
     1
281
     1
  3
ACAD_XREC_ROUNDTRIP
360
162
  0
DICTIONARY
  5
163
330
C7
100
AcDbDictionary
280
     1
281
     1
  3
ACAD_XREC_ROUNDTRIP
360
164
  0
DICTIONARY
  5
16B
330
CB
100
AcDbDictionary
280
     1
281
     1
  3
ACAD_XREC_ROUNDTRIP
360
16C
  0
DICTIONARY
  5
187
330
D9
100
AcDbDictionary
280
     1
281
     1
  3
ACAD_XREC_ROUNDTRIP
360
188
  0
DICTIONARY
  5
177
330
D1
100
AcDbDictionary
280
     1
281
     1
  3
ACAD_XREC_ROUNDTRIP
360
178
  0
DICTIONARY
  5
189
330
DA
100
AcDbDictionary
280
     1
281
     1
  3
ACAD_XREC_ROUNDTRIP
360
18A
  0
DICTIONARY
  5
16F
330
CD
100
AcDbDictionary
280
     1
281
     1
  3
ACAD_XREC_ROUNDTRIP
360
170
  0
DICTIONARY
  5
185
330
D8
100
AcDbDictionary
280
     1
281
     1
  3
ACAD_XREC_ROUNDTRIP
360
186
  0
DICTIONARY
  5
183
330
D7
100
AcDbDictionary
280
     1
281
     1
  3
ACAD_XREC_ROUNDTRIP
360
184
  0
DICTIONARY
  5
17D
330
D4
100
AcDbDictionary
280
     1
281
     1
  3
ACAD_XREC_ROUNDTRIP
360
17E
  0
DICTIONARY
  5
17F
330
D5
100
AcDbDictionary
280
     1
281
     1
  3
ACAD_XREC_ROUNDTRIP
360
180
  0
DICTIONARY
  5
175
330
D0
100
AcDbDictionary
280
     1
281
     1
  3
ACAD_XREC_ROUNDTRIP
360
176
  0
DICTIONARY
  5
169
330
CA
100
AcDbDictionary
280
     1
281
     1
  3
ACAD_XREC_ROUNDTRIP
360
16A
  0
DICTIONARY
  5
181
330
D6
100
AcDbDictionary
280
     1
281
     1
  3
ACAD_XREC_ROUNDTRIP
360
182
  0
XRECORD
  5
192
102
{ACAD_REACTORS
330
191
102
}
330
191
100
AcDbXrecord
280
     1
102
DISPLAYNAME
  1
Imperial24
102
FLAGS
 90
        0
  0
XRECORD
  5
B6
102
{ACAD_REACTORS
330
B4
102
}
330
B4
100
AcDbXrecord
280
     1
270
     1
271
     1
  0
XRECORD
  5
B5
102
{ACAD_REACTORS
330
B4
102
}
330
B4
100
AcDbXrecord
280
     1
270
     1
271
     1
  0
XRECORD
  5
B9
102
{ACAD_REACTORS
330
B4
102
}
330
B4
100
AcDbXrecord
280
     1
270
     1
271
     1
  0
XRECORD
  5
B8
102
{ACAD_REACTORS
330
B4
102
}
330
B4
100
AcDbXrecord
280
     1
270
     1
271
     1
  0
XRECORD
  5
BA
102
{ACAD_REACTORS
330
B4
102
}
330
B4
100
AcDbXrecord
280
     1
270
     1
271
     1
  0
XRECORD
  5
B7
102
{ACAD_REACTORS
330
B4
102
}
330
B4
100
AcDbXrecord
280
     1
270
     1
271
     1
  0
XRECORD
  5
AE
102
{ACAD_REACTORS
330
AC
102
}
330
AC
100
AcDbXrecord
280
     1
270
     1
271
     1
  0
XRECORD
  5
AD
102
{ACAD_REACTORS
330
AC
102
}
330
AC
100
AcDbXrecord
280
     1
270
     1
271
     1
  0
XRECORD
  5
B1
102
{ACAD_REACTORS
330
AC
102
}
330
AC
100
AcDbXrecord
280
     1
270
     1
271
     1
  0
XRECORD
  5
B0
102
{ACAD_REACTORS
330
AC
102
}
330
AC
100
AcDbXrecord
280
     1
270
     1
271
     1
  0
XRECORD
  5
B2
102
{ACAD_REACTORS
330
AC
102
}
330
AC
100
AcDbXrecord
280
     1
270
     1
271
     1
  0
XRECORD
  5
AF
102
{ACAD_REACTORS
330
AC
102
}
330
AC
100
AcDbXrecord
280
     1
270
     1
271
     1
  0
XRECORD
  5
BE
102
{ACAD_REACTORS
330
BC
102
}
330
BC
100
AcDbXrecord
280
     1
270
     1
271
     1
  0
XRECORD
  5
BD
102
{ACAD_REACTORS
330
BC
102
}
330
BC
100
AcDbXrecord
280
     1
270
     1
271
     1
  0
XRECORD
  5
C1
102
{ACAD_REACTORS
330
BC
102
}
330
BC
100
AcDbXrecord
280
     1
270
     1
271
     1
  0
XRECORD
  5
C0
102
{ACAD_REACTORS
330
BC
102
}
330
BC
100
AcDbXrecord
280
     1
270
     1
271
     1
  0
XRECORD
  5
C2
102
{ACAD_REACTORS
330
BC
102
}
330
BC
100
AcDbXrecord
280
     1
270
     1
271
     1
  0
XRECORD
  5
BF
102
{ACAD_REACTORS
330
BC
102
}
330
BC
100
AcDbXrecord
280
     1
270
     1
271
     1
  0
XRECORD
  5
18E
102
{ACAD_REACTORS
330
18D
102
}
330
18D
100
AcDbXrecord
280
     1
102
ACAD_ROUNDTRIP_2012_MLEADER_STYLE
298
     1
  0
XRECORD
  5
190
102
{ACAD_REACTORS
330
18F
102
}
330
18F
100
AcDbXrecord
280
     1
102
DISPLAYNAME
  1
Imperial24
102
FLAGS
 90
        0
  0
CELLSTYLEMAP
  5
15B
102
{ACAD_REACTORS
330
15A
102
}
330
15A
100
AcDbCellStyleMap
 90
        3
300
CELLSTYLE
  1
TABLEFORMAT_BEGIN
 90
        5
170
     1
 91
        0
 92
    32768
 62
   257
 93
        1
300
CONTENTFORMAT
  1
CONTENTFORMAT_BEGIN
 90
        0
 91
        0
 92
      512
 93
        0
300

 40
0.0
140
1.0
 94
        5
 62
     0
340
11
144
0.25
309
CONTENTFORMAT_END
171
     0
 94
        0
309
TABLEFORMAT_END
  1
CELLSTYLE_BEGIN
 90
        1
 91
        1
300
_TITLE
309
CELLSTYLE_END
300
CELLSTYLE
  1
TABLEFORMAT_BEGIN
 90
        5
170
     1
 91
        0
 92
        0
 62
   257
 93
        1
300
CONTENTFORMAT
  1
CONTENTFORMAT_BEGIN
 90
        0
 91
        0
 92
      512
 93
        0
300

 40
0.0
140
1.0
 94
        5
 62
     0
340
11
144
0.18
309
CONTENTFORMAT_END
171
     0
 94
        0
309
TABLEFORMAT_END
  1
CELLSTYLE_BEGIN
 90
        2
 91
        1
300
_HEADER
309
CELLSTYLE_END
300
CELLSTYLE
  1
TABLEFORMAT_BEGIN
 90
        5
170
     1
 91
        0
 92
        0
 62
   257
 93
        1
300
CONTENTFORMAT
  1
CONTENTFORMAT_BEGIN
 90
        0
 91
        0
 92
      512
 93
        0
300

 40
0.0
140
1.0
 94
        2
 62
     0
340
11
144
0.18
309
CONTENTFORMAT_END
171
     0
 94
        0
309
TABLEFORMAT_END
  1
CELLSTYLE_BEGIN
 90
        3
 91
        2
300
_DATA
309
CELLSTYLE_END
  0
XRECORD
  5
168
102
{ACAD_REACTORS
330
167
102
}
330
167
100
AcDbXrecord
280
     1
102
RTVSPost2010Prop28
280
     1
102
RTVSPost2010PropOp28
 70
     1
102
RTVSPost2010Prop29
280
     1
102
RTVSPost2010PropOp29
 70
     1
102
RTVSPost2010Prop30
280
     0
102
RTVSPost2010PropOp30
 70
     1
102
RTVSPost2010Prop31
280
     0
102
RTVSPost2010PropOp31
 70
     1
102
RTVSPost2010Prop32
280
     0
102
RTVSPost2010PropOp32
 70
     1
102
RTVSPost2010Prop33
280
     0
102
RTVSPost2010PropOp33
 70
     1
102
RTVSPost2010Prop34
280
     0
102
RTVSPost2010PropOp34
 70
     1
102
RTVSPost2010Prop35
280
     0
102
RTVSPost2010PropOp35
 70
     1
102
RTVSPost2010Prop36
280
     0
102
RTVSPost2010PropOp36
 70
     1
102
RTVSPost2010Prop37
 90
       50
102
RTVSPost2010PropOp37
 70
     1
102
RTVSPost2010Prop38
140
0.0
102
RTVSPost2010PropOp38
 70
     1
102
RTVSPost2010Prop39
140
1.0
102
RTVSPost2010PropOp39
 70
     1
102
RTVSPost2010Prop40
 90
        0
102
RTVSPost2010PropOp40
 70
     1
102
RTVSPost2010Prop41ColorIndex
 90
       18
102
RTVSPost2010Prop41ColorRGB
 90
        0
102
RTVSPost2010PropOp41
 70
     1
102
RTVSPost2010Prop42
 90
       50
102
RTVSPost2010PropOp42
 70
     1
102
RTVSPost2010Prop43
 90
        3
102
RTVSPost2010PropOp43
 70
     1
102
RTVSPost2010Prop44ColorIndex
 90
        5
102
RTVSPost2010Prop44ColorRGB
 90
      255
102
RTVSPost2010PropOp44
 70
     1
102
RTVSPost2010Prop45
280
     0
102
RTVSPost2010PropOp45
 70
     1
102
RTVSPost2010Prop46
 90
       50
102
RTVSPost2010PropOp46
 70
     1
102
RTVSPost2010Prop47
 90
       50
102
RTVSPost2010PropOp47
 70
     1
102
RTVSPost2010Prop48
 90
       50
102
RTVSPost2010PropOp48
 70
     1
102
RTVSPost2010Prop49
280
     0
102
RTVSPost2010PropOp49
 70
     1
102
RTVSPost2010Prop50
 90
       50
102
RTVSPost2010PropOp50
 70
     1
102
RTVSPost2010Prop51ColorIndex
 90
      256
102
RTVSPost2010Prop51ColorRGB
 90
-16777216
102
RTVSPost2010PropOp51
 70
     0
102
RTVSPost2010Prop52
140
1.0
102
RTVSPost2010PropOp52
 70
     0
102
RTVSPost2010Prop53
 90
        2
102
RTVSPost2010PropOp53
 70
     1
102
RTVSPost2010Prop54
  1
strokes_ogs.tif
102
RTVSPost2010PropOp54
 70
     1
102
RTVSPost2010Prop55
280
     0
102
RTVSPost2010PropOp55
 70
     1
102
RTVSPost2010Prop56
140
1.0
102
RTVSPost2010PropOp56
 70
     1
102
RTVSPost2010Prop57
140
1.0
102
RTVSPost2010PropOp57
 70
     1
  0
XRECORD
  5
166
102
{ACAD_REACTORS
330
165
102
}
330
165
100
AcDbXrecord
280
     1
102
RTVSPost2010Prop28
280
     0
102
RTVSPost2010PropOp28
 70
     1
102
RTVSPost2010Prop29
280
     1
102
RTVSPost2010PropOp29
 70
     1
102
RTVSPost2010Prop30
280
     1
102
RTVSPost2010PropOp30
 70
     1
102
RTVSPost2010Prop31
280
     0
102
RTVSPost2010PropOp31
 70
     1
102
RTVSPost2010Prop32
280
     0
102
RTVSPost2010PropOp32
 70
     1
102
RTVSPost2010Prop33
280
     0
102
RTVSPost2010PropOp33
 70
     1
102
RTVSPost2010Prop34
280
     0
102
RTVSPost2010PropOp34
 70
     1
102
RTVSPost2010Prop35
280
     0
102
RTVSPost2010PropOp35
 70
     1
102
RTVSPost2010Prop36
280
     0
102
RTVSPost2010PropOp36
 70
     1
102
RTVSPost2010Prop37
 90
       50
102
RTVSPost2010PropOp37
 70
     1
102
RTVSPost2010Prop38
140
0.0
102
RTVSPost2010PropOp38
 70
     1
102
RTVSPost2010Prop39
140
1.0
102
RTVSPost2010PropOp39
 70
     1
102
RTVSPost2010Prop40
 90
        0
102
RTVSPost2010PropOp40
 70
     1
102
RTVSPost2010Prop41ColorIndex
 90
       18
102
RTVSPost2010Prop41ColorRGB
 90
        0
102
RTVSPost2010PropOp41
 70
     1
102
RTVSPost2010Prop42
 90
       50
102
RTVSPost2010PropOp42
 70
     1
102
RTVSPost2010Prop43
 90
        3
102
RTVSPost2010PropOp43
 70
     1
102
RTVSPost2010Prop44ColorIndex
 90
        5
102
RTVSPost2010Prop44ColorRGB
 90
      255
102
RTVSPost2010PropOp44
 70
     1
102
RTVSPost2010Prop45
280
     0
102
RTVSPost2010PropOp45
 70
     1
102
RTVSPost2010Prop46
 90
       50
102
RTVSPost2010PropOp46
 70
     1
102
RTVSPost2010Prop47
 90
       50
102
RTVSPost2010PropOp47
 70
     1
102
RTVSPost2010Prop48
 90
       50
102
RTVSPost2010PropOp48
 70
     1
102
RTVSPost2010Prop49
280
     0
102
RTVSPost2010PropOp49
 70
     1
102
RTVSPost2010Prop50
 90
       50
102
RTVSPost2010PropOp50
 70
     1
102
RTVSPost2010Prop51ColorIndex
 90
      256
102
RTVSPost2010Prop51ColorRGB
 90
-16777216
102
RTVSPost2010PropOp51
 70
     0
102
RTVSPost2010Prop52
140
1.0
102
RTVSPost2010PropOp52
 70
     0
102
RTVSPost2010Prop53
 90
        2
102
RTVSPost2010PropOp53
 70
     1
102
RTVSPost2010Prop54
  1
strokes_ogs.tif
102
RTVSPost2010PropOp54
 70
     1
102
RTVSPost2010Prop55
280
     0
102
RTVSPost2010PropOp55
 70
     1
102
RTVSPost2010Prop56
140
1.0
102
RTVSPost2010PropOp56
 70
     1
102
RTVSPost2010Prop57
140
1.0
102
RTVSPost2010PropOp57
 70
     1
  0
XRECORD
  5
174
102
{ACAD_REACTORS
330
173
102
}
330
173
100
AcDbXrecord
280
     1
102
RTVSPost2010Prop28
280
     0
102
RTVSPost2010PropOp28
 70
     1
102
RTVSPost2010Prop29
280
     1
102
RTVSPost2010PropOp29
 70
     1
102
RTVSPost2010Prop30
280
     1
102
RTVSPost2010PropOp30
 70
     1
102
RTVSPost2010Prop31
280
     0
102
RTVSPost2010PropOp31
 70
     1
102
RTVSPost2010Prop32
280
     0
102
RTVSPost2010PropOp32
 70
     1
102
RTVSPost2010Prop33
280
     0
102
RTVSPost2010PropOp33
 70
     1
102
RTVSPost2010Prop34
280
     0
102
RTVSPost2010PropOp34
 70
     1
102
RTVSPost2010Prop35
280
     0
102
RTVSPost2010PropOp35
 70
     1
102
RTVSPost2010Prop36
280
     0
102
RTVSPost2010PropOp36
 70
     1
102
RTVSPost2010Prop37
 90
       50
102
RTVSPost2010PropOp37
 70
     1
102
RTVSPost2010Prop38
140
0.0
102
RTVSPost2010PropOp38
 70
     1
102
RTVSPost2010Prop39
140
1.0
102
RTVSPost2010PropOp39
 70
     1
102
RTVSPost2010Prop40
 90
        0
102
RTVSPost2010PropOp40
 70
     1
102
RTVSPost2010Prop41ColorIndex
 90
       18
102
RTVSPost2010Prop41ColorRGB
 90
        0
102
RTVSPost2010PropOp41
 70
     1
102
RTVSPost2010Prop42
 90
       50
102
RTVSPost2010PropOp42
 70
     1
102
RTVSPost2010Prop43
 90
        3
102
RTVSPost2010PropOp43
 70
     1
102
RTVSPost2010Prop44ColorIndex
 90
        5
102
RTVSPost2010Prop44ColorRGB
 90
      255
102
RTVSPost2010PropOp44
 70
     1
102
RTVSPost2010Prop45
280
     0
102
RTVSPost2010PropOp45
 70
     1
102
RTVSPost2010Prop46
 90
       50
102
RTVSPost2010PropOp46
 70
     1
102
RTVSPost2010Prop47
 90
       50
102
RTVSPost2010PropOp47
 70
     1
102
RTVSPost2010Prop48
 90
       50
102
RTVSPost2010PropOp48
 70
     1
102
RTVSPost2010Prop49
280
     0
102
RTVSPost2010PropOp49
 70
     1
102
RTVSPost2010Prop50
 90
       50
102
RTVSPost2010PropOp50
 70
     1
102
RTVSPost2010Prop51ColorIndex
 90
      256
102
RTVSPost2010Prop51ColorRGB
 90
-16777216
102
RTVSPost2010PropOp51
 70
     0
102
RTVSPost2010Prop52
140
1.0
102
RTVSPost2010PropOp52
 70
     0
102
RTVSPost2010Prop53
 90
        2
102
RTVSPost2010PropOp53
 70
     1
102
RTVSPost2010Prop54
  1
strokes_ogs.tif
102
RTVSPost2010PropOp54
 70
     1
102
RTVSPost2010Prop55
280
     0
102
RTVSPost2010PropOp55
 70
     1
102
RTVSPost2010Prop56
140
1.0
102
RTVSPost2010PropOp56
 70
     1
102
RTVSPost2010Prop57
140
1.0
102
RTVSPost2010PropOp57
 70
     1
  0
XRECORD
  5
17C
102
{ACAD_REACTORS
330
17B
102
}
330
17B
100
AcDbXrecord
280
     1
102
RTVSPost2010Prop28
280
     0
102
RTVSPost2010PropOp28
 70
     1
102
RTVSPost2010Prop29
280
     1
102
RTVSPost2010PropOp29
 70
     1
102
RTVSPost2010Prop30
280
     1
102
RTVSPost2010PropOp30
 70
     1
102
RTVSPost2010Prop31
280
     0
102
RTVSPost2010PropOp31
 70
     1
102
RTVSPost2010Prop32
280
     0
102
RTVSPost2010PropOp32
 70
     1
102
RTVSPost2010Prop33
280
     0
102
RTVSPost2010PropOp33
 70
     1
102
RTVSPost2010Prop34
280
     0
102
RTVSPost2010PropOp34
 70
     1
102
RTVSPost2010Prop35
280
     0
102
RTVSPost2010PropOp35
 70
     1
102
RTVSPost2010Prop36
280
     0
102
RTVSPost2010PropOp36
 70
     1
102
RTVSPost2010Prop37
 90
       50
102
RTVSPost2010PropOp37
 70
     1
102
RTVSPost2010Prop38
140
0.0
102
RTVSPost2010PropOp38
 70
     1
102
RTVSPost2010Prop39
140
1.0
102
RTVSPost2010PropOp39
 70
     1
102
RTVSPost2010Prop40
 90
        0
102
RTVSPost2010PropOp40
 70
     1
102
RTVSPost2010Prop41ColorIndex
 90
       18
102
RTVSPost2010Prop41ColorRGB
 90
        0
102
RTVSPost2010PropOp41
 70
     1
102
RTVSPost2010Prop42
 90
       50
102
RTVSPost2010PropOp42
 70
     1
102
RTVSPost2010Prop43
 90
        3
102
RTVSPost2010PropOp43
 70
     1
102
RTVSPost2010Prop44ColorIndex
 90
        5
102
RTVSPost2010Prop44ColorRGB
 90
      255
102
RTVSPost2010PropOp44
 70
     1
102
RTVSPost2010Prop45
280
     0
102
RTVSPost2010PropOp45
 70
     1
102
RTVSPost2010Prop46
 90
       50
102
RTVSPost2010PropOp46
 70
     1
102
RTVSPost2010Prop47
 90
       50
102
RTVSPost2010PropOp47
 70
     1
102
RTVSPost2010Prop48
 90
       50
102
RTVSPost2010PropOp48
 70
     1
102
RTVSPost2010Prop49
280
     0
102
RTVSPost2010PropOp49
 70
     1
102
RTVSPost2010Prop50
 90
       50
102
RTVSPost2010PropOp50
 70
     1
102
RTVSPost2010Prop51ColorIndex
 90
      256
102
RTVSPost2010Prop51ColorRGB
 90
-16777216
102
RTVSPost2010PropOp51
 70
     0
102
RTVSPost2010Prop52
140
1.0
102
RTVSPost2010PropOp52
 70
     0
102
RTVSPost2010Prop53
 90
        2
102
RTVSPost2010PropOp53
 70
     1
102
RTVSPost2010Prop54
  1
strokes_ogs.tif
102
RTVSPost2010PropOp54
 70
     1
102
RTVSPost2010Prop55
280
     0
102
RTVSPost2010PropOp55
 70
     1
102
RTVSPost2010Prop56
140
1.0
102
RTVSPost2010PropOp56
 70
     1
102
RTVSPost2010Prop57
140
1.0
102
RTVSPost2010PropOp57
 70
     1
  0
XRECORD
  5
16E
102
{ACAD_REACTORS
330
16D
102
}
330
16D
100
AcDbXrecord
280
     1
102
RTVSPost2010Prop28
280
     0
102
RTVSPost2010PropOp28
 70
     1
102
RTVSPost2010Prop29
280
     1
102
RTVSPost2010PropOp29
 70
     1
102
RTVSPost2010Prop30
280
     1
102
RTVSPost2010PropOp30
 70
     1
102
RTVSPost2010Prop31
280
     0
102
RTVSPost2010PropOp31
 70
     1
102
RTVSPost2010Prop32
280
     0
102
RTVSPost2010PropOp32
 70
     1
102
RTVSPost2010Prop33
280
     0
102
RTVSPost2010PropOp33
 70
     1
102
RTVSPost2010Prop34
280
     0
102
RTVSPost2010PropOp34
 70
     1
102
RTVSPost2010Prop35
280
     0
102
RTVSPost2010PropOp35
 70
     1
102
RTVSPost2010Prop36
280
     0
102
RTVSPost2010PropOp36
 70
     1
102
RTVSPost2010Prop37
 90
       50
102
RTVSPost2010PropOp37
 70
     1
102
RTVSPost2010Prop38
140
0.0
102
RTVSPost2010PropOp38
 70
     1
102
RTVSPost2010Prop39
140
1.0
102
RTVSPost2010PropOp39
 70
     1
102
RTVSPost2010Prop40
 90
        0
102
RTVSPost2010PropOp40
 70
     1
102
RTVSPost2010Prop41ColorIndex
 90
       18
102
RTVSPost2010Prop41ColorRGB
 90
        0
102
RTVSPost2010PropOp41
 70
     1
102
RTVSPost2010Prop42
 90
       50
102
RTVSPost2010PropOp42
 70
     1
102
RTVSPost2010Prop43
 90
        3
102
RTVSPost2010PropOp43
 70
     1
102
RTVSPost2010Prop44ColorIndex
 90
        5
102
RTVSPost2010Prop44ColorRGB
 90
      255
102
RTVSPost2010PropOp44
 70
     1
102
RTVSPost2010Prop45
280
     0
102
RTVSPost2010PropOp45
 70
     1
102
RTVSPost2010Prop46
 90
       50
102
RTVSPost2010PropOp46
 70
     1
102
RTVSPost2010Prop47
 90
       50
102
RTVSPost2010PropOp47
 70
     1
102
RTVSPost2010Prop48
 90
       50
102
RTVSPost2010PropOp48
 70
     1
102
RTVSPost2010Prop49
280
     0
102
RTVSPost2010PropOp49
 70
     1
102
RTVSPost2010Prop50
 90
       50
102
RTVSPost2010PropOp50
 70
     1
102
RTVSPost2010Prop51ColorIndex
 90
      256
102
RTVSPost2010Prop51ColorRGB
 90
-16777216
102
RTVSPost2010PropOp51
 70
     0
102
RTVSPost2010Prop52
140
1.0
102
RTVSPost2010PropOp52
 70
     0
102
RTVSPost2010Prop53
 90
        2
102
RTVSPost2010PropOp53
 70
     1
102
RTVSPost2010Prop54
  1
strokes_ogs.tif
102
RTVSPost2010PropOp54
 70
     1
102
RTVSPost2010Prop55
280
     0
102
RTVSPost2010PropOp55
 70
     1
102
RTVSPost2010Prop56
140
1.0
102
RTVSPost2010PropOp56
 70
     1
102
RTVSPost2010Prop57
140
1.0
102
RTVSPost2010PropOp57
 70
     1
  0
XRECORD
  5
172
102
{ACAD_REACTORS
330
171
102
}
330
171
100
AcDbXrecord
280
     1
102
RTVSPost2010Prop28
280
     0
102
RTVSPost2010PropOp28
 70
     1
102
RTVSPost2010Prop29
280
     1
102
RTVSPost2010PropOp29
 70
     1
102
RTVSPost2010Prop30
280
     1
102
RTVSPost2010PropOp30
 70
     1
102
RTVSPost2010Prop31
280
     0
102
RTVSPost2010PropOp31
 70
     1
102
RTVSPost2010Prop32
280
     0
102
RTVSPost2010PropOp32
 70
     1
102
RTVSPost2010Prop33
280
     0
102
RTVSPost2010PropOp33
 70
     1
102
RTVSPost2010Prop34
280
     0
102
RTVSPost2010PropOp34
 70
     1
102
RTVSPost2010Prop35
280
     0
102
RTVSPost2010PropOp35
 70
     1
102
RTVSPost2010Prop36
280
     0
102
RTVSPost2010PropOp36
 70
     1
102
RTVSPost2010Prop37
 90
       50
102
RTVSPost2010PropOp37
 70
     1
102
RTVSPost2010Prop38
140
0.0
102
RTVSPost2010PropOp38
 70
     1
102
RTVSPost2010Prop39
140
1.0
102
RTVSPost2010PropOp39
 70
     1
102
RTVSPost2010Prop40
 90
        0
102
RTVSPost2010PropOp40
 70
     1
102
RTVSPost2010Prop41ColorIndex
 90
       18
102
RTVSPost2010Prop41ColorRGB
 90
        0
102
RTVSPost2010PropOp41
 70
     1
102
RTVSPost2010Prop42
 90
       50
102
RTVSPost2010PropOp42
 70
     1
102
RTVSPost2010Prop43
 90
        3
102
RTVSPost2010PropOp43
 70
     1
102
RTVSPost2010Prop44ColorIndex
 90
        5
102
RTVSPost2010Prop44ColorRGB
 90
      255
102
RTVSPost2010PropOp44
 70
     1
102
RTVSPost2010Prop45
280
     0
102
RTVSPost2010PropOp45
 70
     1
102
RTVSPost2010Prop46
 90
       50
102
RTVSPost2010PropOp46
 70
     1
102
RTVSPost2010Prop47
 90
       50
102
RTVSPost2010PropOp47
 70
     1
102
RTVSPost2010Prop48
 90
       50
102
RTVSPost2010PropOp48
 70
     1
102
RTVSPost2010Prop49
280
     0
102
RTVSPost2010PropOp49
 70
     1
102
RTVSPost2010Prop50
 90
       50
102
RTVSPost2010PropOp50
 70
     1
102
RTVSPost2010Prop51ColorIndex
 90
      256
102
RTVSPost2010Prop51ColorRGB
 90
-16777216
102
RTVSPost2010PropOp51
 70
     0
102
RTVSPost2010Prop52
140
1.0
102
RTVSPost2010PropOp52
 70
     0
102
RTVSPost2010Prop53
 90
        2
102
RTVSPost2010PropOp53
 70
     1
102
RTVSPost2010Prop54
  1
strokes_ogs.tif
102
RTVSPost2010PropOp54
 70
     1
102
RTVSPost2010Prop55
280
     0
102
RTVSPost2010PropOp55
 70
     1
102
RTVSPost2010Prop56
140
1.0
102
RTVSPost2010PropOp56
 70
     1
102
RTVSPost2010Prop57
140
1.0
102
RTVSPost2010PropOp57
 70
     1
  0
XRECORD
  5
18C
102
{ACAD_REACTORS
330
18B
102
}
330
18B
100
AcDbXrecord
280
     1
102
RTVSPost2010Prop28
280
     0
102
RTVSPost2010PropOp28
 70
     0
102
RTVSPost2010Prop29
280
     1
102
RTVSPost2010PropOp29
 70
     0
102
RTVSPost2010Prop30
280
     1
102
RTVSPost2010PropOp30
 70
     0
102
RTVSPost2010Prop31
280
     0
102
RTVSPost2010PropOp31
 70
     0
102
RTVSPost2010Prop32
280
     0
102
RTVSPost2010PropOp32
 70
     0
102
RTVSPost2010Prop33
280
     0
102
RTVSPost2010PropOp33
 70
     0
102
RTVSPost2010Prop34
280
     0
102
RTVSPost2010PropOp34
 70
     0
102
RTVSPost2010Prop35
280
     0
102
RTVSPost2010PropOp35
 70
     0
102
RTVSPost2010Prop36
280
     0
102
RTVSPost2010PropOp36
 70
     0
102
RTVSPost2010Prop37
 90
       50
102
RTVSPost2010PropOp37
 70
     0
102
RTVSPost2010Prop38
140
0.0
102
RTVSPost2010PropOp38
 70
     0
102
RTVSPost2010Prop39
140
1.0
102
RTVSPost2010PropOp39
 70
     0
102
RTVSPost2010Prop40
 90
        0
102
RTVSPost2010PropOp40
 70
     0
102
RTVSPost2010Prop41ColorIndex
 90
       18
102
RTVSPost2010Prop41ColorRGB
 90
        0
102
RTVSPost2010PropOp41
 70
     0
102
RTVSPost2010Prop42
 90
       50
102
RTVSPost2010PropOp42
 70
     0
102
RTVSPost2010Prop43
 90
        3
102
RTVSPost2010PropOp43
 70
     0
102
RTVSPost2010Prop44ColorIndex
 90
        5
102
RTVSPost2010Prop44ColorRGB
 90
      255
102
RTVSPost2010PropOp44
 70
     0
102
RTVSPost2010Prop45
280
     0
102
RTVSPost2010PropOp45
 70
     0
102
RTVSPost2010Prop46
 90
       50
102
RTVSPost2010PropOp46
 70
     0
102
RTVSPost2010Prop47
 90
       50
102
RTVSPost2010PropOp47
 70
     0
102
RTVSPost2010Prop48
 90
       50
102
RTVSPost2010PropOp48
 70
     0
102
RTVSPost2010Prop49
280
     0
102
RTVSPost2010PropOp49
 70
     0
102
RTVSPost2010Prop50
 90
       50
102
RTVSPost2010PropOp50
 70
     0
102
RTVSPost2010Prop51ColorIndex
 90
      256
102
RTVSPost2010Prop51ColorRGB
 90
-16777216
102
RTVSPost2010PropOp51
 70
     0
102
RTVSPost2010Prop52
140
1.0
102
RTVSPost2010PropOp52
 70
     0
102
RTVSPost2010Prop53
 90
        2
102
RTVSPost2010PropOp53
 70
     0
102
RTVSPost2010Prop54
  1
strokes_ogs.tif
102
RTVSPost2010PropOp54
 70
     0
102
RTVSPost2010Prop55
280
     0
102
RTVSPost2010PropOp55
 70
     0
102
RTVSPost2010Prop56
140
1.0
102
RTVSPost2010PropOp56
 70
     0
102
RTVSPost2010Prop57
140
1.0
102
RTVSPost2010PropOp57
 70
     0
  0
XRECORD
  5
17A
102
{ACAD_REACTORS
330
179
102
}
330
179
100
AcDbXrecord
280
     1
102
RTVSPost2010Prop28
280
     0
102
RTVSPost2010PropOp28
 70
     1
102
RTVSPost2010Prop29
280
     1
102
RTVSPost2010PropOp29
 70
     1
102
RTVSPost2010Prop30
280
     1
102
RTVSPost2010PropOp30
 70
     1
102
RTVSPost2010Prop31
280
     0
102
RTVSPost2010PropOp31
 70
     1
102
RTVSPost2010Prop32
280
     0
102
RTVSPost2010PropOp32
 70
     1
102
RTVSPost2010Prop33
280
     0
102
RTVSPost2010PropOp33
 70
     1
102
RTVSPost2010Prop34
280
     0
102
RTVSPost2010PropOp34
 70
     1
102
RTVSPost2010Prop35
280
     0
102
RTVSPost2010PropOp35
 70
     1
102
RTVSPost2010Prop36
280
     0
102
RTVSPost2010PropOp36
 70
     1
102
RTVSPost2010Prop37
 90
       50
102
RTVSPost2010PropOp37
 70
     1
102
RTVSPost2010Prop38
140
0.0
102
RTVSPost2010PropOp38
 70
     1
102
RTVSPost2010Prop39
140
1.0
102
RTVSPost2010PropOp39
 70
     1
102
RTVSPost2010Prop40
 90
        0
102
RTVSPost2010PropOp40
 70
     1
102
RTVSPost2010Prop41ColorIndex
 90
       18
102
RTVSPost2010Prop41ColorRGB
 90
        0
102
RTVSPost2010PropOp41
 70
     1
102
RTVSPost2010Prop42
 90
       50
102
RTVSPost2010PropOp42
 70
     1
102
RTVSPost2010Prop43
 90
        3
102
RTVSPost2010PropOp43
 70
     1
102
RTVSPost2010Prop44ColorIndex
 90
        5
102
RTVSPost2010Prop44ColorRGB
 90
      255
102
RTVSPost2010PropOp44
 70
     1
102
RTVSPost2010Prop45
280
     0
102
RTVSPost2010PropOp45
 70
     1
102
RTVSPost2010Prop46
 90
       50
102
RTVSPost2010PropOp46
 70
     1
102
RTVSPost2010Prop47
 90
       50
102
RTVSPost2010PropOp47
 70
     1
102
RTVSPost2010Prop48
 90
       50
102
RTVSPost2010PropOp48
 70
     1
102
RTVSPost2010Prop49
280
     0
102
RTVSPost2010PropOp49
 70
     1
102
RTVSPost2010Prop50
 90
       50
102
RTVSPost2010PropOp50
 70
     1
102
RTVSPost2010Prop51ColorIndex
 90
      256
102
RTVSPost2010Prop51ColorRGB
 90
-16777216
102
RTVSPost2010PropOp51
 70
     0
102
RTVSPost2010Prop52
140
1.0
102
RTVSPost2010PropOp52
 70
     0
102
RTVSPost2010Prop53
 90
        2
102
RTVSPost2010PropOp53
 70
     1
102
RTVSPost2010Prop54
  1
strokes_ogs.tif
102
RTVSPost2010PropOp54
 70
     1
102
RTVSPost2010Prop55
280
     0
102
RTVSPost2010PropOp55
 70
     1
102
RTVSPost2010Prop56
140
1.0
102
RTVSPost2010PropOp56
 70
     1
102
RTVSPost2010Prop57
140
1.0
102
RTVSPost2010PropOp57
 70
     1
  0
XRECORD
  5
15E
102
{ACAD_REACTORS
330
15D
102
}
330
15D
100
AcDbXrecord
280
     1
102
RTVSPost2010Prop28
280
     0
102
RTVSPost2010PropOp28
 70
     1
102
RTVSPost2010Prop29
280
     1
102
RTVSPost2010PropOp29
 70
     1
102
RTVSPost2010Prop30
280
     1
102
RTVSPost2010PropOp30
 70
     1
102
RTVSPost2010Prop31
280
     0
102
RTVSPost2010PropOp31
 70
     1
102
RTVSPost2010Prop32
280
     0
102
RTVSPost2010PropOp32
 70
     1
102
RTVSPost2010Prop33
280
     0
102
RTVSPost2010PropOp33
 70
     1
102
RTVSPost2010Prop34
280
     0
102
RTVSPost2010PropOp34
 70
     1
102
RTVSPost2010Prop35
280
     0
102
RTVSPost2010PropOp35
 70
     1
102
RTVSPost2010Prop36
280
     0
102
RTVSPost2010PropOp36
 70
     1
102
RTVSPost2010Prop37
 90
       50
102
RTVSPost2010PropOp37
 70
     1
102
RTVSPost2010Prop38
140
0.0
102
RTVSPost2010PropOp38
 70
     1
102
RTVSPost2010Prop39
140
1.0
102
RTVSPost2010PropOp39
 70
     1
102
RTVSPost2010Prop40
 90
        0
102
RTVSPost2010PropOp40
 70
     1
102
RTVSPost2010Prop41ColorIndex
 90
       18
102
RTVSPost2010Prop41ColorRGB
 90
        0
102
RTVSPost2010PropOp41
 70
     1
102
RTVSPost2010Prop42
 90
       50
102
RTVSPost2010PropOp42
 70
     1
102
RTVSPost2010Prop43
 90
        3
102
RTVSPost2010PropOp43
 70
     1
102
RTVSPost2010Prop44ColorIndex
 90
        5
102
RTVSPost2010Prop44ColorRGB
 90
      255
102
RTVSPost2010PropOp44
 70
     1
102
RTVSPost2010Prop45
280
     0
102
RTVSPost2010PropOp45
 70
     1
102
RTVSPost2010Prop46
 90
       50
102
RTVSPost2010PropOp46
 70
     1
102
RTVSPost2010Prop47
 90
       50
102
RTVSPost2010PropOp47
 70
     1
102
RTVSPost2010Prop48
 90
       50
102
RTVSPost2010PropOp48
 70
     1
102
RTVSPost2010Prop49
280
     0
102
RTVSPost2010PropOp49
 70
     1
102
RTVSPost2010Prop50
 90
       50
102
RTVSPost2010PropOp50
 70
     1
102
RTVSPost2010Prop51ColorIndex
 90
      256
102
RTVSPost2010Prop51ColorRGB
 90
-16777216
102
RTVSPost2010PropOp51
 70
     0
102
RTVSPost2010Prop52
140
1.0
102
RTVSPost2010PropOp52
 70
     0
102
RTVSPost2010Prop53
 90
        2
102
RTVSPost2010PropOp53
 70
     1
102
RTVSPost2010Prop54
  1
strokes_ogs.tif
102
RTVSPost2010PropOp54
 70
     1
102
RTVSPost2010Prop55
280
     0
102
RTVSPost2010PropOp55
 70
     1
102
RTVSPost2010Prop56
140
1.0
102
RTVSPost2010PropOp56
 70
     1
102
RTVSPost2010Prop57
140
1.0
102
RTVSPost2010PropOp57
 70
     1
  0
XRECORD
  5
160
102
{ACAD_REACTORS
330
15F
102
}
330
15F
100
AcDbXrecord
280
     1
102
RTVSPost2010Prop28
280
     0
102
RTVSPost2010PropOp28
 70
     1
102
RTVSPost2010Prop29
280
     1
102
RTVSPost2010PropOp29
 70
     1
102
RTVSPost2010Prop30
280
     1
102
RTVSPost2010PropOp30
 70
     1
102
RTVSPost2010Prop31
280
     0
102
RTVSPost2010PropOp31
 70
     1
102
RTVSPost2010Prop32
280
     0
102
RTVSPost2010PropOp32
 70
     1
102
RTVSPost2010Prop33
280
     0
102
RTVSPost2010PropOp33
 70
     1
102
RTVSPost2010Prop34
280
     0
102
RTVSPost2010PropOp34
 70
     1
102
RTVSPost2010Prop35
280
     0
102
RTVSPost2010PropOp35
 70
     1
102
RTVSPost2010Prop36
280
     0
102
RTVSPost2010PropOp36
 70
     1
102
RTVSPost2010Prop37
 90
       50
102
RTVSPost2010PropOp37
 70
     1
102
RTVSPost2010Prop38
140
0.0
102
RTVSPost2010PropOp38
 70
     1
102
RTVSPost2010Prop39
140
1.0
102
RTVSPost2010PropOp39
 70
     1
102
RTVSPost2010Prop40
 90
        0
102
RTVSPost2010PropOp40
 70
     1
102
RTVSPost2010Prop41ColorIndex
 90
       18
102
RTVSPost2010Prop41ColorRGB
 90
        0
102
RTVSPost2010PropOp41
 70
     1
102
RTVSPost2010Prop42
 90
       50
102
RTVSPost2010PropOp42
 70
     1
102
RTVSPost2010Prop43
 90
        3
102
RTVSPost2010PropOp43
 70
     1
102
RTVSPost2010Prop44ColorIndex
 90
        5
102
RTVSPost2010Prop44ColorRGB
 90
      255
102
RTVSPost2010PropOp44
 70
     1
102
RTVSPost2010Prop45
280
     0
102
RTVSPost2010PropOp45
 70
     1
102
RTVSPost2010Prop46
 90
       50
102
RTVSPost2010PropOp46
 70
     1
102
RTVSPost2010Prop47
 90
       50
102
RTVSPost2010PropOp47
 70
     1
102
RTVSPost2010Prop48
 90
       50
102
RTVSPost2010PropOp48
 70
     1
102
RTVSPost2010Prop49
280
     0
102
RTVSPost2010PropOp49
 70
     1
102
RTVSPost2010Prop50
 90
       50
102
RTVSPost2010PropOp50
 70
     1
102
RTVSPost2010Prop51ColorIndex
 90
      256
102
RTVSPost2010Prop51ColorRGB
 90
-16777216
102
RTVSPost2010PropOp51
 70
     0
102
RTVSPost2010Prop52
140
1.0
102
RTVSPost2010PropOp52
 70
     0
102
RTVSPost2010Prop53
 90
        2
102
RTVSPost2010PropOp53
 70
     1
102
RTVSPost2010Prop54
  1
strokes_ogs.tif
102
RTVSPost2010PropOp54
 70
     1
102
RTVSPost2010Prop55
280
     0
102
RTVSPost2010PropOp55
 70
     1
102
RTVSPost2010Prop56
140
1.0
102
RTVSPost2010PropOp56
 70
     1
102
RTVSPost2010Prop57
140
1.0
102
RTVSPost2010PropOp57
 70
     1
  0
XRECORD
  5
162
102
{ACAD_REACTORS
330
161
102
}
330
161
100
AcDbXrecord
280
     1
102
RTVSPost2010Prop28
280
     0
102
RTVSPost2010PropOp28
 70
     1
102
RTVSPost2010Prop29
280
     1
102
RTVSPost2010PropOp29
 70
     1
102
RTVSPost2010Prop30
280
     1
102
RTVSPost2010PropOp30
 70
     1
102
RTVSPost2010Prop31
280
     0
102
RTVSPost2010PropOp31
 70
     1
102
RTVSPost2010Prop32
280
     0
102
RTVSPost2010PropOp32
 70
     1
102
RTVSPost2010Prop33
280
     0
102
RTVSPost2010PropOp33
 70
     1
102
RTVSPost2010Prop34
280
     0
102
RTVSPost2010PropOp34
 70
     1
102
RTVSPost2010Prop35
280
     0
102
RTVSPost2010PropOp35
 70
     1
102
RTVSPost2010Prop36
280
     0
102
RTVSPost2010PropOp36
 70
     1
102
RTVSPost2010Prop37
 90
       50
102
RTVSPost2010PropOp37
 70
     1
102
RTVSPost2010Prop38
140
0.0
102
RTVSPost2010PropOp38
 70
     1
102
RTVSPost2010Prop39
140
1.0
102
RTVSPost2010PropOp39
 70
     1
102
RTVSPost2010Prop40
 90
        0
102
RTVSPost2010PropOp40
 70
     1
102
RTVSPost2010Prop41ColorIndex
 90
       18
102
RTVSPost2010Prop41ColorRGB
 90
        0
102
RTVSPost2010PropOp41
 70
     1
102
RTVSPost2010Prop42
 90
       50
102
RTVSPost2010PropOp42
 70
     1
102
RTVSPost2010Prop43
 90
        3
102
RTVSPost2010PropOp43
 70
     1
102
RTVSPost2010Prop44ColorIndex
 90
        5
102
RTVSPost2010Prop44ColorRGB
 90
      255
102
RTVSPost2010PropOp44
 70
     1
102
RTVSPost2010Prop45
280
     0
102
RTVSPost2010PropOp45
 70
     1
102
RTVSPost2010Prop46
 90
       50
102
RTVSPost2010PropOp46
 70
     1
102
RTVSPost2010Prop47
 90
       50
102
RTVSPost2010PropOp47
 70
     1
102
RTVSPost2010Prop48
 90
       50
102
RTVSPost2010PropOp48
 70
     1
102
RTVSPost2010Prop49
280
     0
102
RTVSPost2010PropOp49
 70
     1
102
RTVSPost2010Prop50
 90
       50
102
RTVSPost2010PropOp50
 70
     1
102
RTVSPost2010Prop51ColorIndex
 90
      256
102
RTVSPost2010Prop51ColorRGB
 90
-16777216
102
RTVSPost2010PropOp51
 70
     0
102
RTVSPost2010Prop52
140
1.0
102
RTVSPost2010PropOp52
 70
     0
102
RTVSPost2010Prop53
 90
        2
102
RTVSPost2010PropOp53
 70
     1
102
RTVSPost2010Prop54
  1
strokes_ogs.tif
102
RTVSPost2010PropOp54
 70
     1
102
RTVSPost2010Prop55
280
     0
102
RTVSPost2010PropOp55
 70
     1
102
RTVSPost2010Prop56
140
1.0
102
RTVSPost2010PropOp56
 70
     1
102
RTVSPost2010Prop57
140
1.0
102
RTVSPost2010PropOp57
 70
     1
  0
XRECORD
  5
164
102
{ACAD_REACTORS
330
163
102
}
330
163
100
AcDbXrecord
280
     1
102
RTVSPost2010Prop28
280
     0
102
RTVSPost2010PropOp28
 70
     1
102
RTVSPost2010Prop29
280
     1
102
RTVSPost2010PropOp29
 70
     1
102
RTVSPost2010Prop30
280
     1
102
RTVSPost2010PropOp30
 70
     1
102
RTVSPost2010Prop31
280
     0
102
RTVSPost2010PropOp31
 70
     1
102
RTVSPost2010Prop32
280
     0
102
RTVSPost2010PropOp32
 70
     1
102
RTVSPost2010Prop33
280
     0
102
RTVSPost2010PropOp33
 70
     1
102
RTVSPost2010Prop34
280
     0
102
RTVSPost2010PropOp34
 70
     1
102
RTVSPost2010Prop35
280
     0
102
RTVSPost2010PropOp35
 70
     1
102
RTVSPost2010Prop36
280
     0
102
RTVSPost2010PropOp36
 70
     1
102
RTVSPost2010Prop37
 90
       50
102
RTVSPost2010PropOp37
 70
     1
102
RTVSPost2010Prop38
140
0.0
102
RTVSPost2010PropOp38
 70
     1
102
RTVSPost2010Prop39
140
1.0
102
RTVSPost2010PropOp39
 70
     1
102
RTVSPost2010Prop40
 90
        0
102
RTVSPost2010PropOp40
 70
     1
102
RTVSPost2010Prop41ColorIndex
 90
       18
102
RTVSPost2010Prop41ColorRGB
 90
        0
102
RTVSPost2010PropOp41
 70
     1
102
RTVSPost2010Prop42
 90
       50
102
RTVSPost2010PropOp42
 70
     1
102
RTVSPost2010Prop43
 90
        3
102
RTVSPost2010PropOp43
 70
     1
102
RTVSPost2010Prop44ColorIndex
 90
        5
102
RTVSPost2010Prop44ColorRGB
 90
      255
102
RTVSPost2010PropOp44
 70
     1
102
RTVSPost2010Prop45
280
     0
102
RTVSPost2010PropOp45
 70
     1
102
RTVSPost2010Prop46
 90
       50
102
RTVSPost2010PropOp46
 70
     1
102
RTVSPost2010Prop47
 90
       50
102
RTVSPost2010PropOp47
 70
     1
102
RTVSPost2010Prop48
 90
       50
102
RTVSPost2010PropOp48
 70
     1
102
RTVSPost2010Prop49
280
     0
102
RTVSPost2010PropOp49
 70
     1
102
RTVSPost2010Prop50
 90
       50
102
RTVSPost2010PropOp50
 70
     1
102
RTVSPost2010Prop51ColorIndex
 90
      256
102
RTVSPost2010Prop51ColorRGB
 90
-16777216
102
RTVSPost2010PropOp51
 70
     0
102
RTVSPost2010Prop52
140
1.0
102
RTVSPost2010PropOp52
 70
     0
102
RTVSPost2010Prop53
 90
        2
102
RTVSPost2010PropOp53
 70
     1
102
RTVSPost2010Prop54
  1
strokes_ogs.tif
102
RTVSPost2010PropOp54
 70
     1
102
RTVSPost2010Prop55
280
     0
102
RTVSPost2010PropOp55
 70
     1
102
RTVSPost2010Prop56
140
1.0
102
RTVSPost2010PropOp56
 70
     1
102
RTVSPost2010Prop57
140
1.0
102
RTVSPost2010PropOp57
 70
     1
  0
XRECORD
  5
16C
102
{ACAD_REACTORS
330
16B
102
}
330
16B
100
AcDbXrecord
280
     1
102
RTVSPost2010Prop28
280
     0
102
RTVSPost2010PropOp28
 70
     1
102
RTVSPost2010Prop29
280
     1
102
RTVSPost2010PropOp29
 70
     1
102
RTVSPost2010Prop30
280
     1
102
RTVSPost2010PropOp30
 70
     1
102
RTVSPost2010Prop31
280
     0
102
RTVSPost2010PropOp31
 70
     1
102
RTVSPost2010Prop32
280
     0
102
RTVSPost2010PropOp32
 70
     1
102
RTVSPost2010Prop33
280
     0
102
RTVSPost2010PropOp33
 70
     1
102
RTVSPost2010Prop34
280
     0
102
RTVSPost2010PropOp34
 70
     1
102
RTVSPost2010Prop35
280
     0
102
RTVSPost2010PropOp35
 70
     1
102
RTVSPost2010Prop36
280
     0
102
RTVSPost2010PropOp36
 70
     1
102
RTVSPost2010Prop37
 90
       50
102
RTVSPost2010PropOp37
 70
     1
102
RTVSPost2010Prop38
140
0.0
102
RTVSPost2010PropOp38
 70
     1
102
RTVSPost2010Prop39
140
1.0
102
RTVSPost2010PropOp39
 70
     1
102
RTVSPost2010Prop40
 90
        0
102
RTVSPost2010PropOp40
 70
     1
102
RTVSPost2010Prop41ColorIndex
 90
       18
102
RTVSPost2010Prop41ColorRGB
 90
        0
102
RTVSPost2010PropOp41
 70
     1
102
RTVSPost2010Prop42
 90
       50
102
RTVSPost2010PropOp42
 70
     1
102
RTVSPost2010Prop43
 90
        3
102
RTVSPost2010PropOp43
 70
     1
102
RTVSPost2010Prop44ColorIndex
 90
        5
102
RTVSPost2010Prop44ColorRGB
 90
      255
102
RTVSPost2010PropOp44
 70
     1
102
RTVSPost2010Prop45
280
     0
102
RTVSPost2010PropOp45
 70
     1
102
RTVSPost2010Prop46
 90
       50
102
RTVSPost2010PropOp46
 70
     1
102
RTVSPost2010Prop47
 90
       50
102
RTVSPost2010PropOp47
 70
     1
102
RTVSPost2010Prop48
 90
       50
102
RTVSPost2010PropOp48
 70
     1
102
RTVSPost2010Prop49
280
     0
102
RTVSPost2010PropOp49
 70
     1
102
RTVSPost2010Prop50
 90
       50
102
RTVSPost2010PropOp50
 70
     1
102
RTVSPost2010Prop51ColorIndex
 90
      256
102
RTVSPost2010Prop51ColorRGB
 90
-16777216
102
RTVSPost2010PropOp51
 70
     0
102
RTVSPost2010Prop52
140
1.0
102
RTVSPost2010PropOp52
 70
     0
102
RTVSPost2010Prop53
 90
        2
102
RTVSPost2010PropOp53
 70
     1
102
RTVSPost2010Prop54
  1
strokes_ogs.tif
102
RTVSPost2010PropOp54
 70
     1
102
RTVSPost2010Prop55
280
     0
102
RTVSPost2010PropOp55
 70
     1
102
RTVSPost2010Prop56
140
1.0
102
RTVSPost2010PropOp56
 70
     1
102
RTVSPost2010Prop57
140
1.0
102
RTVSPost2010PropOp57
 70
     1
  0
XRECORD
  5
188
102
{ACAD_REACTORS
330
187
102
}
330
187
100
AcDbXrecord
280
     1
102
RTVSPost2010Prop28
280
     0
102
RTVSPost2010PropOp28
 70
     0
102
RTVSPost2010Prop29
280
     1
102
RTVSPost2010PropOp29
 70
     0
102
RTVSPost2010Prop30
280
     1
102
RTVSPost2010PropOp30
 70
     0
102
RTVSPost2010Prop31
280
     0
102
RTVSPost2010PropOp31
 70
     0
102
RTVSPost2010Prop32
280
     0
102
RTVSPost2010PropOp32
 70
     0
102
RTVSPost2010Prop33
280
     0
102
RTVSPost2010PropOp33
 70
     0
102
RTVSPost2010Prop34
280
     0
102
RTVSPost2010PropOp34
 70
     0
102
RTVSPost2010Prop35
280
     0
102
RTVSPost2010PropOp35
 70
     0
102
RTVSPost2010Prop36
280
     0
102
RTVSPost2010PropOp36
 70
     0
102
RTVSPost2010Prop37
 90
       50
102
RTVSPost2010PropOp37
 70
     0
102
RTVSPost2010Prop38
140
0.0
102
RTVSPost2010PropOp38
 70
     0
102
RTVSPost2010Prop39
140
1.0
102
RTVSPost2010PropOp39
 70
     0
102
RTVSPost2010Prop40
 90
        0
102
RTVSPost2010PropOp40
 70
     0
102
RTVSPost2010Prop41ColorIndex
 90
       18
102
RTVSPost2010Prop41ColorRGB
 90
        0
102
RTVSPost2010PropOp41
 70
     0
102
RTVSPost2010Prop42
 90
       50
102
RTVSPost2010PropOp42
 70
     0
102
RTVSPost2010Prop43
 90
        3
102
RTVSPost2010PropOp43
 70
     0
102
RTVSPost2010Prop44ColorIndex
 90
        5
102
RTVSPost2010Prop44ColorRGB
 90
      255
102
RTVSPost2010PropOp44
 70
     0
102
RTVSPost2010Prop45
280
     0
102
RTVSPost2010PropOp45
 70
     0
102
RTVSPost2010Prop46
 90
       50
102
RTVSPost2010PropOp46
 70
     0
102
RTVSPost2010Prop47
 90
       50
102
RTVSPost2010PropOp47
 70
     0
102
RTVSPost2010Prop48
 90
       50
102
RTVSPost2010PropOp48
 70
     0
102
RTVSPost2010Prop49
280
     0
102
RTVSPost2010PropOp49
 70
     0
102
RTVSPost2010Prop50
 90
       50
102
RTVSPost2010PropOp50
 70
     0
102
RTVSPost2010Prop51ColorIndex
 90
      256
102
RTVSPost2010Prop51ColorRGB
 90
-16777216
102
RTVSPost2010PropOp51
 70
     0
102
RTVSPost2010Prop52
140
1.0
102
RTVSPost2010PropOp52
 70
     0
102
RTVSPost2010Prop53
 90
        2
102
RTVSPost2010PropOp53
 70
     0
102
RTVSPost2010Prop54
  1
strokes_ogs.tif
102
RTVSPost2010PropOp54
 70
     0
102
RTVSPost2010Prop55
280
     0
102
RTVSPost2010PropOp55
 70
     0
102
RTVSPost2010Prop56
140
1.0
102
RTVSPost2010PropOp56
 70
     0
102
RTVSPost2010Prop57
140
1.0
102
RTVSPost2010PropOp57
 70
     0
  0
XRECORD
  5
178
102
{ACAD_REACTORS
330
177
102
}
330
177
100
AcDbXrecord
280
     1
102
RTVSPost2010Prop28
280
     0
102
RTVSPost2010PropOp28
 70
     1
102
RTVSPost2010Prop29
280
     1
102
RTVSPost2010PropOp29
 70
     1
102
RTVSPost2010Prop30
280
     1
102
RTVSPost2010PropOp30
 70
     1
102
RTVSPost2010Prop31
280
     0
102
RTVSPost2010PropOp31
 70
     1
102
RTVSPost2010Prop32
280
     0
102
RTVSPost2010PropOp32
 70
     1
102
RTVSPost2010Prop33
280
     0
102
RTVSPost2010PropOp33
 70
     1
102
RTVSPost2010Prop34
280
     0
102
RTVSPost2010PropOp34
 70
     1
102
RTVSPost2010Prop35
280
     0
102
RTVSPost2010PropOp35
 70
     1
102
RTVSPost2010Prop36
280
     0
102
RTVSPost2010PropOp36
 70
     1
102
RTVSPost2010Prop37
 90
       50
102
RTVSPost2010PropOp37
 70
     1
102
RTVSPost2010Prop38
140
0.0
102
RTVSPost2010PropOp38
 70
     1
102
RTVSPost2010Prop39
140
1.0
102
RTVSPost2010PropOp39
 70
     1
102
RTVSPost2010Prop40
 90
        0
102
RTVSPost2010PropOp40
 70
     1
102
RTVSPost2010Prop41ColorIndex
 90
       18
102
RTVSPost2010Prop41ColorRGB
 90
        0
102
RTVSPost2010PropOp41
 70
     1
102
RTVSPost2010Prop42
 90
       50
102
RTVSPost2010PropOp42
 70
     1
102
RTVSPost2010Prop43
 90
        3
102
RTVSPost2010PropOp43
 70
     1
102
RTVSPost2010Prop44ColorIndex
 90
        5
102
RTVSPost2010Prop44ColorRGB
 90
      255
102
RTVSPost2010PropOp44
 70
     1
102
RTVSPost2010Prop45
280
     0
102
RTVSPost2010PropOp45
 70
     1
102
RTVSPost2010Prop46
 90
       50
102
RTVSPost2010PropOp46
 70
     1
102
RTVSPost2010Prop47
 90
       50
102
RTVSPost2010PropOp47
 70
     1
102
RTVSPost2010Prop48
 90
       50
102
RTVSPost2010PropOp48
 70
     1
102
RTVSPost2010Prop49
280
     0
102
RTVSPost2010PropOp49
 70
     1
102
RTVSPost2010Prop50
 90
       50
102
RTVSPost2010PropOp50
 70
     1
102
RTVSPost2010Prop51ColorIndex
 90
      256
102
RTVSPost2010Prop51ColorRGB
 90
-16777216
102
RTVSPost2010PropOp51
 70
     0
102
RTVSPost2010Prop52
140
1.0
102
RTVSPost2010PropOp52
 70
     0
102
RTVSPost2010Prop53
 90
        2
102
RTVSPost2010PropOp53
 70
     1
102
RTVSPost2010Prop54
  1
strokes_ogs.tif
102
RTVSPost2010PropOp54
 70
     1
102
RTVSPost2010Prop55
280
     0
102
RTVSPost2010PropOp55
 70
     1
102
RTVSPost2010Prop56
140
1.0
102
RTVSPost2010PropOp56
 70
     1
102
RTVSPost2010Prop57
140
1.0
102
RTVSPost2010PropOp57
 70
     1
  0
XRECORD
  5
18A
102
{ACAD_REACTORS
330
189
102
}
330
189
100
AcDbXrecord
280
     1
102
RTVSPost2010Prop28
280
     0
102
RTVSPost2010PropOp28
 70
     0
102
RTVSPost2010Prop29
280
     1
102
RTVSPost2010PropOp29
 70
     0
102
RTVSPost2010Prop30
280
     1
102
RTVSPost2010PropOp30
 70
     0
102
RTVSPost2010Prop31
280
     0
102
RTVSPost2010PropOp31
 70
     0
102
RTVSPost2010Prop32
280
     0
102
RTVSPost2010PropOp32
 70
     0
102
RTVSPost2010Prop33
280
     0
102
RTVSPost2010PropOp33
 70
     0
102
RTVSPost2010Prop34
280
     0
102
RTVSPost2010PropOp34
 70
     0
102
RTVSPost2010Prop35
280
     0
102
RTVSPost2010PropOp35
 70
     0
102
RTVSPost2010Prop36
280
     0
102
RTVSPost2010PropOp36
 70
     0
102
RTVSPost2010Prop37
 90
       50
102
RTVSPost2010PropOp37
 70
     0
102
RTVSPost2010Prop38
140
0.0
102
RTVSPost2010PropOp38
 70
     0
102
RTVSPost2010Prop39
140
1.0
102
RTVSPost2010PropOp39
 70
     0
102
RTVSPost2010Prop40
 90
        0
102
RTVSPost2010PropOp40
 70
     0
102
RTVSPost2010Prop41ColorIndex
 90
       18
102
RTVSPost2010Prop41ColorRGB
 90
        0
102
RTVSPost2010PropOp41
 70
     0
102
RTVSPost2010Prop42
 90
       50
102
RTVSPost2010PropOp42
 70
     0
102
RTVSPost2010Prop43
 90
        3
102
RTVSPost2010PropOp43
 70
     0
102
RTVSPost2010Prop44ColorIndex
 90
        5
102
RTVSPost2010Prop44ColorRGB
 90
      255
102
RTVSPost2010PropOp44
 70
     0
102
RTVSPost2010Prop45
280
     0
102
RTVSPost2010PropOp45
 70
     0
102
RTVSPost2010Prop46
 90
       50
102
RTVSPost2010PropOp46
 70
     0
102
RTVSPost2010Prop47
 90
       50
102
RTVSPost2010PropOp47
 70
     0
102
RTVSPost2010Prop48
 90
       50
102
RTVSPost2010PropOp48
 70
     0
102
RTVSPost2010Prop49
280
     0
102
RTVSPost2010PropOp49
 70
     0
102
RTVSPost2010Prop50
 90
       50
102
RTVSPost2010PropOp50
 70
     0
102
RTVSPost2010Prop51ColorIndex
 90
      256
102
RTVSPost2010Prop51ColorRGB
 90
-16777216
102
RTVSPost2010PropOp51
 70
     0
102
RTVSPost2010Prop52
140
1.0
102
RTVSPost2010PropOp52
 70
     0
102
RTVSPost2010Prop53
 90
        2
102
RTVSPost2010PropOp53
 70
     0
102
RTVSPost2010Prop54
  1
strokes_ogs.tif
102
RTVSPost2010PropOp54
 70
     0
102
RTVSPost2010Prop55
280
     0
102
RTVSPost2010PropOp55
 70
     0
102
RTVSPost2010Prop56
140
1.0
102
RTVSPost2010PropOp56
 70
     0
102
RTVSPost2010Prop57
140
1.0
102
RTVSPost2010PropOp57
 70
     0
  0
XRECORD
  5
170
102
{ACAD_REACTORS
330
16F
102
}
330
16F
100
AcDbXrecord
280
     1
102
RTVSPost2010Prop28
280
     0
102
RTVSPost2010PropOp28
 70
     1
102
RTVSPost2010Prop29
280
     1
102
RTVSPost2010PropOp29
 70
     1
102
RTVSPost2010Prop30
280
     1
102
RTVSPost2010PropOp30
 70
     1
102
RTVSPost2010Prop31
280
     0
102
RTVSPost2010PropOp31
 70
     1
102
RTVSPost2010Prop32
280
     0
102
RTVSPost2010PropOp32
 70
     1
102
RTVSPost2010Prop33
280
     0
102
RTVSPost2010PropOp33
 70
     1
102
RTVSPost2010Prop34
280
     0
102
RTVSPost2010PropOp34
 70
     1
102
RTVSPost2010Prop35
280
     0
102
RTVSPost2010PropOp35
 70
     1
102
RTVSPost2010Prop36
280
     0
102
RTVSPost2010PropOp36
 70
     1
102
RTVSPost2010Prop37
 90
       50
102
RTVSPost2010PropOp37
 70
     1
102
RTVSPost2010Prop38
140
0.0
102
RTVSPost2010PropOp38
 70
     1
102
RTVSPost2010Prop39
140
1.0
102
RTVSPost2010PropOp39
 70
     1
102
RTVSPost2010Prop40
 90
        0
102
RTVSPost2010PropOp40
 70
     1
102
RTVSPost2010Prop41ColorIndex
 90
       18
102
RTVSPost2010Prop41ColorRGB
 90
        0
102
RTVSPost2010PropOp41
 70
     1
102
RTVSPost2010Prop42
 90
       50
102
RTVSPost2010PropOp42
 70
     1
102
RTVSPost2010Prop43
 90
        3
102
RTVSPost2010PropOp43
 70
     1
102
RTVSPost2010Prop44ColorIndex
 90
        5
102
RTVSPost2010Prop44ColorRGB
 90
      255
102
RTVSPost2010PropOp44
 70
     1
102
RTVSPost2010Prop45
280
     0
102
RTVSPost2010PropOp45
 70
     1
102
RTVSPost2010Prop46
 90
       50
102
RTVSPost2010PropOp46
 70
     1
102
RTVSPost2010Prop47
 90
       50
102
RTVSPost2010PropOp47
 70
     1
102
RTVSPost2010Prop48
 90
       50
102
RTVSPost2010PropOp48
 70
     1
102
RTVSPost2010Prop49
280
     0
102
RTVSPost2010PropOp49
 70
     1
102
RTVSPost2010Prop50
 90
       50
102
RTVSPost2010PropOp50
 70
     1
102
RTVSPost2010Prop51ColorIndex
 90
      256
102
RTVSPost2010Prop51ColorRGB
 90
-16777216
102
RTVSPost2010PropOp51
 70
     0
102
RTVSPost2010Prop52
140
1.0
102
RTVSPost2010PropOp52
 70
     0
102
RTVSPost2010Prop53
 90
        2
102
RTVSPost2010PropOp53
 70
     1
102
RTVSPost2010Prop54
  1
strokes_ogs.tif
102
RTVSPost2010PropOp54
 70
     1
102
RTVSPost2010Prop55
280
     0
102
RTVSPost2010PropOp55
 70
     1
102
RTVSPost2010Prop56
140
1.0
102
RTVSPost2010PropOp56
 70
     1
102
RTVSPost2010Prop57
140
1.0
102
RTVSPost2010PropOp57
 70
     1
  0
XRECORD
  5
186
102
{ACAD_REACTORS
330
185
102
}
330
185
100
AcDbXrecord
280
     1
102
RTVSPost2010Prop28
280
     0
102
RTVSPost2010PropOp28
 70
     1
102
RTVSPost2010Prop29
280
     1
102
RTVSPost2010PropOp29
 70
     1
102
RTVSPost2010Prop30
280
     1
102
RTVSPost2010PropOp30
 70
     1
102
RTVSPost2010Prop31
280
     0
102
RTVSPost2010PropOp31
 70
     1
102
RTVSPost2010Prop32
280
     0
102
RTVSPost2010PropOp32
 70
     1
102
RTVSPost2010Prop33
280
     0
102
RTVSPost2010PropOp33
 70
     1
102
RTVSPost2010Prop34
280
     0
102
RTVSPost2010PropOp34
 70
     1
102
RTVSPost2010Prop35
280
     0
102
RTVSPost2010PropOp35
 70
     1
102
RTVSPost2010Prop36
280
     0
102
RTVSPost2010PropOp36
 70
     1
102
RTVSPost2010Prop37
 90
       50
102
RTVSPost2010PropOp37
 70
     1
102
RTVSPost2010Prop38
140
0.0
102
RTVSPost2010PropOp38
 70
     1
102
RTVSPost2010Prop39
140
1.0
102
RTVSPost2010PropOp39
 70
     1
102
RTVSPost2010Prop40
 90
        0
102
RTVSPost2010PropOp40
 70
     1
102
RTVSPost2010Prop41ColorIndex
 90
       18
102
RTVSPost2010Prop41ColorRGB
 90
        0
102
RTVSPost2010PropOp41
 70
     1
102
RTVSPost2010Prop42
 90
       50
102
RTVSPost2010PropOp42
 70
     1
102
RTVSPost2010Prop43
 90
        3
102
RTVSPost2010PropOp43
 70
     1
102
RTVSPost2010Prop44ColorIndex
 90
        5
102
RTVSPost2010Prop44ColorRGB
 90
      255
102
RTVSPost2010PropOp44
 70
     1
102
RTVSPost2010Prop45
280
     0
102
RTVSPost2010PropOp45
 70
     1
102
RTVSPost2010Prop46
 90
       50
102
RTVSPost2010PropOp46
 70
     1
102
RTVSPost2010Prop47
 90
       50
102
RTVSPost2010PropOp47
 70
     1
102
RTVSPost2010Prop48
 90
       50
102
RTVSPost2010PropOp48
 70
     1
102
RTVSPost2010Prop49
280
     0
102
RTVSPost2010PropOp49
 70
     1
102
RTVSPost2010Prop50
 90
       50
102
RTVSPost2010PropOp50
 70
     1
102
RTVSPost2010Prop51ColorIndex
 90
      256
102
RTVSPost2010Prop51ColorRGB
 90
-16777216
102
RTVSPost2010PropOp51
 70
     0
102
RTVSPost2010Prop52
140
1.0
102
RTVSPost2010PropOp52
 70
     0
102
RTVSPost2010Prop53
 90
        2
102
RTVSPost2010PropOp53
 70
     1
102
RTVSPost2010Prop54
  1
strokes_ogs.tif
102
RTVSPost2010PropOp54
 70
     1
102
RTVSPost2010Prop55
280
     0
102
RTVSPost2010PropOp55
 70
     1
102
RTVSPost2010Prop56
140
1.0
102
RTVSPost2010PropOp56
 70
     1
102
RTVSPost2010Prop57
140
1.0
102
RTVSPost2010PropOp57
 70
     1
  0
XRECORD
  5
184
102
{ACAD_REACTORS
330
183
102
}
330
183
100
AcDbXrecord
280
     1
102
RTVSPost2010Prop28
280
     0
102
RTVSPost2010PropOp28
 70
     1
102
RTVSPost2010Prop29
280
     1
102
RTVSPost2010PropOp29
 70
     1
102
RTVSPost2010Prop30
280
     1
102
RTVSPost2010PropOp30
 70
     1
102
RTVSPost2010Prop31
280
     0
102
RTVSPost2010PropOp31
 70
     1
102
RTVSPost2010Prop32
280
     0
102
RTVSPost2010PropOp32
 70
     1
102
RTVSPost2010Prop33
280
     0
102
RTVSPost2010PropOp33
 70
     1
102
RTVSPost2010Prop34
280
     0
102
RTVSPost2010PropOp34
 70
     1
102
RTVSPost2010Prop35
280
     0
102
RTVSPost2010PropOp35
 70
     1
102
RTVSPost2010Prop36
280
     0
102
RTVSPost2010PropOp36
 70
     1
102
RTVSPost2010Prop37
 90
       50
102
RTVSPost2010PropOp37
 70
     1
102
RTVSPost2010Prop38
140
0.0
102
RTVSPost2010PropOp38
 70
     1
102
RTVSPost2010Prop39
140
1.0
102
RTVSPost2010PropOp39
 70
     1
102
RTVSPost2010Prop40
 90
        0
102
RTVSPost2010PropOp40
 70
     1
102
RTVSPost2010Prop41ColorIndex
 90
       18
102
RTVSPost2010Prop41ColorRGB
 90
        0
102
RTVSPost2010PropOp41
 70
     1
102
RTVSPost2010Prop42
 90
       50
102
RTVSPost2010PropOp42
 70
     1
102
RTVSPost2010Prop43
 90
        3
102
RTVSPost2010PropOp43
 70
     1
102
RTVSPost2010Prop44ColorIndex
 90
        5
102
RTVSPost2010Prop44ColorRGB
 90
      255
102
RTVSPost2010PropOp44
 70
     1
102
RTVSPost2010Prop45
280
     0
102
RTVSPost2010PropOp45
 70
     1
102
RTVSPost2010Prop46
 90
       50
102
RTVSPost2010PropOp46
 70
     1
102
RTVSPost2010Prop47
 90
       50
102
RTVSPost2010PropOp47
 70
     1
102
RTVSPost2010Prop48
 90
       50
102
RTVSPost2010PropOp48
 70
     1
102
RTVSPost2010Prop49
280
     0
102
RTVSPost2010PropOp49
 70
     1
102
RTVSPost2010Prop50
 90
       50
102
RTVSPost2010PropOp50
 70
     1
102
RTVSPost2010Prop51ColorIndex
 90
      256
102
RTVSPost2010Prop51ColorRGB
 90
-16777216
102
RTVSPost2010PropOp51
 70
     0
102
RTVSPost2010Prop52
140
1.0
102
RTVSPost2010PropOp52
 70
     0
102
RTVSPost2010Prop53
 90
        2
102
RTVSPost2010PropOp53
 70
     1
102
RTVSPost2010Prop54
  1
strokes_ogs.tif
102
RTVSPost2010PropOp54
 70
     1
102
RTVSPost2010Prop55
280
     0
102
RTVSPost2010PropOp55
 70
     1
102
RTVSPost2010Prop56
140
1.0
102
RTVSPost2010PropOp56
 70
     1
102
RTVSPost2010Prop57
140
1.0
102
RTVSPost2010PropOp57
 70
     1
  0
XRECORD
  5
17E
102
{ACAD_REACTORS
330
17D
102
}
330
17D
100
AcDbXrecord
280
     1
102
RTVSPost2010Prop28
280
     0
102
RTVSPost2010PropOp28
 70
     1
102
RTVSPost2010Prop29
280
     1
102
RTVSPost2010PropOp29
 70
     1
102
RTVSPost2010Prop30
280
     1
102
RTVSPost2010PropOp30
 70
     1
102
RTVSPost2010Prop31
280
     0
102
RTVSPost2010PropOp31
 70
     1
102
RTVSPost2010Prop32
280
     0
102
RTVSPost2010PropOp32
 70
     1
102
RTVSPost2010Prop33
280
     0
102
RTVSPost2010PropOp33
 70
     1
102
RTVSPost2010Prop34
280
     0
102
RTVSPost2010PropOp34
 70
     1
102
RTVSPost2010Prop35
280
     0
102
RTVSPost2010PropOp35
 70
     1
102
RTVSPost2010Prop36
280
     0
102
RTVSPost2010PropOp36
 70
     1
102
RTVSPost2010Prop37
 90
       50
102
RTVSPost2010PropOp37
 70
     1
102
RTVSPost2010Prop38
140
0.0
102
RTVSPost2010PropOp38
 70
     1
102
RTVSPost2010Prop39
140
1.0
102
RTVSPost2010PropOp39
 70
     1
102
RTVSPost2010Prop40
 90
        0
102
RTVSPost2010PropOp40
 70
     1
102
RTVSPost2010Prop41ColorIndex
 90
       18
102
RTVSPost2010Prop41ColorRGB
 90
        0
102
RTVSPost2010PropOp41
 70
     1
102
RTVSPost2010Prop42
 90
       50
102
RTVSPost2010PropOp42
 70
     1
102
RTVSPost2010Prop43
 90
        3
102
RTVSPost2010PropOp43
 70
     1
102
RTVSPost2010Prop44ColorIndex
 90
        5
102
RTVSPost2010Prop44ColorRGB
 90
      255
102
RTVSPost2010PropOp44
 70
     1
102
RTVSPost2010Prop45
280
     0
102
RTVSPost2010PropOp45
 70
     1
102
RTVSPost2010Prop46
 90
       50
102
RTVSPost2010PropOp46
 70
     1
102
RTVSPost2010Prop47
 90
       50
102
RTVSPost2010PropOp47
 70
     1
102
RTVSPost2010Prop48
 90
       50
102
RTVSPost2010PropOp48
 70
     1
102
RTVSPost2010Prop49
280
     0
102
RTVSPost2010PropOp49
 70
     1
102
RTVSPost2010Prop50
 90
       50
102
RTVSPost2010PropOp50
 70
     1
102
RTVSPost2010Prop51ColorIndex
 90
      256
102
RTVSPost2010Prop51ColorRGB
 90
-16777216
102
RTVSPost2010PropOp51
 70
     0
102
RTVSPost2010Prop52
140
1.0
102
RTVSPost2010PropOp52
 70
     0
102
RTVSPost2010Prop53
 90
        2
102
RTVSPost2010PropOp53
 70
     1
102
RTVSPost2010Prop54
  1
strokes_ogs.tif
102
RTVSPost2010PropOp54
 70
     1
102
RTVSPost2010Prop55
280
     0
102
RTVSPost2010PropOp55
 70
     1
102
RTVSPost2010Prop56
140
1.0
102
RTVSPost2010PropOp56
 70
     1
102
RTVSPost2010Prop57
140
1.0
102
RTVSPost2010PropOp57
 70
     1
  0
XRECORD
  5
180
102
{ACAD_REACTORS
330
17F
102
}
330
17F
100
AcDbXrecord
280
     1
102
RTVSPost2010Prop28
280
     0
102
RTVSPost2010PropOp28
 70
     1
102
RTVSPost2010Prop29
280
     1
102
RTVSPost2010PropOp29
 70
     1
102
RTVSPost2010Prop30
280
     1
102
RTVSPost2010PropOp30
 70
     1
102
RTVSPost2010Prop31
280
     0
102
RTVSPost2010PropOp31
 70
     1
102
RTVSPost2010Prop32
280
     0
102
RTVSPost2010PropOp32
 70
     1
102
RTVSPost2010Prop33
280
     0
102
RTVSPost2010PropOp33
 70
     1
102
RTVSPost2010Prop34
280
     0
102
RTVSPost2010PropOp34
 70
     1
102
RTVSPost2010Prop35
280
     0
102
RTVSPost2010PropOp35
 70
     1
102
RTVSPost2010Prop36
280
     0
102
RTVSPost2010PropOp36
 70
     1
102
RTVSPost2010Prop37
 90
       50
102
RTVSPost2010PropOp37
 70
     1
102
RTVSPost2010Prop38
140
0.0
102
RTVSPost2010PropOp38
 70
     1
102
RTVSPost2010Prop39
140
1.0
102
RTVSPost2010PropOp39
 70
     1
102
RTVSPost2010Prop40
 90
        0
102
RTVSPost2010PropOp40
 70
     1
102
RTVSPost2010Prop41ColorIndex
 90
       18
102
RTVSPost2010Prop41ColorRGB
 90
        0
102
RTVSPost2010PropOp41
 70
     1
102
RTVSPost2010Prop42
 90
       50
102
RTVSPost2010PropOp42
 70
     1
102
RTVSPost2010Prop43
 90
        3
102
RTVSPost2010PropOp43
 70
     1
102
RTVSPost2010Prop44ColorIndex
 90
        5
102
RTVSPost2010Prop44ColorRGB
 90
      255
102
RTVSPost2010PropOp44
 70
     1
102
RTVSPost2010Prop45
280
     0
102
RTVSPost2010PropOp45
 70
     1
102
RTVSPost2010Prop46
 90
       50
102
RTVSPost2010PropOp46
 70
     1
102
RTVSPost2010Prop47
 90
       50
102
RTVSPost2010PropOp47
 70
     1
102
RTVSPost2010Prop48
 90
       50
102
RTVSPost2010PropOp48
 70
     1
102
RTVSPost2010Prop49
280
     0
102
RTVSPost2010PropOp49
 70
     1
102
RTVSPost2010Prop50
 90
       50
102
RTVSPost2010PropOp50
 70
     1
102
RTVSPost2010Prop51ColorIndex
 90
      256
102
RTVSPost2010Prop51ColorRGB
 90
-16777216
102
RTVSPost2010PropOp51
 70
     0
102
RTVSPost2010Prop52
140
1.0
102
RTVSPost2010PropOp52
 70
     0
102
RTVSPost2010Prop53
 90
        2
102
RTVSPost2010PropOp53
 70
     1
102
RTVSPost2010Prop54
  1
strokes_ogs.tif
102
RTVSPost2010PropOp54
 70
     1
102
RTVSPost2010Prop55
280
     0
102
RTVSPost2010PropOp55
 70
     1
102
RTVSPost2010Prop56
140
1.0
102
RTVSPost2010PropOp56
 70
     1
102
RTVSPost2010Prop57
140
1.0
102
RTVSPost2010PropOp57
 70
     1
  0
XRECORD
  5
176
102
{ACAD_REACTORS
330
175
102
}
330
175
100
AcDbXrecord
280
     1
102
RTVSPost2010Prop28
280
     0
102
RTVSPost2010PropOp28
 70
     1
102
RTVSPost2010Prop29
280
     1
102
RTVSPost2010PropOp29
 70
     1
102
RTVSPost2010Prop30
280
     1
102
RTVSPost2010PropOp30
 70
     1
102
RTVSPost2010Prop31
280
     0
102
RTVSPost2010PropOp31
 70
     1
102
RTVSPost2010Prop32
280
     0
102
RTVSPost2010PropOp32
 70
     1
102
RTVSPost2010Prop33
280
     0
102
RTVSPost2010PropOp33
 70
     1
102
RTVSPost2010Prop34
280
     0
102
RTVSPost2010PropOp34
 70
     1
102
RTVSPost2010Prop35
280
     0
102
RTVSPost2010PropOp35
 70
     1
102
RTVSPost2010Prop36
280
     0
102
RTVSPost2010PropOp36
 70
     1
102
RTVSPost2010Prop37
 90
       50
102
RTVSPost2010PropOp37
 70
     1
102
RTVSPost2010Prop38
140
0.0
102
RTVSPost2010PropOp38
 70
     1
102
RTVSPost2010Prop39
140
1.0
102
RTVSPost2010PropOp39
 70
     1
102
RTVSPost2010Prop40
 90
        0
102
RTVSPost2010PropOp40
 70
     1
102
RTVSPost2010Prop41ColorIndex
 90
       18
102
RTVSPost2010Prop41ColorRGB
 90
        0
102
RTVSPost2010PropOp41
 70
     1
102
RTVSPost2010Prop42
 90
       50
102
RTVSPost2010PropOp42
 70
     1
102
RTVSPost2010Prop43
 90
        3
102
RTVSPost2010PropOp43
 70
     1
102
RTVSPost2010Prop44ColorIndex
 90
        5
102
RTVSPost2010Prop44ColorRGB
 90
      255
102
RTVSPost2010PropOp44
 70
     1
102
RTVSPost2010Prop45
280
     0
102
RTVSPost2010PropOp45
 70
     1
102
RTVSPost2010Prop46
 90
       50
102
RTVSPost2010PropOp46
 70
     1
102
RTVSPost2010Prop47
 90
       50
102
RTVSPost2010PropOp47
 70
     1
102
RTVSPost2010Prop48
 90
       50
102
RTVSPost2010PropOp48
 70
     1
102
RTVSPost2010Prop49
280
     0
102
RTVSPost2010PropOp49
 70
     1
102
RTVSPost2010Prop50
 90
       50
102
RTVSPost2010PropOp50
 70
     1
102
RTVSPost2010Prop51ColorIndex
 90
      256
102
RTVSPost2010Prop51ColorRGB
 90
-16777216
102
RTVSPost2010PropOp51
 70
     0
102
RTVSPost2010Prop52
140
1.0
102
RTVSPost2010PropOp52
 70
     0
102
RTVSPost2010Prop53
 90
        2
102
RTVSPost2010PropOp53
 70
     1
102
RTVSPost2010Prop54
  1
strokes_ogs.tif
102
RTVSPost2010PropOp54
 70
     1
102
RTVSPost2010Prop55
280
     0
102
RTVSPost2010PropOp55
 70
     1
102
RTVSPost2010Prop56
140
1.0
102
RTVSPost2010PropOp56
 70
     1
102
RTVSPost2010Prop57
140
1.0
102
RTVSPost2010PropOp57
 70
     1
  0
XRECORD
  5
16A
102
{ACAD_REACTORS
330
169
102
}
330
169
100
AcDbXrecord
280
     1
102
RTVSPost2010Prop28
280
     0
102
RTVSPost2010PropOp28
 70
     1
102
RTVSPost2010Prop29
280
     1
102
RTVSPost2010PropOp29
 70
     1
102
RTVSPost2010Prop30
280
     1
102
RTVSPost2010PropOp30
 70
     1
102
RTVSPost2010Prop31
280
     0
102
RTVSPost2010PropOp31
 70
     1
102
RTVSPost2010Prop32
280
     0
102
RTVSPost2010PropOp32
 70
     1
102
RTVSPost2010Prop33
280
     0
102
RTVSPost2010PropOp33
 70
     1
102
RTVSPost2010Prop34
280
     0
102
RTVSPost2010PropOp34
 70
     1
102
RTVSPost2010Prop35
280
     0
102
RTVSPost2010PropOp35
 70
     1
102
RTVSPost2010Prop36
280
     0
102
RTVSPost2010PropOp36
 70
     1
102
RTVSPost2010Prop37
 90
       50
102
RTVSPost2010PropOp37
 70
     1
102
RTVSPost2010Prop38
140
0.0
102
RTVSPost2010PropOp38
 70
     1
102
RTVSPost2010Prop39
140
1.0
102
RTVSPost2010PropOp39
 70
     1
102
RTVSPost2010Prop40
 90
        0
102
RTVSPost2010PropOp40
 70
     1
102
RTVSPost2010Prop41ColorIndex
 90
       18
102
RTVSPost2010Prop41ColorRGB
 90
        0
102
RTVSPost2010PropOp41
 70
     1
102
RTVSPost2010Prop42
 90
       50
102
RTVSPost2010PropOp42
 70
     1
102
RTVSPost2010Prop43
 90
        3
102
RTVSPost2010PropOp43
 70
     1
102
RTVSPost2010Prop44ColorIndex
 90
        5
102
RTVSPost2010Prop44ColorRGB
 90
      255
102
RTVSPost2010PropOp44
 70
     1
102
RTVSPost2010Prop45
280
     0
102
RTVSPost2010PropOp45
 70
     1
102
RTVSPost2010Prop46
 90
       50
102
RTVSPost2010PropOp46
 70
     1
102
RTVSPost2010Prop47
 90
       50
102
RTVSPost2010PropOp47
 70
     1
102
RTVSPost2010Prop48
 90
       50
102
RTVSPost2010PropOp48
 70
     1
102
RTVSPost2010Prop49
280
     0
102
RTVSPost2010PropOp49
 70
     1
102
RTVSPost2010Prop50
 90
       50
102
RTVSPost2010PropOp50
 70
     1
102
RTVSPost2010Prop51ColorIndex
 90
      256
102
RTVSPost2010Prop51ColorRGB
 90
-16777216
102
RTVSPost2010PropOp51
 70
     0
102
RTVSPost2010Prop52
140
1.0
102
RTVSPost2010PropOp52
 70
     0
102
RTVSPost2010Prop53
 90
        2
102
RTVSPost2010PropOp53
 70
     1
102
RTVSPost2010Prop54
  1
strokes_ogs.tif
102
RTVSPost2010PropOp54
 70
     1
102
RTVSPost2010Prop55
280
     0
102
RTVSPost2010PropOp55
 70
     1
102
RTVSPost2010Prop56
140
1.0
102
RTVSPost2010PropOp56
 70
     1
102
RTVSPost2010Prop57
140
1.0
102
RTVSPost2010PropOp57
 70
     1
  0
XRECORD
  5
182
102
{ACAD_REACTORS
330
181
102
}
330
181
100
AcDbXrecord
280
     1
102
RTVSPost2010Prop28
280
     0
102
RTVSPost2010PropOp28
 70
     1
102
RTVSPost2010Prop29
280
     1
102
RTVSPost2010PropOp29
 70
     1
102
RTVSPost2010Prop30
280
     1
102
RTVSPost2010PropOp30
 70
     1
102
RTVSPost2010Prop31
280
     0
102
RTVSPost2010PropOp31
 70
     1
102
RTVSPost2010Prop32
280
     0
102
RTVSPost2010PropOp32
 70
     1
102
RTVSPost2010Prop33
280
     0
102
RTVSPost2010PropOp33
 70
     1
102
RTVSPost2010Prop34
280
     0
102
RTVSPost2010PropOp34
 70
     1
102
RTVSPost2010Prop35
280
     0
102
RTVSPost2010PropOp35
 70
     1
102
RTVSPost2010Prop36
280
     0
102
RTVSPost2010PropOp36
 70
     1
102
RTVSPost2010Prop37
 90
       50
102
RTVSPost2010PropOp37
 70
     1
102
RTVSPost2010Prop38
140
0.0
102
RTVSPost2010PropOp38
 70
     1
102
RTVSPost2010Prop39
140
1.0
102
RTVSPost2010PropOp39
 70
     1
102
RTVSPost2010Prop40
 90
        0
102
RTVSPost2010PropOp40
 70
     1
102
RTVSPost2010Prop41ColorIndex
 90
       18
102
RTVSPost2010Prop41ColorRGB
 90
        0
102
RTVSPost2010PropOp41
 70
     1
102
RTVSPost2010Prop42
 90
       50
102
RTVSPost2010PropOp42
 70
     1
102
RTVSPost2010Prop43
 90
        3
102
RTVSPost2010PropOp43
 70
     1
102
RTVSPost2010Prop44ColorIndex
 90
        5
102
RTVSPost2010Prop44ColorRGB
 90
      255
102
RTVSPost2010PropOp44
 70
     1
102
RTVSPost2010Prop45
280
     0
102
RTVSPost2010PropOp45
 70
     1
102
RTVSPost2010Prop46
 90
       50
102
RTVSPost2010PropOp46
 70
     1
102
RTVSPost2010Prop47
 90
       50
102
RTVSPost2010PropOp47
 70
     1
102
RTVSPost2010Prop48
 90
       50
102
RTVSPost2010PropOp48
 70
     1
102
RTVSPost2010Prop49
280
     0
102
RTVSPost2010PropOp49
 70
     1
102
RTVSPost2010Prop50
 90
       50
102
RTVSPost2010PropOp50
 70
     1
102
RTVSPost2010Prop51ColorIndex
 90
      256
102
RTVSPost2010Prop51ColorRGB
 90
-16777216
102
RTVSPost2010PropOp51
 70
     0
102
RTVSPost2010Prop52
140
1.0
102
RTVSPost2010PropOp52
 70
     0
102
RTVSPost2010Prop53
 90
        2
102
RTVSPost2010PropOp53
 70
     1
102
RTVSPost2010Prop54
  1
strokes_ogs.tif
102
RTVSPost2010PropOp54
 70
     1
102
RTVSPost2010Prop55
280
     0
102
RTVSPost2010PropOp55
 70
     1
102
RTVSPost2010Prop56
140
1.0
102
RTVSPost2010PropOp56
 70
     1
102
RTVSPost2010Prop57
140
1.0
102
RTVSPost2010PropOp57
 70
     1
  0
ENDSEC
  0
EOF
