  0
SECTION
  2
HEADER
  9
$ACADVER
  1
AC1024
  9
$ACADMAINTVER
 70
   205
  9
$DWGCODEPAGE
  3
ANSI_1251
  9
$INSBASE
 10
0.0
 20
0.0
 30
0.0
  9
$EXTMIN
 10
1.000000000000000E+20
 20
1.000000000000000E+20
 30
1.000000000000000E+20
  9
$EXTMAX
 10
-1.000000000000000E+20
 20
-1.000000000000000E+20
 30
-1.000000000000000E+20
  9
$LIMMIN
 10
0.0
 20
0.0
  9
$LIMMAX
 10
12.0
 20
9.0
  9
$ORTHOMODE
 70
     0
  9
$REGENMODE
 70
     1
  9
$FILLMODE
 70
     1
  9
$QTEXTMODE
 70
     0
  9
$MIRRTEXT
 70
     1
  9
$LTSCALE
 40
1.0
  9
$ATTMODE
 70
     1
  9
$TEXTSIZE
 40
0.2
  9
$TRACEWID
 40
0.05
  9
$TEXTSTYLE
  7
Standard
  9
$CLAYER
  8
OracDecor_cornice_mouldings
  9
$CELTYPE
  6
ByLayer
  9
$CECOLOR
 62
   256
  9
$CELTSCALE
 40
1.0
  9
$DISPSILH
 70
     0
  9
$DIMSCALE
 40
1.0
  9
$DIMASZ
 40
0.18
  9
$DIMEXO
 40
0.0625
  9
$DIMDLI
 40
0.38
  9
$DIMRND
 40
0.0
  9
$DIMDLE
 40
0.0
  9
$DIMEXE
 40
0.18
  9
$DIMTP
 40
0.0
  9
$DIMTM
 40
0.0
  9
$DIMTXT
 40
0.18
  9
$DIMCEN
 40
0.09
  9
$DIMTSZ
 40
0.0
  9
$DIMTOL
 70
     0
  9
$DIMLIM
 70
     0
  9
$DIMTIH
 70
     1
  9
$DIMTOH
 70
     1
  9
$DIMSE1
 70
     0
  9
$DIMSE2
 70
     0
  9
$DIMTAD
 70
     0
  9
$DIMZIN
 70
     0
  9
$DIMBLK
  1

  9
$DIMASO
 70
     1
  9
$DIMSHO
 70
     1
  9
$DIMPOST
  1

  9
$DIMAPOST
  1

  9
$DIMALT
 70
     0
  9
$DIMALTD
 70
     2
  9
$DIMALTF
 40
25.4
  9
$DIMLFAC
 40
1.0
  9
$DIMTOFL
 70
     0
  9
$DIMTVP
 40
0.0
  9
$DIMTIX
 70
     0
  9
$DIMSOXD
 70
     0
  9
$DIMSAH
 70
     0
  9
$DIMBLK1
  1

  9
$DIMBLK2
  1

  9
$DIMSTYLE
  2
Standard
  9
$DIMCLRD
 70
     0
  9
$DIMCLRE
 70
     0
  9
$DIMCLRT
 70
     0
  9
$DIMTFAC
 40
1.0
  9
$DIMGAP
 40
0.09
  9
$DIMJUST
 70
     0
  9
$DIMSD1
 70
     0
  9
$DIMSD2
 70
     0
  9
$DIMTOLJ
 70
     1
  9
$DIMTZIN
 70
     0
  9
$DIMALTZ
 70
     0
  9
$DIMALTTZ
 70
     0
  9
$DIMUPT
 70
     0
  9
$DIMDEC
 70
     4
  9
$DIMTDEC
 70
     4
  9
$DIMALTU
 70
     2
  9
$DIMALTTD
 70
     2
  9
$DIMTXSTY
  7
Standard
  9
$DIMAUNIT
 70
     0
  9
$DIMADEC
 70
     0
  9
$DIMALTRND
 40
0.0
  9
$DIMAZIN
 70
     0
  9
$DIMDSEP
 70
    46
  9
$DIMATFIT
 70
     3
  9
$DIMFRAC
 70
     0
  9
$DIMLDRBLK
  1

  9
$DIMLUNIT
 70
     2
  9
$DIMLWD
 70
    -2
  9
$DIMLWE
 70
    -2
  9
$DIMTMOVE
 70
     0
  9
$DIMFXL
 40
1.0
  9
$DIMFXLON
 70
     0
  9
$DIMJOGANG
 40
0.7853981633974483
  9
$DIMTFILL
 70
     0
  9
$DIMTFILLCLR
 70
     0
  9
$DIMARCSYM
 70
     0
  9
$DIMLTYPE
  6

  9
$DIMLTEX1
  6

  9
$DIMLTEX2
  6

  9
$DIMTXTDIRECTION
 70
     0
  9
$LUNITS
 70
     2
  9
$LUPREC
 70
     4
  9
$SKETCHINC
 40
0.1
  9
$FILLETRAD
 40
0.5
  9
$AUNITS
 70
     0
  9
$AUPREC
 70
     0
  9
$MENU
  1
.
  9
$ELEVATION
 40
0.0
  9
$PELEVATION
 40
0.0
  9
$THICKNESS
 40
0.0
  9
$LIMCHECK
 70
     0
  9
$CHAMFERA
 40
0.5
  9
$CHAMFERB
 40
0.5
  9
$CHAMFERC
 40
1.0
  9
$CHAMFERD
 40
0.0
  9
$SKPOLY
 70
     0
  9
$TDCREATE
 40
2451380.930432396
  9
$TDUCREATE
 40
2451380.805432396
  9
$TDUPDATE
 40
2451380.966180555
  9
$TDUUPDATE
 40
2451380.841180556
  9
$TDINDWG
 40
0.0075633102
  9
$TDUSRTIMER
 40
0.0075542708
  9
$USRTIMER
 70
     1
  9
$ANGBASE
 50
0.0
  9
$ANGDIR
 70
     0
  9
$PDMODE
 70
     0
  9
$PDSIZE
 40
0.0
  9
$PLINEWID
 40
0.0
  9
$SPLFRAME
 70
     0
  9
$SPLINETYPE
 70
     6
  9
$SPLINESEGS
 70
     8
  9
$HANDSEED
  5
184
  9
$SURFTAB1
 70
     6
  9
$SURFTAB2
 70
     6
  9
$SURFTYPE
 70
     6
  9
$SURFU
 70
     6
  9
$SURFV
 70
     6
  9
$UCSBASE
  2

  9
$UCSNAME
  2

  9
$UCSORG
 10
0.0
 20
0.0
 30
0.0
  9
$UCSXDIR
 10
1.0
 20
0.0
 30
0.0
  9
$UCSYDIR
 10
0.0
 20
1.0
 30
0.0
  9
$UCSORTHOREF
  2

  9
$UCSORTHOVIEW
 70
     0
  9
$UCSORGTOP
 10
0.0
 20
0.0
 30
0.0
  9
$UCSORGBOTTOM
 10
0.0
 20
0.0
 30
0.0
  9
$UCSORGLEFT
 10
0.0
 20
0.0
 30
0.0
  9
$UCSORGRIGHT
 10
0.0
 20
0.0
 30
0.0
  9
$UCSORGFRONT
 10
0.0
 20
0.0
 30
0.0
  9
$UCSORGBACK
 10
0.0
 20
0.0
 30
0.0
  9
$PUCSBASE
  2

  9
$PUCSNAME
  2

  9
$PUCSORG
 10
0.0
 20
0.0
 30
0.0
  9
$PUCSXDIR
 10
1.0
 20
0.0
 30
0.0
  9
$PUCSYDIR
 10
0.0
 20
1.0
 30
0.0
  9
$PUCSORTHOREF
  2

  9
$PUCSORTHOVIEW
 70
     0
  9
$PUCSORGTOP
 10
0.0
 20
0.0
 30
0.0
  9
$PUCSORGBOTTOM
 10
0.0
 20
0.0
 30
0.0
  9
$PUCSORGLEFT
 10
0.0
 20
0.0
 30
0.0
  9
$PUCSORGRIGHT
 10
0.0
 20
0.0
 30
0.0
  9
$PUCSORGFRONT
 10
0.0
 20
0.0
 30
0.0
  9
$PUCSORGBACK
 10
0.0
 20
0.0
 30
0.0
  9
$USERI1
 70
     0
  9
$USERI2
 70
     0
  9
$USERI3
 70
     0
  9
$USERI4
 70
     0
  9
$USERI5
 70
     0
  9
$USERR1
 40
0.0
  9
$USERR2
 40
0.0
  9
$USERR3
 40
0.0
  9
$USERR4
 40
0.0
  9
$USERR5
 40
0.0
  9
$WORLDVIEW
 70
     1
  9
$SHADEDGE
 70
     3
  9
$SHADEDIF
 70
    70
  9
$TILEMODE
 70
     1
  9
$MAXACTVP
 70
    64
  9
$PINSBASE
 10
0.0
 20
0.0
 30
0.0
  9
$PLIMCHECK
 70
     0
  9
$PEXTMIN
 10
1.000000000000000E+20
 20
1.000000000000000E+20
 30
1.000000000000000E+20
  9
$PEXTMAX
 10
-1.000000000000000E+20
 20
-1.000000000000000E+20
 30
-1.000000000000000E+20
  9
$PLIMMIN
 10
0.0
 20
0.0
  9
$PLIMMAX
 10
12.0
 20
9.0
  9
$UNITMODE
 70
     0
  9
$VISRETAIN
 70
     1
  9
$PLINEGEN
 70
     0
  9
$PSLTSCALE
 70
     1
  9
$TREEDEPTH
 70
  3020
  9
$CMLSTYLE
  2
Standard
  9
$CMLJUST
 70
     0
  9
$CMLSCALE
 40
1.0
  9
$PROXYGRAPHICS
 70
     1
  9
$MEASUREMENT
 70
     1
  9
$CELWEIGHT
370
    -1
  9
$ENDCAPS
280
     0
  9
$JOINSTYLE
280
     0
  9
$LWDISPLAY
290
     0
  9
$INSUNITS
 70
     4
  9
$HYPERLINKBASE
  1

  9
$STYLESHEET
  1

  9
$XEDIT
290
     1
  9
$CEPSNTYPE
380
     0
  9
$PSTYLEMODE
290
     1
  9
$FINGERPRINTGUID
  2
{12F50282-3ED8-11D3-A8B7-0060B0F84BC6}
  9
$VERSIONGUID
  2
{12F50293-3ED8-11D3-A8B7-0060B0F84BC6}
  9
$EXTNAMES
290
     1
  9
$PSVPSCALE
 40
0.0
  9
$OLESTARTUP
290
     0
  9
$SORTENTS
280
   127
  9
$INDEXCTL
280
     0
  9
$HIDETEXT
280
     0
  9
$XCLIPFRAME
280
     2
  9
$HALOGAP
280
     0
  9
$OBSCOLOR
 70
   257
  9
$OBSLTYPE
280
     0
  9
$INTERSECTIONDISPLAY
280
     0
  9
$INTERSECTIONCOLOR
 70
   257
  9
$DIMASSOC
280
     1
  9
$PROJECTNAME
  1

  9
$CAMERADISPLAY
290
     0
  9
$LENSLENGTH
 40
50.0
  9
$CAMERAHEIGHT
 40
0.0
  9
$STEPSPERSEC
 40
2.0
  9
$STEPSIZE
 40
6.0
  9
$3DDWFPREC
 40
2.0
  9
$PSOLWIDTH
 40
0.25
  9
$PSOLHEIGHT
 40
4.0
  9
$LOFTANG1
 40
1.570796326794896
  9
$LOFTANG2
 40
1.570796326794896
  9
$LOFTMAG1
 40
0.0
  9
$LOFTMAG2
 40
0.0
  9
$LOFTPARAM
 70
     7
  9
$LOFTNORMALS
280
     1
  9
$LATITUDE
 40
37.795
  9
$LONGITUDE
 40
-122.394
  9
$NORTHDIRECTION
 40
0.0
  9
$TIMEZONE
 70
 -8000
  9
$LIGHTGLYPHDISPLAY
280
     1
  9
$TILEMODELIGHTSYNCH
280
     1
  9
$CMATERIAL
347
AB
  9
$SOLIDHIST
280
     0
  9
$SHOWHIST
280
     1
  9
$DWFFRAME
280
     2
  9
$DGNFRAME
280
     0
  9
$REALWORLDSCALE
290
     1
  9
$INTERFERECOLOR
 62
     1
  9
$INTERFEREOBJVS
345
CD
  9
$INTERFEREVPVS
346
CA
  9
$CSHADOW
280
     0
  9
$SHADOWPLANELOCATION
 40
0.0
  0
ENDSEC
  0
SECTION
  2
CLASSES
  0
CLASS
  1
ACDBDICTIONARYWDFLT
  2
AcDbDictionaryWithDefault
  3
ObjectDBX Classes
 90
        0
 91
        1
280
     0
281
     0
  0
CLASS
  1
ACDBPLACEHOLDER
  2
AcDbPlaceHolder
  3
ObjectDBX Classes
 90
        0
 91
        2
280
     0
281
     0
  0
CLASS
  1
LAYOUT
  2
AcDbLayout
  3
ObjectDBX Classes
 90
        0
 91
        3
280
     0
281
     0
  0
CLASS
  1
MATERIAL
  2
AcDbMaterial
  3
ObjectDBX Classes
 90
     1153
 91
        3
280
     0
281
     0
  0
CLASS
  1
VISUALSTYLE
  2
AcDbVisualStyle
  3
ObjectDBX Classes
 90
     4095
 91
       24
280
     0
281
     0
  0
CLASS
  1
TABLESTYLE
  2
AcDbTableStyle
  3
ObjectDBX Classes
 90
     4095
 91
        1
280
     0
281
     0
  0
CLASS
  1
SCALE
  2
AcDbScale
  3
ObjectDBX Classes
 90
     1153
 91
       17
280
     0
281
     0
  0
CLASS
  1
MLEADERSTYLE
  2
AcDbMLeaderStyle
  3
ACDB_MLEADERSTYLE_CLASS
 90
     4095
 91
        1
280
     0
281
     0
  0
CLASS
  1
ACDBSECTIONVIEWSTYLE
  2
AcDbSectionViewStyle
  3
ObjectDBX Classes
 90
     1025
 91
        1
280
     0
281
     0
  0
CLASS
  1
ACDBDETAILVIEWSTYLE
  2
AcDbDetailViewStyle
  3
ObjectDBX Classes
 90
     1025
 91
        1
280
     0
281
     0
  0
CLASS
  1
MESH
  2
AcDbSubDMesh
  3
ObjectDBX Classes
 90
        0
 91
        1
280
     0
281
     1
  0
CLASS
  1
DICTIONARYVAR
  2
AcDbDictionaryVar
  3
ObjectDBX Classes
 90
        0
 91
        9
280
     0
281
     0
  0
CLASS
  1
CELLSTYLEMAP
  2
AcDbCellStyleMap
  3
ObjectDBX Classes
 90
     1152
 91
        1
280
     0
281
     0
  0
ENDSEC
  0
SECTION
  2
TABLES
  0
TABLE
  2
VPORT
  5
8
330
0
100
AcDbSymbolTable
 70
     1
  0
VPORT
  5
A8
330
8
100
AcDbSymbolTableRecord
100
AcDbViewportTableRecord
  2
*Active
 70
     0
 10
0.0
 20
0.0
 11
1.0
 21
1.0
 12
0.0000040460977289
 22
-22.45366668701172
 13
0.0
 23
0.0
 14
0.5
 24
0.5
 15
0.5
 25
0.5
 16
-1.0
 26
-1.0
 36
1.0
 17
0.0
 27
0.0
 37
0.0
 40
1110.000131135746
 41
1.646228397810971
 42
50.0
 43
0.0
 44
0.0
 50
0.0
 51
0.0
 71
     0
 72
   100
 73
     1
 74
     3
 75
     0
 76
     0
 77
     0
 78
     0
281
     0
 65
     1
110
0.0
120
0.0
130
0.0
111
1.0
121
0.0
131
0.0
112
0.0
122
1.0
132
0.0
 79
     0
146
0.0
348
C9
 60
     3
 61
     5
292
     1
282
     1
141
0.0
142
0.0
 63
   250
421
  3355443
  0
ENDTAB
  0
TABLE
  2
LTYPE
  5
5
330
0
100
AcDbSymbolTable
 70
     1
  0
LTYPE
  5
14
330
5
100
AcDbSymbolTableRecord
100
AcDbLinetypeTableRecord
  2
ByBlock
 70
     0
  3

 72
    65
 73
     0
 40
0.0
  0
LTYPE
  5
15
330
5
100
AcDbSymbolTableRecord
100
AcDbLinetypeTableRecord
  2
ByLayer
 70
     0
  3

 72
    65
 73
     0
 40
0.0
  0
LTYPE
  5
16
330
5
100
AcDbSymbolTableRecord
100
AcDbLinetypeTableRecord
  2
Continuous
 70
     0
  3
Solid line
 72
    65
 73
     0
 40
0.0
  0
ENDTAB
  0
TABLE
  2
LAYER
  5
2
330
0
100
AcDbSymbolTable
 70
     3
  0
LAYER
  5
10
330
2
100
AcDbSymbolTableRecord
100
AcDbLayerTableRecord
  2
0
 70
     0
 62
     7
  6
Continuous
370
    -3
390
F
347
BB
  0
LAYER
  5
2B
330
2
100
AcDbSymbolTableRecord
100
AcDbLayerTableRecord
  2
ASHADE
 70
     4
 62
     7
  6
Continuous
370
    -3
390
2D
347
BB
  0
LAYER
  5
F8
330
2
100
AcDbSymbolTableRecord
100
AcDbLayerTableRecord
  2
OracDecor_cornice_mouldings
 70
     0
 62
   134
420
  1873329
  6
Continuous
370
    -3
390
F
347
BB
  0
ENDTAB
  0
TABLE
  2
STYLE
  5
3
330
0
100
AcDbSymbolTable
 70
     2
  0
STYLE
  5
11
330
3
100
AcDbSymbolTableRecord
100
AcDbTextStyleTableRecord
  2
Standard
 70
     0
 40
0.0
 41
1.0
 50
0.0
 71
     0
 42
0.2
  3
txt
  4

  0
STYLE
  5
2C
330
3
100
AcDbSymbolTableRecord
100
AcDbTextStyleTableRecord
  2
ASHADE
 70
     0
 40
0.2
 41
1.0
 50
0.0
 71
     0
 42
0.2
  3
simplex
  4

  0
ENDTAB
  0
TABLE
  2
VIEW
  5
6
330
0
100
AcDbSymbolTable
 70
     0
  0
ENDTAB
  0
TABLE
  2
UCS
  5
7
330
0
100
AcDbSymbolTable
 70
     0
  0
ENDTAB
  0
TABLE
  2
APPID
  5
9
330
0
100
AcDbSymbolTable
 70
     6
  0
APPID
  5
12
330
9
100
AcDbSymbolTableRecord
100
AcDbRegAppTableRecord
  2
ACAD
 70
     0
  0
APPID
  5
8F
330
9
100
AcDbSymbolTableRecord
100
AcDbRegAppTableRecord
  2
AVE_RENDER
 70
     0
  0
APPID
  5
90
330
9
100
AcDbSymbolTableRecord
100
AcDbRegAppTableRecord
  2
AVE_ENTITY_MATERIAL
 70
     0
  0
APPID
  5
9C
330
9
100
AcDbSymbolTableRecord
100
AcDbRegAppTableRecord
  2
AVE_FINISH
 70
     0
  0
APPID
  5
9D
330
9
100
AcDbSymbolTableRecord
100
AcDbRegAppTableRecord
  2
AVE_MATERIAL
 70
     0
  0
APPID
  5
9E
330
9
100
AcDbSymbolTableRecord
100
AcDbRegAppTableRecord
  2
AVE_GLOBAL
 70
     0
  0
ENDTAB
  0
TABLE
  2
DIMSTYLE
  5
A
330
0
100
AcDbSymbolTable
 70
     1
100
AcDbDimStyleTable
 71
     0
  0
DIMSTYLE
105
27
330
A
100
AcDbSymbolTableRecord
100
AcDbDimStyleTableRecord
  2
Standard
 70
     0
340
11
  0
ENDTAB
  0
TABLE
  2
BLOCK_RECORD
  5
1
330
0
100
AcDbSymbolTable
 70
     6
  0
BLOCK_RECORD
  5
1F
330
1
100
AcDbSymbolTableRecord
100
AcDbBlockTableRecord
  2
*Model_Space
340
22
 70
     0
280
     1
281
     0
  0
BLOCK_RECORD
  5
1B
330
1
100
AcDbSymbolTableRecord
100
AcDbBlockTableRecord
  2
*Paper_Space
340
1E
 70
     0
280
     1
281
     0
  0
BLOCK_RECORD
  5
23
330
1
100
AcDbSymbolTableRecord
100
AcDbBlockTableRecord
  2
*Paper_Space0
340
26
 70
     0
280
     1
281
     0
  0
BLOCK_RECORD
  5
2E
330
1
100
AcDbSymbolTableRecord
100
AcDbBlockTableRecord
  2
direct
340
0
 70
     0
280
     1
281
     0
  0
BLOCK_RECORD
  5
42
330
1
100
AcDbSymbolTableRecord
100
AcDbBlockTableRecord
  2
overhead
340
0
 70
     0
280
     1
281
     0
  0
BLOCK_RECORD
  5
5F
330
1
100
AcDbSymbolTableRecord
100
AcDbBlockTableRecord
  2
sh_spot
340
0
 70
     0
280
     1
281
     0
  0
BLOCK_RECORD
  5
91
330
1
100
AcDbSymbolTableRecord
100
AcDbBlockTableRecord
  2
AVE_RENDER
340
0
102
{BLKREFS
331
94
331
95
331
96
331
97
331
98
331
99
331
9A
331
9B
102
}
 70
     0
280
     1
281
     0
  0
BLOCK_RECORD
  5
9F
330
1
100
AcDbSymbolTableRecord
100
AcDbBlockTableRecord
  2
AVE_GLOBAL
340
0
102
{BLKREFS
331
A2
102
}
 70
     0
280
     1
281
     0
  0
ENDTAB
  0
ENDSEC
  0
SECTION
  2
BLOCKS
  0
BLOCK
  5
20
330
1F
100
AcDbEntity
  8
0
100
AcDbBlockBegin
  2
*Model_Space
 70
     0
 10
0.0
 20
0.0
 30
0.0
  3
*Model_Space
  1

  0
ENDBLK
  5
21
330
1F
100
AcDbEntity
  8
0
100
AcDbBlockEnd
  0
BLOCK
  5
1C
330
1B
100
AcDbEntity
 67
     1
  8
0
100
AcDbBlockBegin
  2
*Paper_Space
 70
     0
 10
0.0
 20
0.0
 30
0.0
  3
*Paper_Space
  1

  0
ENDBLK
  5
1D
330
1B
100
AcDbEntity
 67
     1
  8
0
100
AcDbBlockEnd
  0
BLOCK
  5
24
330
23
100
AcDbEntity
 67
     1
  8
0
100
AcDbBlockBegin
  2
*Paper_Space0
 70
     0
 10
0.0
 20
0.0
 30
0.0
  3
*Paper_Space0
  1

  0
ENDBLK
  5
25
330
23
100
AcDbEntity
 67
     1
  8
0
100
AcDbBlockEnd
  0
BLOCK
  5
40
330
2E
100
AcDbEntity
  8
0
100
AcDbBlockBegin
  2
direct
 70
     2
 10
0.0
 20
0.0
 30
0.0
  3
direct
  1

  0
ATTDEF
  5
2F
330
2E
100
AcDbEntity
  8
ASHADE
  6
Continuous
 62
     1
100
AcDbText
 10
0.0
 20
-0.1
 30
0.0
 40
0.2
  1

  7
ASHADE
 72
     1
 11
0.0
 21
-0.1
 31
0.0
100
AcDbAttributeDefinition
280
     0
  3
Light Name
  2
SNAME
 70
     0
280
     0
  0
ARC
  5
30
330
2E
100
AcDbEntity
  8
ASHADE
  6
Continuous
 62
     7
100
AcDbCircle
 10
0.0
 20
0.0
 30
0.0
 40
0.3
100
AcDbArc
 50
205.6792886194569
 51
334.3207113805431
  0
ARC
  5
31
330
2E
100
AcDbEntity
  8
ASHADE
  6
Continuous
 62
     7
100
AcDbCircle
 10
0.0
 20
0.0
 30
0.0
 40
0.3
100
AcDbArc
 50
25.67928861945685
 51
154.3207113805431
  0
LINE
  5
32
330
2E
100
AcDbEntity
  8
ASHADE
  6
Continuous
 62
     7
100
AcDbLine
 10
-0.21
 20
0.2142428528562855
 30
0.0
 11
-0.21
 21
0.5
 31
0.0
  0
LINE
  5
33
330
2E
100
AcDbEntity
  8
ASHADE
  6
Continuous
 62
     7
100
AcDbLine
 10
-0.11
 20
0.2791057147390572
 30
0.0
 11
-0.11
 21
0.5
 31
0.0
  0
LINE
  5
34
330
2E
100
AcDbEntity
  8
ASHADE
  6
Continuous
 62
     7
100
AcDbLine
 10
0.21
 20
0.2142428528562855
 30
0.0
 11
0.21
 21
0.5
 31
0.0
  0
ATTDEF
  5
35
330
2E
100
AcDbEntity
  8
ASHADE
  6
Continuous
 62
     7
100
AcDbText
 10
0.0
 20
0.25
 30
0.0
 40
0.01
  1

100
AcDbAttributeDefinition
280
     0
  3
Look-at Y
  2
LAY
 70
     1
280
     0
  0
ATTDEF
  5
36
330
2E
100
AcDbEntity
  8
ASHADE
  6
Continuous
 62
     7
100
AcDbText
 10
0.0
 20
0.22
 30
0.0
 40
0.01
  1
1
100
AcDbAttributeDefinition
280
     0
  3
Light Intensity
  2
INTENSITY
 70
     1
280
     0
  0
ATTDEF
  5
37
330
2E
100
AcDbEntity
  8
ASHADE
  6
Continuous
 62
     7
100
AcDbText
 10
0.0
 20
0.16
 30
0.0
 40
0.01
  1
-1
100
AcDbAttributeDefinition
280
     0
  3
*not used*
  2
BEAMD
 70
     1
280
     0
  0
ATTDEF
  5
38
330
2E
100
AcDbEntity
  8
ASHADE
  6
Continuous
 62
     7
100
AcDbText
 10
0.0
 20
0.175
 30
0.0
 40
0.01
  1
-1
100
AcDbAttributeDefinition
280
     0
  3
*not used*
  2
CONED
 70
     1
280
     0
  0
ATTDEF
  5
39
330
2E
100
AcDbEntity
  8
ASHADE
  6
Continuous
 62
     7
100
AcDbText
 10
0.0
 20
0.19
 30
0.0
 40
0.01
  1
0
100
AcDbAttributeDefinition
280
     0
  3
Depth Map Size
  2
CONEA
 70
     1
280
     0
  0
ATTDEF
  5
3A
330
2E
100
AcDbEntity
  8
ASHADE
  6
Continuous
 62
     7
100
AcDbText
 10
0.0
 20
0.2050000000000001
 30
0.0
 40
0.01
  1
1,1,1
100
AcDbAttributeDefinition
280
     0
  3
Light Color (RGB)
  2
COLOR
 70
     1
280
     0
  0
ATTDEF
  5
3B
330
2E
100
AcDbEntity
  8
ASHADE
  6
Continuous
 62
     7
100
AcDbText
 10
0.0
 20
0.235
 30
0.0
 40
0.01
  1

100
AcDbAttributeDefinition
280
     0
  3
Look-at Z
  2
LAZ
 70
     1
280
     0
  0
LINE
  5
3C
330
2E
100
AcDbEntity
  8
ASHADE
  6
Continuous
 62
     7
100
AcDbLine
 10
0.0
 20
0.3
 30
0.0
 11
0.0
 21
0.5
 31
0.0
  0
LINE
  5
3D
330
2E
100
AcDbEntity
  8
ASHADE
  6
Continuous
 62
     7
100
AcDbLine
 10
0.11
 20
0.2791057147390572
 30
0.0
 11
0.11
 21
0.5
 31
0.0
  0
ATTDEF
  5
3E
330
2E
100
AcDbEntity
  8
ASHADE
  6
Continuous
 62
     7
100
AcDbText
 10
0.0
 20
0.265
 30
0.0
 40
0.01
  1

100
AcDbAttributeDefinition
280
     0
  3
Look-at X
  2
LAX
 70
     1
280
     0
  0
ATTDEF
  5
3F
330
2E
100
AcDbEntity
  8
ASHADE
  6
Continuous
 62
     7
100
AcDbText
 10
0.0
 20
0.28
 30
0.0
 40
0.01
  1

100
AcDbAttributeDefinition
280
     0
  3

  2
GNAME
 70
     1
280
     0
  0
ENDBLK
  5
41
330
2E
100
AcDbEntity
  8
0
100
AcDbBlockEnd
  0
BLOCK
  5
5D
330
42
100
AcDbEntity
  8
0
100
AcDbBlockBegin
  2
overhead
 70
     2
 10
0.0
 20
0.0
 30
0.0
  3
overhead
  1

  0
ATTDEF
  5
43
330
42
100
AcDbEntity
  8
ASHADE
  6
Continuous
 62
     1
100
AcDbText
 10
0.0
 20
-0.1
 30
0.0
 40
0.2
  1

  7
ASHADE
 72
     1
 11
0.0
 21
-0.1
 31
0.0
100
AcDbAttributeDefinition
280
     0
  3
Light Name
  2
SNAME
 70
     0
280
     0
  0
ARC
  5
44
330
42
100
AcDbEntity
  8
ASHADE
  6
Continuous
 62
     7
100
AcDbCircle
 10
0.0
 20
0.0
 30
0.0
 40
0.3
100
AcDbArc
 50
205.6792886194569
 51
334.3207113805431
  0
LINE
  5
45
330
42
100
AcDbEntity
  8
ASHADE
  6
Continuous
 62
     7
100
AcDbLine
 10
-0.2041413561583015
 20
-0.2198324514393848
 30
0.0
 11
-0.2721884748777353
 21
-0.2931099352525131
 31
0.0
  0
LINE
  5
46
330
42
100
AcDbEntity
  8
ASHADE
  6
Continuous
 62
     7
100
AcDbLine
 10
-0.1096591641591904
 20
-0.2792398032442862
 30
0.0
 11
-0.1279356915190555
 21
-0.3257797704516673
 31
0.0
  0
LINE
  5
47
330
42
100
AcDbEntity
  8
ASHADE
  6
Continuous
 62
     7
100
AcDbLine
 10
0.0
 20
-0.2999999999999999
 30
0.0
 11
0.0
 21
-0.4
 31
0.0
  0
LINE
  5
48
330
42
100
AcDbEntity
  8
ASHADE
  6
Continuous
 62
     7
100
AcDbLine
 10
0.1096591641591904
 20
-0.2792398032442862
 30
0.0
 11
0.1279356915190555
 21
-0.3257797704516673
 31
0.0
  0
LINE
  5
49
330
42
100
AcDbEntity
  8
ASHADE
  6
Continuous
 62
     7
100
AcDbLine
 10
0.2041413561583015
 20
-0.2198324514393848
 30
0.0
 11
0.2721884748777353
 21
-0.2931099352525131
 31
0.0
  0
ARC
  5
4A
330
42
100
AcDbEntity
  8
ASHADE
  6
Continuous
 62
     7
100
AcDbCircle
 10
0.0
 20
0.0
 30
0.0
 40
0.3
100
AcDbArc
 50
25.67928861945685
 51
154.3207113805431
  0
LINE
  5
4B
330
42
100
AcDbEntity
  8
ASHADE
  6
Continuous
 62
     7
100
AcDbLine
 10
-0.2703701166919155
 20
0.13
 30
0.0
 11
-0.3154318028072347
 21
0.1516666666666666
 31
0.0
  0
LINE
  5
4C
330
42
100
AcDbEntity
  8
ASHADE
  6
Continuous
 62
     7
100
AcDbLine
 10
-0.2703701166919155
 20
-0.13
 30
0.0
 11
-0.3154318028072347
 21
-0.1516666666666666
 31
0.0
  0
LINE
  5
4D
330
42
100
AcDbEntity
  8
ASHADE
  6
Continuous
 62
     7
100
AcDbLine
 10
-0.2041413561583015
 20
0.2198324514393849
 30
0.0
 11
-0.2721884748777353
 21
0.2931099352525131
 31
0.0
  0
LINE
  5
4E
330
42
100
AcDbEntity
  8
ASHADE
  6
Continuous
 62
     7
100
AcDbLine
 10
-0.1096591641591904
 20
0.2792398032442862
 30
0.0
 11
-0.1279356915190555
 21
0.3257797704516674
 31
0.0
  0
LINE
  5
4F
330
42
100
AcDbEntity
  8
ASHADE
  6
Continuous
 62
     7
100
AcDbLine
 10
0.2703701166919155
 20
-0.13
 30
0.0
 11
0.3154318028072347
 21
-0.1516666666666666
 31
0.0
  0
LINE
  5
50
330
42
100
AcDbEntity
  8
ASHADE
  6
Continuous
 62
     7
100
AcDbLine
 10
0.2703701166919155
 20
0.13
 30
0.0
 11
0.3154318028072347
 21
0.1516666666666666
 31
0.0
  0
LINE
  5
51
330
42
100
AcDbEntity
  8
ASHADE
  6
Continuous
 62
     7
100
AcDbLine
 10
0.0
 20
0.3
 30
0.0
 11
0.0
 21
0.4
 31
0.0
  0
ATTDEF
  5
52
330
42
100
AcDbEntity
  8
ASHADE
  6
Continuous
 62
     7
100
AcDbText
 10
0.0
 20
0.22
 30
0.0
 40
0.01
  1
1
100
AcDbAttributeDefinition
280
     0
  3
Light Intensity
  2
INTENSITY
 70
     1
280
     0
  0
ATTDEF
  5
53
330
42
100
AcDbEntity
  8
ASHADE
  6
Continuous
 62
     7
100
AcDbText
 10
0.0
 20
0.16
 30
0.0
 40
0.01
  1
-1
100
AcDbAttributeDefinition
280
     0
  3
*not used*
  2
BEAMD
 70
     1
280
     0
  0
ATTDEF
  5
54
330
42
100
AcDbEntity
  8
ASHADE
  6
Continuous
 62
     7
100
AcDbText
 10
0.0
 20
0.175
 30
0.0
 40
0.01
  1
-1
100
AcDbAttributeDefinition
280
     0
  3
*not used*
  2
CONED
 70
     1
280
     0
  0
ATTDEF
  5
55
330
42
100
AcDbEntity
  8
ASHADE
  6
Continuous
 62
     7
100
AcDbText
 10
0.0
 20
0.19
 30
0.0
 40
0.01
  1
0
100
AcDbAttributeDefinition
280
     0
  3
Depth Map Size
  2
CONEA
 70
     1
280
     0
  0
ATTDEF
  5
56
330
42
100
AcDbEntity
  8
ASHADE
  6
Continuous
 62
     7
100
AcDbText
 10
0.0
 20
0.2050000000000001
 30
0.0
 40
0.01
  1
1,1,1
100
AcDbAttributeDefinition
280
     0
  3
Light Color (RGB)
  2
COLOR
 70
     1
280
     0
  0
ATTDEF
  5
57
330
42
100
AcDbEntity
  8
ASHADE
  6
Continuous
 62
     7
100
AcDbText
 10
0.0
 20
0.235
 30
0.0
 40
0.01
  1

100
AcDbAttributeDefinition
280
     0
  3
Look-at Z
  2
LAZ
 70
     1
280
     0
  0
ATTDEF
  5
58
330
42
100
AcDbEntity
  8
ASHADE
  6
Continuous
 62
     7
100
AcDbText
 10
0.0
 20
0.25
 30
0.0
 40
0.01
  1

100
AcDbAttributeDefinition
280
     0
  3
Look-at Y
  2
LAY
 70
     1
280
     0
  0
ATTDEF
  5
59
330
42
100
AcDbEntity
  8
ASHADE
  6
Continuous
 62
     7
100
AcDbText
 10
0.0
 20
0.265
 30
0.0
 40
0.01
  1

100
AcDbAttributeDefinition
280
     0
  3
Look-at X
  2
LAX
 70
     1
280
     0
  0
ATTDEF
  5
5A
330
42
100
AcDbEntity
  8
ASHADE
  6
Continuous
 62
     7
100
AcDbText
 10
0.0
 20
0.28
 30
0.0
 40
0.01
  1

100
AcDbAttributeDefinition
280
     0
  3

  2
GNAME
 70
     1
280
     0
  0
LINE
  5
5B
330
42
100
AcDbEntity
  8
ASHADE
  6
Continuous
 62
     7
100
AcDbLine
 10
0.1096591641591904
 20
0.2792398032442862
 30
0.0
 11
0.1279356915190555
 21
0.3257797704516674
 31
0.0
  0
LINE
  5
5C
330
42
100
AcDbEntity
  8
ASHADE
  6
Continuous
 62
     7
100
AcDbLine
 10
0.2041413561583015
 20
0.2198324514393849
 30
0.0
 11
0.2721884748777353
 21
0.2931099352525131
 31
0.0
  0
ENDBLK
  5
5E
330
42
100
AcDbEntity
  8
0
100
AcDbBlockEnd
  0
BLOCK
  5
85
330
5F
100
AcDbEntity
  8
0
100
AcDbBlockBegin
  2
sh_spot
 70
     2
 10
0.0
 20
0.0
 30
0.0
  3
sh_spot
  1

  0
LINE
  5
60
330
5F
100
AcDbEntity
  8
ASHADE
  6
Continuous
 62
     7
100
AcDbLine
 10
0.25
 20
0.26
 30
0.0
 11
-0.25
 21
0.26
 31
0.0
  0
LINE
  5
61
330
5F
100
AcDbEntity
  8
ASHADE
  6
Continuous
 62
     7
100
AcDbLine
 10
-0.25
 20
-0.3399999999999999
 30
0.0
 11
0.25
 21
-0.3399999999999999
 31
0.0
  0
ATTDEF
  5
62
330
5F
100
AcDbEntity
  8
ASHADE
  6
Continuous
 62
     1
100
AcDbText
 10
0.0
 20
-0.1
 30
0.0
 40
0.2
  1

  7
ASHADE
 72
     1
 11
0.0
 21
-0.1
 31
0.0
100
AcDbAttributeDefinition
280
     0
  3
Light Name
  2
SNAME
 70
     0
280
     0
  0
LINE
  5
63
330
5F
100
AcDbEntity
  8
ASHADE
  6
Continuous
 62
     7
100
AcDbLine
 10
-0.25
 20
-0.13
 30
0.0
 11
-0.25
 21
-0.3399999999999999
 31
0.0
  0
LINE
  5
64
330
5F
100
AcDbEntity
  8
ASHADE
  6
Continuous
 62
     7
100
AcDbLine
 10
-0.25
 20
-0.18
 30
0.0
 11
-0.29
 21
-0.18
 31
0.0
  0
LINE
  5
65
330
5F
100
AcDbEntity
  8
ASHADE
  6
Continuous
 62
     7
100
AcDbLine
 10
-0.29
 20
-0.22
 30
0.0
 11
-0.25
 21
-0.22
 31
0.0
  0
LINE
  5
66
330
5F
100
AcDbEntity
  8
ASHADE
  6
Continuous
 62
     7
100
AcDbLine
 10
-0.29
 20
-0.18
 30
0.0
 11
-0.29
 21
-0.22
 31
0.0
  0
LINE
  5
67
330
5F
100
AcDbEntity
  8
ASHADE
  6
Continuous
 62
     7
100
AcDbLine
 10
-0.1045454545454545
 20
0.26
 30
0.0
 11
-0.15
 21
0.46
 31
0.0
  0
LINE
  5
68
330
5F
100
AcDbEntity
  8
ASHADE
  6
Continuous
 62
     7
100
AcDbLine
 10
-0.21
 20
0.26
 30
0.0
 11
-0.301304347826087
 21
0.46
 31
0.0
  0
LINE
  5
69
330
5F
100
AcDbEntity
  8
ASHADE
  6
Continuous
 62
     7
100
AcDbLine
 10
-0.25
 20
0.26
 30
0.0
 11
-0.25
 21
0.13
 31
0.0
  0
LINE
  5
6A
330
5F
100
AcDbEntity
  8
ASHADE
  6
Continuous
 62
     7
100
AcDbLine
 10
-0.25
 20
0.22
 30
0.0
 11
-0.29
 21
0.22
 31
0.0
  0
LINE
  5
6B
330
5F
100
AcDbEntity
  8
ASHADE
  6
Continuous
 62
     7
100
AcDbLine
 10
-0.29
 20
0.1799999999999999
 30
0.0
 11
-0.25
 21
0.1799999999999999
 31
0.0
  0
LINE
  5
6C
330
5F
100
AcDbEntity
  8
ASHADE
  6
Continuous
 62
     7
100
AcDbLine
 10
-0.29
 20
0.22
 30
0.0
 11
-0.29
 21
0.1799999999999999
 31
0.0
  0
ATTDEF
  5
6D
330
5F
100
AcDbEntity
  8
ASHADE
  6
Continuous
 62
     7
100
AcDbText
 10
0.0
 20
-0.24
 30
0.0
 40
0.01
  1
0
100
AcDbAttributeDefinition
280
     0
  3
Depth Map Size
  2
ZSIZE
 70
     1
280
     0
  0
ATTDEF
  5
6E
330
5F
100
AcDbEntity
  8
ASHADE
  6
Continuous
 62
     7
100
AcDbText
 10
0.0
 20
-0.3300000000000001
 30
0.0
 40
0.01
  1
0,0,0
100
AcDbAttributeDefinition
280
     0
  3
Look-from XYZ
  2
LFXYZ
 70
     1
280
     0
  0
ATTDEF
  5
6F
330
5F
100
AcDbEntity
  8
ASHADE
  6
Continuous
 62
     7
100
AcDbText
 10
0.0
 20
-0.315
 30
0.0
 40
0.01
  1
0.0
100
AcDbAttributeDefinition
280
     0
  3
Beam Distribution
  2
BEAMDI
 70
     1
280
     0
  0
ATTDEF
  5
70
330
5F
100
AcDbEntity
  8
ASHADE
  6
Continuous
 62
     7
100
AcDbText
 10
0.0
 20
-0.3
 30
0.0
 40
0.01
  1
0.0
100
AcDbAttributeDefinition
280
     0
  3
Cone Delta
  2
CONEDE
 70
     1
280
     0
  0
ATTDEF
  5
71
330
5F
100
AcDbEntity
  8
ASHADE
  6
Continuous
 62
     7
100
AcDbText
 10
0.0
 20
-0.2850000000000001
 30
0.0
 40
0.01
  1
10.0
100
AcDbAttributeDefinition
280
     0
  3
Cone Angle
  2
CONEAN
 70
     1
280
     0
  0
ATTDEF
  5
72
330
5F
100
AcDbEntity
  8
ASHADE
  6
Continuous
 62
     7
100
AcDbText
 10
0.0
 20
-0.27
 30
0.0
 40
0.01
  1
-1
100
AcDbAttributeDefinition
280
     0
  3
*not used*
  2
BIASMAX
 70
     1
280
     0
  0
ATTDEF
  5
73
330
5F
100
AcDbEntity
  8
ASHADE
  6
Continuous
 62
     7
100
AcDbText
 10
0.0
 20
-0.255
 30
0.0
 40
0.01
  1
-1
100
AcDbAttributeDefinition
280
     0
  3
*not used*
  2
BIASMIN
 70
     1
280
     0
  0
ATTDEF
  5
74
330
5F
100
AcDbEntity
  8
ASHADE
  6
Continuous
 62
     7
100
AcDbText
 10
0.0
 20
-0.225
 30
0.0
 40
0.01
  1
1,1,1
100
AcDbAttributeDefinition
280
     0
  3
Light Color (RGB)
  2
COLOR
 70
     1
280
     0
  0
ATTDEF
  5
75
330
5F
100
AcDbEntity
  8
ASHADE
  6
Continuous
 62
     7
100
AcDbText
 10
0.0
 20
-0.21
 30
0.0
 40
0.01
  1
1
100
AcDbAttributeDefinition
280
     0
  3
Light Intensity
  2
INTENSITY
 70
     1
280
     0
  0
ATTDEF
  5
76
330
5F
100
AcDbEntity
  8
ASHADE
  6
Continuous
 62
     7
100
AcDbText
 10
0.0
 20
-0.15
 30
0.0
 40
0.01
  1

100
AcDbAttributeDefinition
280
     0
  3

  2
GNAME
 70
     1
280
     0
  0
ATTDEF
  5
77
330
5F
100
AcDbEntity
  8
ASHADE
  6
Continuous
 62
     7
100
AcDbText
 10
0.0
 20
-0.195
 30
0.0
 40
0.01
  1

100
AcDbAttributeDefinition
280
     0
  3
Look-at Z
  2
LAZ
 70
     1
280
     0
  0
ATTDEF
  5
78
330
5F
100
AcDbEntity
  8
ASHADE
  6
Continuous
 62
     7
100
AcDbText
 10
0.0
 20
-0.18
 30
0.0
 40
0.01
  1

100
AcDbAttributeDefinition
280
     0
  3
Look-at Y
  2
LAY
 70
     1
280
     0
  0
ATTDEF
  5
79
330
5F
100
AcDbEntity
  8
ASHADE
  6
Continuous
 62
     7
100
AcDbText
 10
0.0
 20
-0.165
 30
0.0
 40
0.01
  1

100
AcDbAttributeDefinition
280
     0
  3
Look-at X
  2
LAX
 70
     1
280
     0
  0
LINE
  5
7A
330
5F
100
AcDbEntity
  8
ASHADE
  6
Continuous
 62
     7
100
AcDbLine
 10
0.25
 20
-0.3399999999999999
 30
0.0
 11
0.25
 21
-0.13
 31
0.0
  0
LINE
  5
7B
330
5F
100
AcDbEntity
  8
ASHADE
  6
Continuous
 62
     7
100
AcDbLine
 10
0.25
 20
-0.18
 30
0.0
 11
0.29
 21
-0.18
 31
0.0
  0
LINE
  5
7C
330
5F
100
AcDbEntity
  8
ASHADE
  6
Continuous
 62
     7
100
AcDbLine
 10
0.29
 20
-0.22
 30
0.0
 11
0.25
 21
-0.22
 31
0.0
  0
LINE
  5
7D
330
5F
100
AcDbEntity
  8
ASHADE
  6
Continuous
 62
     7
100
AcDbLine
 10
0.29
 20
-0.18
 30
0.0
 11
0.29
 21
-0.22
 31
0.0
  0
LINE
  5
7E
330
5F
100
AcDbEntity
  8
ASHADE
  6
Continuous
 62
     7
100
AcDbLine
 10
0.21
 20
0.26
 30
0.0
 11
0.301304347826087
 21
0.46
 31
0.0
  0
LINE
  5
7F
330
5F
100
AcDbEntity
  8
ASHADE
  6
Continuous
 62
     7
100
AcDbLine
 10
0.1045454545454545
 20
0.26
 30
0.0
 11
0.15
 21
0.46
 31
0.0
  0
LINE
  5
80
330
5F
100
AcDbEntity
  8
ASHADE
  6
Continuous
 62
     7
100
AcDbLine
 10
0.0
 20
0.26
 30
0.0
 11
0.0
 21
0.46
 31
0.0
  0
LINE
  5
81
330
5F
100
AcDbEntity
  8
ASHADE
  6
Continuous
 62
     7
100
AcDbLine
 10
0.25
 20
0.13
 30
0.0
 11
0.25
 21
0.26
 31
0.0
  0
LINE
  5
82
330
5F
100
AcDbEntity
  8
ASHADE
  6
Continuous
 62
     7
100
AcDbLine
 10
0.25
 20
0.22
 30
0.0
 11
0.29
 21
0.22
 31
0.0
  0
LINE
  5
83
330
5F
100
AcDbEntity
  8
ASHADE
  6
Continuous
 62
     7
100
AcDbLine
 10
0.29
 20
0.1799999999999999
 30
0.0
 11
0.25
 21
0.1799999999999999
 31
0.0
  0
LINE
  5
84
330
5F
100
AcDbEntity
  8
ASHADE
  6
Continuous
 62
     7
100
AcDbLine
 10
0.29
 20
0.22
 30
0.0
 11
0.29
 21
0.1799999999999999
 31
0.0
  0
ENDBLK
  5
86
330
5F
100
AcDbEntity
  8
0
100
AcDbBlockEnd
  0
BLOCK
  5
92
330
91
100
AcDbEntity
  8
ASHADE
100
AcDbBlockBegin
  2
AVE_RENDER
 70
     0
 10
0.0
 20
0.0
 30
0.0
  3
AVE_RENDER
  1
AVE_RENDER
  0
ENDBLK
  5
93
330
91
100
AcDbEntity
  8
0
100
AcDbBlockEnd
  0
BLOCK
  5
A0
330
9F
100
AcDbEntity
  8
ASHADE
100
AcDbBlockBegin
  2
AVE_GLOBAL
 70
     0
 10
0.0
 20
0.0
 30
0.0
  3
AVE_GLOBAL
  1
AVE_GLOBAL
  0
ENDBLK
  5
A1
330
9F
100
AcDbEntity
  8
0
100
AcDbBlockEnd
  0
ENDSEC
  0
SECTION
  2
ENTITIES
  0
INSERT
  5
94
330
1F
100
AcDbEntity
  8
ASHADE
 62
     1
100
AcDbBlockReference
  2
AVE_RENDER
 10
0.0
 20
0.0
 30
0.0
1001
AVE_RENDER
1002
{
1070
     7
1000
Pref
1070
    30
1070
    20
1070
     1
1070
     0
1000

1070
    10
1070
     1
1070
    10
1040
1.0
1070
     1
1040
0.3
1040
0.7
1040
0.0
1040
10.0
1010
-1.0
1020
-1.0
1030
-1.0
1040
0.3
1070
    49
1070
     0
1070
     0
1010
1.0
1020
1.0
1030
1.0
1040
45.0
1070
     1
1070
     0
1000
WCS
1040
0.0
1070
     0
1040
10.0
1002
}
  0
INSERT
  5
95
330
1F
100
AcDbEntity
  8
ASHADE
 62
     3
100
AcDbBlockReference
  2
AVE_RENDER
 10
0.0
 20
0.0
 30
0.0
1001
AVE_RENDER
1002
{
1070
     0
1000
Full Opt
1070
     0
1070
     1
1070
     1
1070
     1
1070
     0
1070
     0
1070
     0
1070
     1
1070
     1
1040
0.0001
1040
0.0001
1002
}
  0
INSERT
  5
96
330
1F
100
AcDbEntity
  8
ASHADE
 62
     4
100
AcDbBlockReference
  2
AVE_RENDER
 10
0.0
 20
0.0
 30
0.0
1001
AVE_RENDER
1002
{
1070
     0
1000
Quick Opt
1070
     0
1070
     1
1070
     1
1070
     1
1070
     0
1070
     0
1070
     1
1002
}
  0
INSERT
  5
97
330
1F
100
AcDbEntity
  8
ASHADE
 62
     5
100
AcDbBlockReference
  2
AVE_RENDER
 10
0.0
 20
0.0
 30
0.0
1001
AVE_RENDER
1002
{
1070
     1
1000
Scanl Opt
1070
     2
1070
     0
1070
     2
1040
2.0
1040
4.0
1070
     0
1070
     1
1070
     0
1040
0.03
1002
}
  0
INSERT
  5
98
330
1F
100
AcDbEntity
  8
ASHADE
 62
     6
100
AcDbBlockReference
  2
AVE_RENDER
 10
0.0
 20
0.0
 30
0.0
1001
AVE_RENDER
1002
{
1070
     2
1000
Raytr Opt
1070
     2
1070
     0
1070
     2
1040
2.0
1040
4.0
1070
     0
1070
     1
1070
     1
1040
0.03
1070
     3
1040
0.03
1002
}
  0
INSERT
  5
99
330
1F
100
AcDbEntity
  8
ASHADE
 62
     7
100
AcDbBlockReference
  2
AVE_RENDER
 10
0.0
 20
0.0
 30
0.0
1001
AVE_RENDER
1002
{
1070
     0
1000
RFile Opt
1070
     1
1070
   640
1070
   480
1070
 10000
1070
     1
1070
     8
1070
     8
1070
     0
1070
     0
1070
     0
1070
     0
1070
     0
1070
     0
1070
     0
1002
}
  0
INSERT
  5
9A
330
1F
100
AcDbEntity
  8
ASHADE
 62
     8
100
AcDbBlockReference
  2
AVE_RENDER
 10
0.0
 20
0.0
 30
0.0
1001
AVE_RENDER
1002
{
1070
     0
1000
Fog Opt
1070
     0
1070
     0
1040
0.0
1040
1.0
1040
0.0
1040
1.0
1010
0.5
1020
0.5
1030
0.5
1002
}
  0
INSERT
  5
9B
330
1F
100
AcDbEntity
  8
ASHADE
 62
     9
100
AcDbBlockReference
  2
AVE_RENDER
 10
0.0
 20
0.0
 30
0.0
1001
AVE_RENDER
1002
{
1070
     0
1000
BG Opt
1070
     0
1070
     1
1010
0.0
1020
0.0
1030
0.0
1010
1.0
1020
0.0
1030
0.0
1010
0.0
1020
1.0
1030
0.0
1010
0.0
1020
0.0
1030
1.0
1040
0.5
1040
0.33
1040
0.0
1000

1070
     1
1000

1070
     1
1070
     1
1040
1.0
1040
1.0
1040
0.0
1040
0.0
1070
     0
1002
}
  0
INSERT
  5
A2
330
1F
100
AcDbEntity
  8
ASHADE
 62
     1
100
AcDbBlockReference
  2
AVE_GLOBAL
 10
0.0
 20
0.0
 30
0.0
1001
AVE_MATERIAL
1002
{
1000
*GLOBAL*
1000
2
1000
Global finish.
1002
{
1002
}
1002
{
1070
    63
1002
{
1002
{
1010
-1.0
1020
-1.0
1030
-1.0
1002
}
1040
0.1000000014901161
1000

1040
0.0
1002
{
1002
}
1040
0.0
1002
{
1002
}
1040
0.0
1002
}
1002
{
1002
{
1010
-1.0
1020
-1.0
1030
-1.0
1002
}
1040
0.6999999880790711
1000

1040
0.0
1002
{
1002
}
1040
0.0
1002
{
1002
}
1040
0.0
1002
}
1002
{
1002
{
1010
-1.0
1020
-1.0
1030
-1.0
1002
}
1040
0.2000000029802322
1000

1040
0.0
1002
{
1002
}
1040
0.0
1002
{
1002
}
1040
0.0
1002
}
1002
{
1070
     0
1002
{
1070
     1
1002
{
1040
1.0
1040
1.0
1000

1040
0.0
1002
{
1002
}
1040
0.0
1002
{
1002
}
1040
0.0
1002
}
1002
}
1040
1.0
1040
0.0
1040
0.0
1002
}
1002
{
1040
1.0
1040
1.0
1000

1040
0.0
1002
{
1002
}
1040
0.0
1002
{
1002
}
1040
0.0
1002
}
1002
{
1040
0.5
1040
1.0
1000

1040
0.0
1002
{
1002
}
1040
0.0
1002
{
1002
}
1040
0.0
1002
}
1002
{
1070
     0
1040
0.0
1002
{
1002
}
1040
1.0
1002
{
1002
}
1040
0.0
1002
}
1002
{
1040
0.0
1002
{
1002
{
1010
0.0
1020
0.0
1030
0.0
1002
}
1040
1.0
1000

1040
0.0
1002
{
1002
}
1040
0.0
1002
{
1002
}
1040
0.0
1002
}
1002
}
1002
{
1002
{
1070
     1
1002
{
1040
0.0
1040
1.0
1000

1040
0.0
1002
{
1002
}
1040
0.0
1002
{
1002
}
1040
0.0
1002
}
1002
}
1040
0.0
1002
{
1002
}
1010
1.0
1020
0.0
1030
0.0
1010
0.0
1020
1.0
1030
0.0
1010
0.0
1020
0.0
1030
1.0
1070
     0
1002
}
1002
{
1002
{
1040
1.0
1040
1.0
1002
{
1070
     1
1002
{
1040
1.0
1040
1.0
1000

1040
0.0
1002
{
1002
}
1040
0.0
1002
{
1002
}
1040
0.0
1002
}
1002
}
1002
}
1070
     0
1040
0.0
1002
{
1002
}
1002
}
1002
{
1002
}
1002
}
1002
{
1071
        3
1070
     3
1070
     0
1002
{
1070
     2
1070
     0
1070
     0
1040
0.0
1002
}
1070
     0
1070
     2
1002
{
1002
}
1002
}
1002
{
1040
8030.0
1040
190.3000030517578
1040
0.3050000071525574
1040
228.0
1040
545.0
1040
14.0
1040
17.39999961853027
1040
0.4560000002384186
1002
}
1002
}
  0
MESH
  5
F9
330
1F
100
AcDbEntity
  8
OracDecor_cornice_mouldings
 62
   236
420
  9242426
160
             21968
310
D0550000620200000C00000013000000020000003C00000006000000020000000000002000408F4000000000576C49C0000000000000C03E0000002000408F400000000000804BC0000000000000C03E0C000000130000000A0000003C0000000600000002000000000000C0FF3F8FC000000000576C49C0000000000000E8
310
BE0000002000408F4000000000576C49C0000000000000C03E0C00000013000000120000003C0000000600000002000000000000C0FF3F8FC000000000576C49C0000000000000E8BE000000C0FF3F8FC00000000000804BC0000000000000E8BE0C000000130000001A0000003C0000000600000002000000000000200040
310
8F400000000000804BC0000000000000C03E000000C0FF3F8FC00000000000804BC0000000000000E8BE0C00000013000000220000003C00000006000000020000000000002000408F4000000000576C49C0000000000000C03E0000002000408F4000000000364B49C000000000C071A1BF0C000000130000002A0000003C
310
00000006000000020000000000002000408F4000000000364B49C000000000C071A1BF000000C0FF3F8FC000000000364B49C0000000008073A1BF0C00000013000000320000003C0000000600000002000000000000C0FF3F8FC000000000576C49C0000000000000E8BE000000C0FF3F8FC000000000364B49C000000000
310
8073A1BF0C000000130000003A0000003C00000006000000020000000000002000408F4000000000572C49C0000000000026C1BF0000002000408F4000000000364B49C000000000C071A1BF0C00000013000000420000003C0000000600000002000000000000C0FF3F8FC000000000572C49C0000000007026C1BF000000
310
2000408F4000000000572C49C0000000000026C1BF0C000000130000004A0000003C0000000600000002000000000000C0FF3F8FC000000000572C49C0000000007026C1BF000000C0FF3F8FC000000000364B49C0000000008073A1BF0C00000013000000520000003C00000006000000020000000000002000408F400000
310
0000008048C0000000009029EDBF0000002000408F4000000000572C49C0000000000026C1BF0C000000130000005A0000003C0000000600000002000000000000C0FF3F8FC000000000008048C000000000AC29EDBF0000002000408F4000000000008048C0000000009029EDBF0C00000013000000620000003C00000006
310
00000002000000000000C0FF3F8FC000000000572C49C0000000007026C1BF000000C0FF3F8FC000000000008048C000000000AC29EDBF0C000000130000006A0000003C00000006000000020000000000002000408F4000000000008048C0000000009029EDBF0000002000408F4000000000004048C0000000008AB9F0BF
310
0C00000013000000720000003C0000000600000002000000000000C0FF3F8FC000000000004048C00000000098B9F0BF0000002000408F4000000000004048C0000000008AB9F0BF0C000000130000007A0000003C0000000600000002000000000000C0FF3F8FC000000000008048C000000000AC29EDBF000000C0FF3F8F
310
C000000000004048C00000000098B9F0BF0C00000013000000820000003C00000006000000020000000000002000408F4000000000000048C0000000009029EDBF0000002000408F4000000000004048C0000000008AB9F0BF0C000000130000008A0000003C00000006000000020000000000002000408F40000000000000
310
48C0000000009029EDBF000000C0FF3F8FC000000000000048C000000000AC29EDBF0C00000013000000920000003C0000000600000002000000000000C0FF3F8FC000000000000048C000000000AC29EDBF000000C0FF3F8FC000000000004048C00000000098B9F0BF0C000000130000009A0000003C0000000600000002
310
0000000000002000408F40000000C0A85347C0000000000026C1BF0000002000408F4000000000000048C0000000009029EDBF0C00000013000000A20000003C00000006000000020000000000002000408F40000000C0A85347C0000000000026C1BF000000C0FF3F8FC0000000C0A85347C0000000007026C1BF0C000000
310
13000000AA0000003C0000000600000002000000000000C0FF3F8FC000000000000048C000000000AC29EDBF000000C0FF3F8FC0000000C0A85347C0000000007026C1BF0C00000013000000B20000003C00000006000000020000000000002000408F40000000C0A85347C0000000000026C1BF0000002000408F40000000
310
C0C93447C000000000C076A1BF0C00000013000000BA0000003C0000000600000002000000000000C0FF3F8FC0000000C0C93447C0000000004079A1BF0000002000408F40000000C0C93447C000000000C076A1BF0C00000013000000C20000003C0000000600000002000000000000C0FF3F8FC0000000C0A85347C00000
310
00007026C1BF000000C0FF3F8FC0000000C0C93447C0000000004079A1BF0C00000013000000CA0000003C00000006000000020000000000002000408F40000000C0A81347C000000000000003BF0000002000408F40000000C0C93447C000000000C076A1BF0C00000013000000D20000003C000000060000000200000000
310
00002000408F40000000C0A81347C000000000000003BF000000C0FF3F8FC0000000C0A81347C00000000000000DBF0C00000013000000DA0000003C0000000600000002000000000000C0FF3F8FC0000000C0A81347C00000000000000DBF000000C0FF3F8FC0000000C0C93447C0000000004079A1BF0C00000013000000
310
E20000003C00000006000000020000000000002000408F40000000C0A81347C000000000000003BF0000002000408F40000000C058AC45C000000000000002BF0C00000013000000EA0000003C0000000600000002000000000000C0FF3F8FC0000000C058AC45C00000000000000CBF0000002000408F40000000C058AC45
310
C000000000000002BF0C00000013000000F20000003C0000000600000002000000000000C0FF3F8FC0000000C0A81347C00000000000000DBF000000C0FF3F8FC0000000C058AC45C00000000000000CBF0C00000013000000FA0000003C00000006000000020000000000002000408F40000000C058AC45C0000000000000
310
02BF0000002000408F40000000409C6145C000000000004ABEBF0C00000013000000020100003C00000006000000020000000000002000408F40000000409C6145C000000000004ABEBF000000C0FF3F8FC0000000409C6145C000000000C049BEBF0C000000130000000A0100003C0000000600000002000000000000C0FF
310
3F8FC0000000C058AC45C00000000000000CBF000000C0FF3F8FC0000000409C6145C000000000C049BEBF0C00000013000000120100003C00000006000000020000000000002000408F40000000C0A92245C0000000009017DDBF0000002000408F40000000409C6145C000000000004ABEBF0C000000130000001A010000
310
3C00000006000000020000000000002000408F40000000C0A92245C0000000009017DDBF000000C0FF3F8FC0000000C0A92245C0000000008017DDBF0C00000013000000220100003C0000000600000002000000000000C0FF3F8FC0000000409C6145C000000000C049BEBF000000C0FF3F8FC0000000C0A92245C0000000
310
008017DDBF0C000000130000002A0100003C00000006000000020000000000002000408F40000000C0A92245C0000000009017DDBF0000002000408F40000000A084F644C000000000A8C1E6BF0C00000013000000320100003C0000000600000002000000000000C0FF3F8FC0000000A084F644C000000000A0C1E6BF0000
310
002000408F40000000A084F644C000000000A8C1E6BF0C000000130000003A0100003C0000000600000002000000000000C0FF3F8FC0000000A084F644C000000000A0C1E6BF000000C0FF3F8FC0000000C0A92245C0000000008017DDBF0C00000013000000420100003C00000006000000020000000000002000408F4000
310
000040EAFD41C0000000801B6210C00000002000408F40000000A084F644C000000000A8C1E6BF0C000000130000004A0100003C0000000600000002000000000000C0FF3F8FC000000040EAFD41C000000080196210C00000002000408F4000000040EAFD41C0000000801B6210C00C00000013000000520100003C000000
310
0600000002000000000000C0FF3F8FC0000000A084F644C000000000A0C1E6BF000000C0FF3F8FC000000040EAFD41C000000080196210C00C000000130000005A0100003C00000006000000020000000000002000408F4000000000ABF63EC000000040C50C21C00000002000408F4000000040EAFD41C0000000801B6210
310
C00C00000013000000620100003C0000000600000002000000000000C0FF3F8FC000000060AAF63EC000000000C50C21C00000002000408F4000000000ABF63EC000000040C50C21C00C000000130000006A0100003C0000000600000002000000000000C0FF3F8FC000000040EAFD41C000000080196210C0000000C0FF3F
310
8FC000000060AAF63EC000000000C50C21C00C00000013000000720100003C00000006000000020000000000002000408F400000004046F33AC0000000004FC42BC00000002000408F4000000000ABF63EC000000040C50C21C00C000000130000007A0100003C0000000600000002000000000000C0FF3F8FC0000000E045
310
F33AC0000000A04FC42BC00000002000408F400000004046F33AC0000000004FC42BC00C00000013000000820100003C0000000600000002000000000000C0FF3F8FC000000060AAF63EC000000000C50C21C0000000C0FF3F8FC0000000E045F33AC0000000A04FC42BC00C000000130000008A0100003C00000006000000
310
02000000000000E0FF3F8F4000000080B11C38C00000004060F233C00000002000408F400000004046F33AC0000000004FC42BC00C00000013000000920100003C00000006000000020000000000002000408FC0000000C0B11C38C0000000E061F233C0000000E0FF3F8F4000000080B11C38C00000004060F233C00C0000
310
00130000009A0100003C0000000600000002000000000000C0FF3F8FC0000000E045F33AC0000000A04FC42BC00000002000408FC0000000C0B11C38C0000000E061F233C00C00000013000000A20100003C0000000600000002000000000000E0FF3F8F4000000040599136C00000006002763AC0000000E0FF3F8F400000
310
0080B11C38C00000004060F233C00C00000013000000AA0100003C00000006000000020000000000002000408FC000000020599136C0000000C003763AC0000000E0FF3F8F4000000040599136C00000006002763AC00C00000013000000B20100003C00000006000000020000000000002000408FC0000000C0B11C38C000
310
0000E061F233C00000002000408FC000000020599136C0000000C003763AC00C00000013000000BA0100003C0000000600000002000000000000E0FF3F8F4000000040599136C00000006002763AC0000000E0FF3F8F4000000040949335C0000000609E563EC00C00000013000000C20100003C0000000600000002000000
310
000000E0FF3F8F4000000040949335C0000000609E563EC00000002000408FC000000020949335C0000000209F563EC00C00000013000000CA0100003C00000006000000020000000000002000408FC000000020599136C0000000C003763AC00000002000408FC000000020949335C0000000209F563EC00C000000130000
310
00D20100003C0000000600000002000000000000E0FF3F8F40000000800DB133C0000000C035EF40C0000000E0FF3F8F4000000040949335C0000000609E563EC00C00000013000000DA0100003C0000000600000002000000000000E0FF3F8F40000000800DB133C0000000C035EF40C00000002000408FC0000000200DB1
310
33C0000000C035EF40C00C00000013000000E20100003C00000006000000020000000000002000408FC000000020949335C0000000209F563EC00000002000408FC0000000200DB133C0000000C035EF40C00C00000013000000EA0100003C0000000600000002000000000000E0FF3F8F4000000080730531C000000040C7
310
6C42C0000000E0FF3F8F40000000800DB133C0000000C035EF40C00C00000013000000F20100003C0000000600000002000000000000E0FF3F8F4000000080730531C000000040C76C42C00000002000408FC000000020730531C000000040C76C42C00C00000013000000FA0100003C000000060000000200000000000020
310
00408FC0000000200DB133C0000000C035EF40C00000002000408FC000000020730531C000000040C76C42C00C00000013000000020200003C0000000600000002000000000000E0FF3F8F4000000080FE6F2BC000000000208E43C0000000E0FF3F8F4000000080730531C000000040C76C42C00C000000130000000A0200
310
003C0000000600000002000000000000E0FF3F8F4000000080FE6F2BC000000000208E43C00000002000408FC000000000FE6F2BC000000000208E43C00C00000013000000120200003C00000006000000020000000000002000408FC000000020730531C000000040C76C42C00000002000408FC000000000FE6F2BC00000
310
0000208E43C00C000000130000001A0200003C0000000600000002000000000000E0FF3F8F40000000C05BF223C0000000C0A74244C0000000E0FF3F8F4000000080FE6F2BC000000000208E43C00C00000013000000220200003C0000000600000002000000000000E0FF3F8F40000000C05BF223C0000000C0A74244C000
310
00002000408FC0000000205BF223C0000000E0A74244C00C000000130000002A0200003C00000006000000020000000000002000408FC000000000FE6F2BC000000000208E43C00000002000408FC0000000205BF223C0000000E0A74244C00C00000013000000320200003C0000000600000002000000000000E0FF3F8F40
310
00000080000018C000000000018044C0000000E0FF3F8F40000000C05BF223C0000000C0A74244C00C000000130000003A0200003C00000006000000020000000000002000408FC000000000000018C000000000018044C0000000E0FF3F8F4000000080000018C000000000018044C00C00000013000000420200003C0000
310
0006000000020000000000002000408FC000000000000018C000000000018044C00000002000408FC0000000205BF223C0000000E0A74244C00C000000130000004A0200003C0000000600000002000000000000E0FF3F8F4000000080000018C000000000018044C0000000E0FF3F8F40000000000400F8BF000000000180
310
44C00C00000013000000520200003C0000000600000002000000000000E0FF3F8F40000000000400F8BF00000000018044C00000002000408FC0000000000200F8BF00000000018044C00C000000130000005A0200003C00000006000000020000000000002000408FC000000000000018C000000000018044C00000002000
310
408FC0000000000200F8BF00000000018044C00C00000013000000620200003C0000000600000002000000000000E0FF3F8F40000000000400F8BF00000000018044C0000000E0FF3F8F400000000098A1EDBF000000809E8E44C00C000000130000006A0200003C00000006000000020000000000002000408FC000000000
310
94A1EDBF000000809E8E44C0000000E0FF3F8F400000000098A1EDBF000000809E8E44C00C00000013000000720200003C00000006000000020000000000002000408FC0000000000200F8BF00000000018044C00000002000408FC00000000094A1EDBF000000809E8E44C00C000000130000007A0200003C000000060000
310
0002000000000000E0FF3F8F4000000000301EDCBF000000403DB844C0000000E0FF3F8F400000000098A1EDBF000000809E8E44C00C00000013000000820200003C00000006000000020000000000002000408FC000000000281EDCBF000000403DB844C0000000E0FF3F8F4000000000301EDCBF000000403DB844C00C00
310
0000130000008A0200003C00000006000000020000000000002000408FC00000000094A1EDBF000000809E8E44C00000002000408FC000000000281EDCBF000000403DB844C00C00000013000000920200003C0000000600000002000000000000E0FF3F8F4000000000403BBDBF0000004087F644C0000000E0FF3F8F4000
310
000000301EDCBF000000403DB844C00C000000130000009A0200003C00000006000000020000000000002000408FC000000000203BBDBF0000006087F644C0000000E0FF3F8F4000000000403BBDBF0000004087F644C00C00000013000000A20200003C00000006000000020000000000002000408FC000000000281EDCBF
310
000000403DB844C00000002000408FC000000000203BBDBF0000006087F644C00C00000013000000AA0200003C0000000600000002000000000000E0FF3F8F40000000000000C0BE00000000014045C0000000E0FF3F8F4000000000403BBDBF0000004087F644C00C00000013000000B20200003C00000006000000020000
310
00000000E0FF3F8F40000000000000C0BE00000000014045C00000002000408FC0000000000000000000000020014045C00C00000013000000BA0200003C00000006000000020000000000002000408FC0000000000000000000000020014045C00000002000408FC000000000203BBDBF0000006087F644C00C0000001300
310
0000C20200003C0000000600000002000000000000E0FF3F8F40000000000000C0BE00000000AAD346C0000000E0FF3F8F40000000000000C0BE00000000014045C00C00000013000000CA0200003C00000006000000020000000000002000408FC0000000000000000000000020AAD346C0000000E0FF3F8F400000000000
310
00C0BE00000000AAD346C00C00000013000000D20200003C00000006000000020000000000002000408FC0000000000000000000000020AAD346C00000002000408FC0000000000000000000000020014045C00C00000013000000DA0200003C0000000600000002000000000000E0FF3F8F40000000000000C0BE00000000
310
AAD346C0000000E0FF3F8F40000000008072A1BF00000000CBF446C00C00000013000000E20200003C0000000600000002000000000000E0FF3F8F40000000008072A1BF00000000CBF446C00000002000408FC0000000004072A1BF00000020CBF446C00C00000013000000EA0200003C0000000600000002000000000000
310
2000408FC0000000000000000000000020AAD346C00000002000408FC0000000004072A1BF00000020CBF446C00C00000013000000F20200003C0000000600000002000000000000E0FF3F8F40000000003026C1BF00000000AA1347C0000000E0FF3F8F40000000008072A1BF00000000CBF446C00C00000013000000FA02
310
00003C00000006000000020000000000002000408FC0000000002026C1BF00000020AA1347C0000000E0FF3F8F40000000003026C1BF00000000AA1347C00C00000013000000020300003C00000006000000020000000000002000408FC0000000002026C1BF00000020AA1347C00000002000408FC0000000004072A1BF00
310
000020CBF446C00C000000130000000A0300003C0000000600000002000000000000E0FF3F8F4000000000E429EDBF0000000001C047C0000000E0FF3F8F40000000003026C1BF00000000AA1347C00C00000013000000120300003C00000006000000020000000000002000408FC000000000F029EDBF0000002001C047C0
310
000000E0FF3F8F4000000000E429EDBF0000000001C047C00C000000130000001A0300003C00000006000000020000000000002000408FC0000000002026C1BF00000020AA1347C00000002000408FC000000000F029EDBF0000002001C047C00C00000013000000220300003C0000000600000002000000000000E0FF3F8F
310
4000000000E429EDBF0000000001C047C0000000E0FF3F8F4000000000B4B9F0BF00000000010048C00C000000130000002A0300003C00000006000000020000000000002000408FC000000000BAB9F0BF00000020010048C0000000E0FF3F8F4000000000B4B9F0BF00000000010048C00C00000013000000320300003C00
310
000006000000020000000000002000408FC000000000F029EDBF0000002001C047C00000002000408FC000000000BAB9F0BF00000020010048C00C000000130000003A0300003C0000000600000002000000000000E0FF3F8F4000000000E429EDBF00000000014048C0000000E0FF3F8F4000000000B4B9F0BF0000000001
310
0048C00C00000013000000420300003C0000000600000002000000000000E0FF3F8F4000000000E429EDBF00000000014048C00000002000408FC000000000F029EDBF00000020014048C00C000000130000004A0300003C00000006000000020000000000002000408FC000000000F029EDBF00000020014048C000000020
310
00408FC000000000BAB9F0BF00000020010048C00C00000013000000520300003C0000000600000002000000000000E0FF3F8F40000000006027C1BF0000004058EC48C0000000E0FF3F8F4000000000E429EDBF00000000014048C00C000000130000005A0300003C0000000600000002000000000000E0FF3F8F40000000
310
006027C1BF0000004058EC48C00000002000408FC0000000009027C1BF0000006058EC48C00C00000013000000620300003C00000006000000020000000000002000408FC000000000F029EDBF00000020014048C00000002000408FC0000000009027C1BF0000006058EC48C00C000000130000006A0300003C0000000600
310
000002000000000000E0FF3F8F40000000006027C1BF0000004058EC48C0000000E0FF3F8F40000000004077A1BF00000040370B49C00C00000013000000720300003C00000006000000020000000000002000408FC0000000000078A1BF00000060370B49C0000000E0FF3F8F40000000004077A1BF00000040370B49C00C
310
000000130000007A0300003C00000006000000020000000000002000408FC0000000009027C1BF0000006058EC48C00000002000408FC0000000000078A1BF00000060370B49C00C00000013000000820300003C0000000600000002000000000000E0FF3F8F4000000000000004BF00000040582C49C0000000E0FF3F8F40
310
000000004077A1BF00000040370B49C00C000000130000008A0300003C0000000600000002000000000000E0FF3F8F4000000000000004BF00000040582C49C00000002000408FC000000000000007BF00000060582C49C00C00000013000000920300003C00000006000000020000000000002000408FC000000000000007
310
BF00000060582C49C00000002000408FC0000000000078A1BF00000060370B49C00C000000130000009A0300003C0000000600000002000000000000E0FF3F8F4000000000000004BF00000040582C49C00000000000408F4000000000000004BF0000000001804BC00C00000013000000A20300003C000000060000000200
310
0000000000C0FF3F8FC000000000000007BF0000002001804BC00000000000408F4000000000000004BF0000000001804BC00C00000013000000AA0300003C00000006000000020000000000002000408FC000000000000007BF00000060582C49C0000000C0FF3F8FC000000000000007BF0000002001804BC00C00000013
310
000000B20300003C00000006000000020000000000000000408F4000000000000004BF0000000001804BC00000000000408F4000000080060018C0000000C0FF7F4BC00C00000013000000BA0300003C0000000600000002000000000000C0FF3F8FC0000000000B0018C0000000C0FF7F4BC00000000000408F4000000080
310
060018C0000000C0FF7F4BC00C00000013000000C20300003C0000000600000002000000000000C0FF3F8FC000000000000007BF0000002001804BC0000000C0FF3F8FC0000000000B0018C0000000C0FF7F4BC00C00000013000000CA0300003C00000006000000020000000000000000408F4000000080060018C0000000
310
C0FF7F4BC0000000E0FF3F8F40000000000A0018C0000000C0FF7F48C00C00000013000000D20300003C00000006000000020000000000002000408FC0000000800B0018C0000000C0FF7F48C0000000E0FF3F8F40000000000A0018C0000000C0FF7F48C00C00000013000000DA0300003C00000006000000020000000000
310
00C0FF3F8FC0000000000B0018C0000000C0FF7F4BC00000002000408FC0000000800B0018C0000000C0FF7F48C00C00000013000000E20300003C0000000600000002000000000000E0FF3F8F40000000000A0018C0000000C0FF7F48C0000000E0FF3F8F40000000402FA723C0000000406C4D48C00C00000013000000EA
310
0300003C00000006000000020000000000002000408FC0000000602FA723C0000000406C4D48C0000000E0FF3F8F40000000402FA723C0000000406C4D48C00C00000013000000F20300003C00000006000000020000000000002000408FC0000000800B0018C0000000C0FF7F48C00000002000408FC0000000602FA723C0
310
000000406C4D48C00C00000013000000FA0300003C0000000600000002000000000000E0FF3F8F4000000080C77028C0000000C0760D48C0000000E0FF3F8F40000000C0AD6D2DC000000000ABA747C00C00000013000000020400003C00000006000000020000000000002000408FC0000000C0AC6D2DC000000020ABA747
310
C0000000E0FF3F8F40000000C0AD6D2DC000000000ABA747C00C000000130000000A0400003C00000006000000020000000000002000408FC0000000C0AC6D2DC000000020ABA747C00000002000408FC000000080C77028C0000000A0760D48C00C00000013000000120400003C0000000600000002000000000000E0FF3F
310
8F4000000080C77028C0000000C0760D48C00000002000408FC000000080C77028C0000000A0760D48C00C000000130000001A0400003C0000000600000002000000000000E0FF3F8F400000000091F430C000000080722A47C0000000E0FF3F8F40000000C0F03B33C0000000A0918546C00C00000013000000220400003C
310
00000006000000020000000000002000408FC000000020F03B33C000000080918546C0000000E0FF3F8F40000000C0F03B33C0000000A0918546C00C000000130000002A0400003C00000006000000020000000000002000408FC000000020F03B33C000000080918546C00000002000408FC00000006090F430C000000080
310
722A47C00C00000013000000320400003C0000000600000002000000000000E0FF3F8F400000000091F430C000000080722A47C00000002000408FC00000006090F430C000000080722A47C00C000000130000003A0400003C0000000600000002000000000000E0FF3F8F40000000A0623A35C0000000205FD045C0000000
310
E0FF3F8F4000000040113237C0000000605EF344C00C00000013000000420400003C00000006000000020000000000002000408FC0000000E00F3237C0000000805EF344C0000000E0FF3F8F4000000040113237C0000000605EF344C00C000000130000004A0400003C00000006000000020000000000002000408FC00000
310
00E00F3237C0000000805EF344C00000002000408FC000000000623A35C0000000E05ED045C00C00000013000000520400003C0000000600000002000000000000E0FF3F8F40000000A0623A35C0000000205FD045C00000002000408FC000000000623A35C0000000E05ED045C00C000000130000005A0400003C00000006
310
00000002000000000000E0FF3F8F4000000080B0DB38C0000000A0D70D44C0000000E0FF3F8F40000000006C6E3AC0000000200A0243C00C00000013000000620400003C00000006000000020000000000002000408FC0000000806B6E3AC0000000000A0243C0000000E0FF3F8F40000000006C6E3AC0000000200A0243C0
310
0C000000130000006A0400003C00000006000000020000000000002000408FC0000000806B6E3AC0000000000A0243C00000002000408FC000000040AFDB38C0000000C0D70D44C00C00000013000000720400003C0000000600000002000000000000E0FF3F8F4000000080B0DB38C0000000A0D70D44C00000002000408F
310
C000000040AFDB38C0000000C0D70D44C00C000000130000007A0400003C0000000600000002000000000000E0FF3F8F400000004042B13BC0000000C0DEF541C0000000E0FF3F8F40000000200CCE3CC00000008092C640C00C00000013000000820400003C00000006000000020000000000002000408FC0000000C00BCE
310
3CC0000000E091C640C0000000E0FF3F8F40000000200CCE3CC00000008092C640C00C000000130000008A0400003C00000006000000020000000000002000408FC0000000C00BCE3CC0000000E091C640C00000002000408FC0000000E041B13BC0000000A0DEF541C00C00000013000000920400003C0000000600000002
310
000000000000E0FF3F8F400000004042B13BC0000000C0DEF541C00000002000408FC0000000E041B13BC0000000A0DEF541C00C000000130000009A0400003C0000000600000002000000000000E0FF3F8F40000000C0799C3DC000000000273E3FC0000000E0FF3F8F40000000E04C373EC00000008029B23CC00C000000
310
13000000A20400003C00000006000000020000000000002000408FC0000000804C373EC0000000E02AB23CC0000000E0FF3F8F40000000E04C373EC00000008029B23CC00C00000013000000AA0400003C00000006000000020000000000002000408FC0000000804C373EC0000000E02AB23CC00000002000408FC0000000
310
80799C3DC0000000E0253E3FC00C00000013000000B20400003C0000000600000002000000000000E0FF3F8F40000000C0799C3DC000000000273E3FC00000002000408FC000000080799C3DC0000000E0253E3FC00C00000013000000BA0400003C0000000600000002000000000000E0FF3F8F40000000A0B3C83EC00000
310
00C0DA4D3AC0000000E0FF3F8F400000000087633FC000000020DCC137C00C00000013000000C20400003C00000006000000020000000000002000408FC00000000087633FC000000060DDC137C0000000E0FF3F8F400000000087633FC000000020DCC137C00C00000013000000CA0400003C000000060000000200000000
310
00002000408FC00000000087633FC000000060DDC137C00000002000408FC000000080B3C83EC000000020DC4D3AC00C00000013000000D20400003C0000000600000002000000000000E0FF3F8F40000000A0B3C83EC0000000C0DA4D3AC00000002000408FC000000080B3C83EC000000020DC4D3AC00C00000013000000
310
DA0400003C0000000600000002000000000000E0FF3F8F4000000080FA1840C000000080DE7235C0000000E0FF3F8F400000004060A740C000000080441433C00C00000013000000E20400003C00000006000000020000000000002000408FC0000000C05FA740C000000000461433C0000000E0FF3F8F400000004060A740
310
C000000080441433C00C00000013000000EA0400003C00000006000000020000000000002000408FC0000000C05FA740C000000000461433C00000002000408FC000000060FA1840C000000080DF7235C00C00000013000000F20400003C0000000600000002000000000000E0FF3F8F4000000080FA1840C000000080DE72
310
35C00000002000408FC000000060FA1840C000000080DF7235C00C00000013000000FA0400003C0000000600000002000000000000C0FF3F8F4000000080CB4841C000000080EDFB30C00000002000408F40000000E0281242C000000000A3C82DC00C00000013000000020500003C0000000600000002000000000000E0FF
310
3F8FC0000000A0281242C000000000A3C82DC00000002000408F40000000E0281242C000000000A3C82DC00C000000130000000A0500003C0000000600000002000000000000E0FF3F8FC0000000A0281242C000000000A3C82DC00000000000408FC0000000C0CA4841C0000000C0EEFB30C00C0000001300000012050000
310
3C0000000600000002000000000000C0FF3F8F4000000080CB4841C000000080EDFB30C00000000000408FC0000000C0CA4841C0000000C0EEFB30C00C000000130000001A0500003C00000006000000020000000000002000408F4000000040F8E642C00000002087322AC00000002000408F4000000000D0E243C0000000
310
4083BE26C00C00000013000000220500003C0000000600000002000000000000C0FF3F8FC0000000E0CFE243C00000004084BE26C00000002000408F4000000000D0E243C00000004083BE26C00C000000130000002A0500003C0000000600000002000000000000C0FF3F8FC0000000E0CFE243C00000004084BE26C00000
310
00C0FF3F8FC000000020F8E642C00000006087322AC00C00000013000000320500003C00000006000000020000000000002000408F4000000040F8E642C00000002087322AC0000000C0FF3F8FC000000020F8E642C00000006087322AC00C000000130000003A0500003C00000006000000020000000000002000408F4000
310
00002009E244C000000000BAE923C00000002000408F4000000040B90546C000000080375621C00C00000013000000420500003C0000000600000002000000000000C0FF3F8FC000000080B90546C000000000385621C00000002000408F4000000040B90546C000000080375621C00C000000130000004A0500003C000000
310
0600000002000000000000C0FF3F8FC000000080B90546C000000000385621C0000000C0FF3F8FC00000000009E244C000000040BBE923C00C00000013000000520500003C00000006000000020000000000002000408F400000002009E244C000000000BAE923C0000000C0FF3F8FC00000000009E244C000000040BBE923
310
C00C000000130000005A0500003C00000006000000020000000000002000408F4000000060962447C000000000ABC21EC00000002000408F40000000E0CF6348C0000000804D941BC00C00000013000000620500003C0000000600000002000000000000C0FF3F8FC0000000E0CF6348C0000000004E941BC0000000200040
310
8F40000000E0CF6348C0000000804D941BC00C000000130000006A0500003C0000000600000002000000000000C0FF3F8FC0000000E0CF6348C0000000004E941BC0000000C0FF3F8FC0000000A0962447C000000080ABC21EC00C00000013000000720500003C00000006000000020000000000002000408F400000006096
310
2447C000000000ABC21EC0000000C0FF3F8FC0000000A0962447C000000080ABC21EC00C000000130000007A0500003C00000006000000020000000000002000408F40000000C000804BC000000000030018C00000002000408F40000000E0359649C0000000009F9419C00C00000013000000820500003C00000006000000
310
02000000000000C0FF3F8FC0000000C000804BC000000000030018C00000002000408F40000000C000804BC000000000030018C00C000000130000008A0500003C0000000600000002000000000000C0FF3F8FC0000000C000804BC000000000030018C0000000C0FF3F8FC0000000E0359649C0000000009F9419C00C0000
310
0013000000920500003C00000006000000020000000000002000408F40000000E0359649C0000000009F9419C0000000C0FF3F8FC0000000E0359649C0000000009F9419C00C000000130000009A0500003C00000006000000020000000000002000408F400000000000804BC0000000000000C03E0000002000408F400000
310
00C000804BC000000000030018C00C00000013000000A20500003C0000000600000002000000000000C0FF3F8FC00000000000804BC0000000000000E8BE000000C0FF3F8FC0000000C000804BC000000000030018C00C00000013000000AA0500003C0000000600000002000000000000E0FF3F8F4000000080C77028C000
310
0000C0760D48C0000000E0FF3F8F40000000402FA723C0000000406C4D48C00C00000013000000B20500003C00000006000000020000000000002000408FC0000000602FA723C0000000406C4D48C00000002000408FC000000080C77028C0000000A0760D48C00C00000013000000BA0500003C0000000600000002000000
310
000000E0FF3F8F400000000091F430C000000080722A47C0000000E0FF3F8F40000000C0AD6D2DC000000000ABA747C00C00000013000000C20500003C00000006000000020000000000002000408FC0000000C0AC6D2DC000000020ABA747C00000002000408FC00000006090F430C000000080722A47C00C000000130000
310
00CA0500003C0000000600000002000000000000E0FF3F8F40000000A0623A35C0000000205FD045C0000000E0FF3F8F40000000C0F03B33C0000000A0918546C00C00000013000000D20500003C00000006000000020000000000002000408FC000000020F03B33C000000080918546C00000002000408FC000000000623A
310
35C0000000E05ED045C00C00000013000000DA0500003C0000000600000002000000000000E0FF3F8F4000000080B0DB38C0000000A0D70D44C0000000E0FF3F8F4000000040113237C0000000605EF344C00C00000013000000E20500003C00000006000000020000000000002000408FC0000000E00F3237C0000000805E
310
F344C00000002000408FC000000040AFDB38C0000000C0D70D44C00C00000013000000EA0500003C0000000600000002000000000000E0FF3F8F400000004042B13BC0000000C0DEF541C0000000E0FF3F8F40000000006C6E3AC0000000200A0243C00C00000013000000F20500003C000000060000000200000000000020
310
00408FC0000000806B6E3AC0000000000A0243C00000002000408FC0000000E041B13BC0000000A0DEF541C00C00000013000000FA0500003C0000000600000002000000000000E0FF3F8F40000000C0799C3DC000000000273E3FC0000000E0FF3F8F40000000200CCE3CC00000008092C640C00C00000013000000020600
310
003C00000006000000020000000000002000408FC0000000C00BCE3CC0000000E091C640C00000002000408FC000000080799C3DC0000000E0253E3FC00C000000130000000A0600003C0000000600000002000000000000E0FF3F8F40000000A0B3C83EC0000000C0DA4D3AC0000000E0FF3F8F40000000E04C373EC00000
310
008029B23CC00C00000013000000120600003C00000006000000020000000000002000408FC0000000804C373EC0000000E02AB23CC00000002000408FC000000080B3C83EC000000020DC4D3AC00C000000130000001A0600003C0000000600000002000000000000E0FF3F8F4000000080FA1840C000000080DE7235C000
310
0000E0FF3F8F400000000087633FC000000020DCC137C00C00000013000000220600003C00000006000000020000000000002000408FC00000000087633FC000000060DDC137C00000002000408FC000000060FA1840C000000080DF7235C00C000000130000002A0600003C0000000600000002000000000000C0FF3F8F40
310
00000080CB4841C000000080EDFB30C0000000E0FF3F8F400000004060A740C000000080441433C00C00000013000000320600003C00000006000000020000000000002000408FC0000000C05FA740C000000000461433C00000000000408FC0000000C0CA4841C0000000C0EEFB30C00C000000130000003A0600003C0000
310
0006000000020000000000002000408F4000000040F8E642C00000002087322AC00000002000408F40000000E0281242C000000000A3C82DC00C00000013000000420600003C0000000600000002000000000000E0FF3F8FC0000000A0281242C000000000A3C82DC0000000C0FF3F8FC000000020F8E642C0000000608732
310
2AC00C000000130000004A0600003C00000006000000020000000000002000408F400000002009E244C000000000BAE923C00000002000408F4000000000D0E243C00000004083BE26C00C00000013000000520600003C0000000600000002000000000000C0FF3F8FC0000000E0CFE243C00000004084BE26C0000000C0FF
310
3F8FC00000000009E244C000000040BBE923C00C000000130000005A0600003C00000006000000020000000000002000408F4000000060962447C000000000ABC21EC00000002000408F4000000040B90546C000000080375621C00C00000013000000620600003C0000000600000002000000000000C0FF3F8FC000000080
310
B90546C000000000385621C0000000C0FF3F8FC0000000A0962447C000000080ABC21EC00C000000130000006A0600003C00000006000000020000000000002000408F40000000E0359649C0000000009F9419C00000002000408F40000000E0CF6348C0000000804D941BC00C00000013000000720600003C000000060000
310
0002000000000000C0FF3F8FC0000000E0CF6348C0000000004E941BC0000000C0FF3F8FC0000000E0359649C0000000009F9419C00C000000130000007A0600003C0000000600000002000000000000C0FF3F8FC0000000C058AC45C00000000000000CBF000000C0FF3F8FC000000080B90546C000000000385621C00C00
310
000013000000820600003C0000000600000002000000000000C0FF3F8FC0000000C0A81347C00000000000000DBF000000C0FF3F8FC0000000A0962447C000000080ABC21EC00C000000130000008A0600003C0000000600000002000000000000C0FF3F8FC000000000576C49C0000000000000E8BE000000C0FF3F8FC000
310
0000E0359649C0000000009F9419C00C00000013000000920600003C0000000600000002000000000000C0FF3F8FC000000000364B49C0000000008073A1BF000000C0FF3F8FC0000000E0359649C0000000009F9419C00C000000130000009A0600003C0000000600000002000000000000C0FF3F8FC000000000572C49C0
310
000000007026C1BF000000C0FF3F8FC0000000E0359649C0000000009F9419C00C00000013000000A20600003C0000000600000002000000000000C0FF3F8FC0000000E0CF6348C0000000004E941BC0000000C0FF3F8FC000000000008048C000000000AC29EDBF0C00000013000000AA0600003C00000006000000020000
310
00000000C0FF3F8FC0000000E0CF6348C0000000004E941BC0000000C0FF3F8FC000000000004048C00000000098B9F0BF0C00000013000000B20600003C0000000600000002000000000000C0FF3F8FC0000000E0CF6348C0000000004E941BC0000000C0FF3F8FC000000000000048C000000000AC29EDBF0C0000001300
310
0000BA0600003C0000000600000002000000000000C0FF3F8FC0000000C0A85347C0000000007026C1BF000000C0FF3F8FC0000000A0962447C000000080ABC21EC00C00000013000000C20600003C0000000600000002000000000000C0FF3F8FC0000000C0C93447C0000000004079A1BF000000C0FF3F8FC0000000A096
310
2447C000000080ABC21EC00C00000013000000CA0600003C0000000600000002000000000000C0FF3F8FC000000080B90546C000000000385621C0000000C0FF3F8FC0000000409C6145C000000000C049BEBF0C00000013000000D20600003C0000000600000002000000000000C0FF3F8FC000000080B90546C000000000
310
385621C0000000C0FF3F8FC0000000C0A92245C0000000008017DDBF0C00000013000000DA0600003C0000000600000002000000000000C0FF3F8FC000000080B90546C000000000385621C0000000C0FF3F8FC0000000A084F644C000000000A0C1E6BF0C00000013000000E20600003C0000000600000002000000000000
310
C0FF3F8FC000000040EAFD41C000000080196210C0000000C0FF3F8FC00000000009E244C000000040BBE923C00C00000013000000EA0600003C00000006000000020000000000002000408FC0000000800B0018C0000000C0FF7F48C00000002000408FC000000000F029EDBF00000020014048C00C00000013000000F206
310
00003C00000006000000020000000000002000408FC0000000800B0018C0000000C0FF7F48C00000002000408FC000000000BAB9F0BF00000020010048C00C00000013000000FA0600003C00000006000000020000000000002000408FC0000000800B0018C0000000C0FF7F48C00000002000408FC000000000F029EDBF00
310
00002001C047C00C00000013000000020700003C0000000600000002000000000000C0FF3F8FC0000000000B0018C0000000C0FF7F4BC00000002000408FC0000000009027C1BF0000006058EC48C00C000000130000000A0700003C0000000600000002000000000000C0FF3F8FC0000000000B0018C0000000C0FF7F4BC0
310
0000002000408FC0000000000078A1BF00000060370B49C00C00000013000000120700003C00000006000000020000000000002000408FC000000000000007BF00000060582C49C0000000C0FF3F8FC0000000000B0018C0000000C0FF7F4BC00C000000130000001A0700003C00000006000000020000000000002000408F
310
C0000000800B0018C0000000C0FF7F48C00000002000408FC0000000002026C1BF00000020AA1347C00C00000013000000220700003C00000006000000020000000000002000408FC0000000800B0018C0000000C0FF7F48C00000002000408FC0000000004072A1BF00000020CBF446C00C000000130000002A0700003C00
310
000006000000020000000000002000408FC0000000000000000000000020AAD346C00000002000408FC0000000800B0018C0000000C0FF7F48C00C00000013000000320700003C00000006000000020000000000002000408FC0000000000000000000000020014045C00000002000408FC0000000800B0018C0000000C0FF
310
7F48C00C000000130000003A0700003C00000006000000020000000000002000408FC0000000800B0018C0000000C0FF7F48C00000002000408FC000000000203BBDBF0000006087F644C00C00000013000000420700003C00000006000000020000000000002000408FC0000000800B0018C0000000C0FF7F48C000000020
310
00408FC000000000281EDCBF000000403DB844C00C000000130000004A0700003C00000006000000020000000000002000408FC0000000800B0018C0000000C0FF7F48C00000002000408FC00000000094A1EDBF000000809E8E44C00C00000013000000520700003C00000006000000020000000000002000408FC0000000
310
800B0018C0000000C0FF7F48C00000002000408FC0000000000200F8BF00000000018044C00C000000130000005A0700003C00000006000000020000000000002000408FC0000000602FA723C0000000406C4D48C00000002000408FC000000000000018C000000000018044C00C00000013000000620700003C0000000600
310
0000020000000000002000408FC000000000000018C000000000018044C00000002000408FC000000080C77028C0000000A0760D48C00C000000130000006A0700003C00000006000000020000000000002000408FC0000000C0AC6D2DC000000020ABA747C00000002000408FC0000000205BF223C0000000E0A74244C00C
310
00000013000000720700003C00000006000000020000000000002000408FC0000000205BF223C0000000E0A74244C00000002000408FC00000006090F430C000000080722A47C00C000000130000007A0700003C00000006000000020000000000002000408FC000000020F03B33C000000080918546C00000002000408FC0
310
00000000FE6F2BC000000000208E43C00C00000013000000820700003C00000006000000020000000000002000408FC000000000FE6F2BC000000000208E43C00000002000408FC000000000623A35C0000000E05ED045C00C000000130000008A0700003C00000006000000020000000000002000408FC0000000E00F3237
310
C0000000805EF344C00000002000408FC000000020730531C000000040C76C42C00C00000013000000920700003C00000006000000020000000000002000408FC000000020730531C000000040C76C42C00000002000408FC000000040AFDB38C0000000C0D70D44C00C000000130000009A0700003C000000060000000200
310
00000000002000408FC0000000806B6E3AC0000000000A0243C00000002000408FC0000000200DB133C0000000C035EF40C00C00000013000000A20700003C00000006000000020000000000002000408FC0000000200DB133C0000000C035EF40C00000002000408FC0000000E041B13BC0000000A0DEF541C00C00000013
310
000000AA0700003C00000006000000020000000000002000408FC0000000C00BCE3CC0000000E091C640C00000002000408FC000000020949335C0000000209F563EC00C00000013000000B20700003C00000006000000020000000000002000408FC000000020949335C0000000209F563EC00000002000408FC000000080
310
799C3DC0000000E0253E3FC00C00000013000000BA0700003C00000006000000020000000000002000408FC0000000804C373EC0000000E02AB23CC00000002000408FC000000020599136C0000000C003763AC00C00000013000000C20700003C00000006000000020000000000002000408FC000000020599136C0000000
310
C003763AC00000002000408FC000000080B3C83EC000000020DC4D3AC00C00000013000000CA0700003C00000006000000020000000000002000408FC00000000087633FC000000060DDC137C00000002000408FC0000000C0B11C38C0000000E061F233C00C00000013000000D20700003C00000006000000020000000000
310
002000408FC0000000C0B11C38C0000000E061F233C00000002000408FC000000060FA1840C000000080DF7235C00C00000013000000DA0700003C00000006000000020000000000002000408FC0000000C05FA740C000000000461433C0000000C0FF3F8FC0000000E045F33AC0000000A04FC42BC00C00000013000000E2
310
0700003C0000000600000002000000000000C0FF3F8FC0000000E045F33AC0000000A04FC42BC00000000000408FC0000000C0CA4841C0000000C0EEFB30C00C00000013000000EA0700003C0000000600000002000000000000E0FF3F8FC0000000A0281242C000000000A3C82DC0000000C0FF3F8FC000000060AAF63EC0
310
00000000C50C21C00C00000013000000F20700003C0000000600000002000000000000C0FF3F8FC000000060AAF63EC000000000C50C21C0000000C0FF3F8FC000000020F8E642C00000006087322AC00C00000013000000FA0700003C0000000600000002000000000000C0FF3F8FC0000000E0CFE243C00000004084BE26
310
C0000000C0FF3F8FC000000040EAFD41C000000080196210C00C00000013000000020800003C00000006000000020000000000002000408F40000000C0A81347C000000000000003BF0000002000408F4000000060962447C000000000ABC21EC00C000000130000000A0800003C0000000600000002000000000000200040
310
8F40000000C058AC45C000000000000002BF0000002000408F4000000040B90546C000000080375621C00C00000013000000120800003C00000006000000020000000000002000408F4000000000576C49C0000000000000C03E0000002000408F40000000E0359649C0000000009F9419C00C000000130000001A0800003C
310
00000006000000020000000000002000408F40000000E0359649C0000000009F9419C00000002000408F4000000000364B49C000000000C071A1BF0C00000013000000220800003C00000006000000020000000000002000408F40000000E0359649C0000000009F9419C00000002000408F4000000000572C49C000000000
310
0026C1BF0C000000130000002A0800003C00000006000000020000000000002000408F4000000000004048C0000000008AB9F0BF0000002000408F40000000E0CF6348C0000000804D941BC00C00000013000000320800003C00000006000000020000000000002000408F4000000000008048C0000000009029EDBF000000
310
2000408F40000000E0CF6348C0000000804D941BC00C000000130000003A0800003C00000006000000020000000000002000408F4000000000000048C0000000009029EDBF0000002000408F40000000E0CF6348C0000000804D941BC00C00000013000000420800003C00000006000000020000000000002000408F400000
310
0060962447C000000000ABC21EC00000002000408F40000000C0A85347C0000000000026C1BF0C000000130000004A0800003C00000006000000020000000000002000408F4000000060962447C000000000ABC21EC00000002000408F40000000C0C93447C000000000C076A1BF0C00000013000000520800003C00000006
310
000000020000000000002000408F40000000409C6145C000000000004ABEBF0000002000408F4000000040B90546C000000080375621C00C000000130000005A0800003C00000006000000020000000000002000408F40000000C0A92245C0000000009017DDBF0000002000408F4000000040B90546C000000080375621C0
310
0C00000013000000620800003C00000006000000020000000000002000408F40000000A084F644C000000000A8C1E6BF0000002000408F4000000040B90546C000000080375621C00C000000130000006A0800003C00000006000000020000000000002000408F400000002009E244C000000000BAE923C00000002000408F
310
4000000040EAFD41C0000000801B6210C00C00000013000000720800003C0000000600000002000000000000E0FF3F8F40000000000A0018C0000000C0FF7F48C0000000E0FF3F8F4000000000B4B9F0BF00000000010048C00C000000130000007A0800003C0000000600000002000000000000E0FF3F8F40000000000A00
310
18C0000000C0FF7F48C0000000E0FF3F8F4000000000E429EDBF00000000014048C00C00000013000000820800003C0000000600000002000000000000E0FF3F8F40000000000A0018C0000000C0FF7F48C0000000E0FF3F8F4000000000E429EDBF0000000001C047C00C000000130000008A0800003C0000000600000002
310
0000000000000000408F4000000080060018C0000000C0FF7F4BC0000000E0FF3F8F40000000006027C1BF0000004058EC48C00C00000013000000920800003C00000006000000020000000000000000408F4000000080060018C0000000C0FF7F4BC0000000E0FF3F8F40000000004077A1BF00000040370B49C00C000000
310
130000009A0800003C0000000600000002000000000000E0FF3F8F4000000000000004BF00000040582C49C00000000000408F4000000080060018C0000000C0FF7F4BC00C00000013000000A20800003C0000000600000002000000000000E0FF3F8F40000000000A0018C0000000C0FF7F48C0000000E0FF3F8F40000000
310
008072A1BF00000000CBF446C00C00000013000000AA0800003C0000000600000002000000000000E0FF3F8F40000000000A0018C0000000C0FF7F48C0000000E0FF3F8F40000000003026C1BF00000000AA1347C00C00000013000000B20800003C0000000600000002000000000000E0FF3F8F40000000000000C0BE0000
310
0000AAD346C0000000E0FF3F8F40000000000A0018C0000000C0FF7F48C00C00000013000000BA0800003C0000000600000002000000000000E0FF3F8F40000000000000C0BE00000000014045C0000000E0FF3F8F40000000000A0018C0000000C0FF7F48C00C00000013000000C20800003C000000060000000200000000
310
0000E0FF3F8F40000000000A0018C0000000C0FF7F48C0000000E0FF3F8F4000000000403BBDBF0000004087F644C00C00000013000000CA0800003C0000000600000002000000000000E0FF3F8F40000000000A0018C0000000C0FF7F48C0000000E0FF3F8F4000000000301EDCBF000000403DB844C00C00000013000000
310
D20800003C0000000600000002000000000000E0FF3F8F40000000000A0018C0000000C0FF7F48C0000000E0FF3F8F400000000098A1EDBF000000809E8E44C00C00000013000000DA0800003C0000000600000002000000000000E0FF3F8F40000000000A0018C0000000C0FF7F48C0000000E0FF3F8F40000000000400F8
310
BF00000000018044C00C00000013000000E20800003C0000000600000002000000000000E0FF3F8F4000000080000018C000000000018044C0000000E0FF3F8F40000000402FA723C0000000406C4D48C00C00000013000000EA0800003C0000000600000002000000000000E0FF3F8F4000000080C77028C0000000C0760D
310
48C0000000E0FF3F8F4000000080000018C000000000018044C00C00000013000000F20800003C0000000600000002000000000000E0FF3F8F40000000C05BF223C0000000C0A74244C0000000E0FF3F8F40000000C0AD6D2DC000000000ABA747C00C00000013000000FA0800003C0000000600000002000000000000E0FF
310
3F8F400000000091F430C000000080722A47C0000000E0FF3F8F40000000C05BF223C0000000C0A74244C00C00000013000000020900003C0000000600000002000000000000E0FF3F8F4000000080FE6F2BC000000000208E43C0000000E0FF3F8F40000000C0F03B33C0000000A0918546C00C000000130000000A090000
310
3C0000000600000002000000000000E0FF3F8F40000000A0623A35C0000000205FD045C0000000E0FF3F8F4000000080FE6F2BC000000000208E43C00C00000013000000120900003C0000000600000002000000000000E0FF3F8F4000000080730531C000000040C76C42C0000000E0FF3F8F4000000040113237C0000000
310
605EF344C00C000000130000001A0900003C0000000600000002000000000000E0FF3F8F4000000080B0DB38C0000000A0D70D44C0000000E0FF3F8F4000000080730531C000000040C76C42C00C00000013000000220900003C0000000600000002000000000000E0FF3F8F40000000800DB133C0000000C035EF40C00000
310
00E0FF3F8F40000000006C6E3AC0000000200A0243C00C000000130000002A0900003C0000000600000002000000000000E0FF3F8F400000004042B13BC0000000C0DEF541C0000000E0FF3F8F40000000800DB133C0000000C035EF40C00C00000013000000320900003C0000000600000002000000000000E0FF3F8F4000
310
000040949335C0000000609E563EC0000000E0FF3F8F40000000200CCE3CC00000008092C640C00C000000130000003A0900003C0000000600000002000000000000E0FF3F8F40000000C0799C3DC000000000273E3FC0000000E0FF3F8F4000000040949335C0000000609E563EC00C00000013000000420900003C000000
310
0600000002000000000000E0FF3F8F4000000040599136C00000006002763AC0000000E0FF3F8F40000000E04C373EC00000008029B23CC00C000000130000004A0900003C0000000600000002000000000000E0FF3F8F40000000A0B3C83EC0000000C0DA4D3AC0000000E0FF3F8F4000000040599136C00000006002763A
310
C00C00000013000000520900003C0000000600000002000000000000E0FF3F8F4000000080B11C38C00000004060F233C0000000E0FF3F8F400000000087633FC000000020DCC137C00C000000130000005A0900003C0000000600000002000000000000E0FF3F8F4000000080FA1840C000000080DE7235C0000000E0FF3F
310
8F4000000080B11C38C00000004060F233C00C00000013000000620900003C00000006000000020000000000002000408F400000004046F33AC0000000004FC42BC0000000E0FF3F8F400000004060A740C000000080441433C00C000000130000006A0900003C0000000600000002000000000000C0FF3F8F4000000080CB
310
4841C000000080EDFB30C00000002000408F400000004046F33AC0000000004FC42BC00C00000013000000720900003C00000006000000020000000000002000408F4000000000ABF63EC000000040C50C21C00000002000408F40000000E0281242C000000000A3C82DC00C000000130000007A0900003C00000006000000
310
020000000000002000408F4000000040F8E642C00000002087322AC00000002000408F4000000000ABF63EC000000040C50C21C00C00000013000000820900003C00000006000000020000000000002000408F4000000040EAFD41C0000000801B6210C00000002000408F4000000000D0E243C00000004083BE26C0
100
AcDbSubDMesh
 71
     2
 72
     0
 91
        0
 92
      138
 10
1000.000061035156
 20
-46.15358734130859
 30
-0.0000362396240234
 10
-999.9998779296875
 20
-46.15358734130859
 30
-0.0000553131103516
 10
-999.9998779296875
 20
-43.34645843505859
 30
-0.0000534057617188
 10
1000.000061035156
 20
-43.34645843505859
 30
-0.0000343322753906
 10
-999.9998779296875
 20
-50.84640502929687
 30
-0.0000114440917969
 10
1000.000061035156
 20
-50.84640502929687
 30
0.0000019073486328
 10
1000.000061035156
 20
-55.0
 30
0.0000019073486328
 10
-999.9998779296875
 20
-55.0
 30
-0.0000114440917969
 10
999.9999389648436
 20
-0.0000381469726563
 30
-50.34644317626953
 10
-1000.000061035156
 20
-0.0000438690185547
 30
-50.3464469909668
 10
-999.9998779296875
 20
-0.0000438690185547
 30
-55.00003433227539
 10
1000.0
 20
-0.0000381469726563
 30
-55.00003051757812
 10
-1000.000061035156
 20
0.0
 30
-45.65362930297851
 10
999.9999389648436
 20
-0.0000019073486328
 30
-45.65362548828125
 10
999.9999389648436
 20
-0.0000019073486328
 30
-42.50003051757812
 10
-1000.000061035156
 20
0.0
 30
-42.50003433227539
 10
-999.9998779296875
 20
-6.000041961669921
 30
-54.99999237060547
 10
1000.0
 20
-6.000024795532226
 30
-54.99999237060547
 10
-1000.000061035156
 20
-6.000043869018554
 30
-48.99999237060547
 10
999.9999389648436
 20
-6.000038146972656
 30
-48.99999237060547
 10
-1000.000061035156
 20
-30.21601104736328
 30
-28.69596672058106
 10
999.9999389648436
 20
-30.78399085998535
 30
-26.30411911010742
 10
999.9999389648436
 20
-29.61123275756836
 30
-31.24278259277344
 10
999.9999389648436
 20
-27.69241714477539
 30
-35.92086029052734
 10
999.9999389648436
 20
-24.85816192626953
 30
-40.1081428527832
 10
999.9999389648436
 20
-21.22806739807129
 30
-43.62790298461914
 10
999.9999389648436
 20
-16.95533752441406
 30
-46.33161926269531
 10
999.9999389648436
 20
-12.22027206420898
 30
-48.10518646240234
 10
-1000.000061035156
 20
-9.826533317565917
 30
-48.60486602783203
 10
-1000.000061035156
 20
-14.71420860290527
 30
-47.30990982055664
 10
-1000.000061035156
 20
-19.23413276672363
 30
-45.04350280761719
 10
-1000.000061035156
 20
-23.19555473327637
 30
-41.90132141113281
 10
-1000.000061035156
 20
-26.43132781982422
 30
-38.01593017578125
 10
-1000.000061035156
 20
-28.80486679077149
 30
-33.55132675170898
 10
-999.9998779296875
 20
-55.00002288818359
 30
-6.000011444091796
 10
1000.000061035156
 20
-55.00002288818359
 30
-6.000011444091796
 10
1000.000061035156
 20
-51.17351913452148
 30
-6.395137786865234
 10
1000.000061035156
 20
-46.28583908081054
 30
-7.690105438232421
 10
1000.000061035156
 20
-41.76590347290039
 30
-9.956497192382812
 10
1000.000061035156
 20
-37.80445098876953
 30
-13.09868717193603
 10
999.9998779296875
 20
-34.56871032714844
 30
-16.98409271240234
 10
999.9999389648436
 20
-32.19514465332031
 30
-21.44870758056641
 10
-1000.000061035156
 20
-31.38877868652344
 30
-23.75728416442871
 10
-1000.000061035156
 20
-33.30760955810547
 30
-19.07919311523437
 10
-999.9999389648436
 20
-36.14186477661133
 30
-14.89186859130859
 10
-999.9998779296875
 20
-39.77196884155274
 30
-11.37210273742676
 10
-999.9998779296875
 20
-44.04472351074218
 30
-8.66839599609375
 10
-999.9998779296875
 20
-48.77978134155274
 30
-6.894828796386718
 10
999.9999389648436
 20
-0.1340141296386719
 30
-49.84644317626953
 10
999.9999389648436
 20
-0.9113636016845703
 30
-48.50003051757813
 10
-1000.000061035156
 20
-0.9113693237304687
 30
-48.50003433227539
 10
-1000.000061035156
 20
-0.1340198516845703
 30
-49.8464469909668
 10
-1000.000061035156
 20
-0.1339759826660156
 30
-46.15362930297851
 10
-1000.000061035156
 20
-0.9113693237304687
 30
-47.50003433227539
 10
999.9999389648436
 20
-0.9113636016845703
 30
-47.50003051757812
 10
999.9999389648436
 20
-0.1339778900146484
 30
-46.15362548828125
 10
-999.9998779296875
 20
-41.92592239379883
 30
-0.7111358642578125
 10
-999.9998779296875
 20
-35.98371124267578
 30
-4.095800399780273
 10
-999.9998779296875
 20
-30.96353721618652
 30
-8.524940490722656
 10
-999.9998779296875
 20
-26.95028495788574
 30
-13.88341999053955
 10
-1000.000061035156
 20
-24.11208724975586
 30
-19.94680595397949
 10
-1000.000061035156
 20
-22.5677661895752
 30
-26.46099472045899
 10
999.9999389648436
 20
-22.56776809692383
 30
-26.46097373962402
 10
999.9999389648436
 20
-24.11208343505859
 30
-19.94678115844726
 10
1000.000061035156
 20
-26.95029067993164
 30
-13.88341522216797
 10
1000.000061035156
 20
-30.96354675292969
 30
-8.524942398071289
 10
1000.000061035156
 20
-35.98371124267578
 30
-4.095808029174804
 10
1000.000061035156
 20
-46.65358734130859
 30
-0.13397216796875
 10
1000.000061035156
 20
-48.0
 30
-0.9113235473632812
 10
-999.9998779296875
 20
-48.0
 30
-0.9113368988037109
 10
-999.9998779296875
 20
-46.65358734130859
 30
-0.1339855194091797
 10
-999.9998779296875
 20
-50.34640502929687
 30
-0.1339855194091797
 10
-999.9998779296875
 20
-49.0
 30
-0.9113368988037109
 10
1000.000061035156
 20
-49.0
 30
-0.9113235473632812
 10
1000.000061035156
 20
-50.34640502929687
 30
-0.13397216796875
 10
-1000.000061035156
 20
-6.0
 30
-41.00003051757812
 10
999.9999389648436
 20
-6.000001907348632
 30
-41.00003051757812
 10
999.9999389648436
 20
-9.973356246948242
 30
-40.52074432373046
 10
999.9999389648436
 20
-13.7187385559082
 30
-39.1103515625
 10
999.9999389648436
 20
-17.02129364013672
 30
-36.84983062744141
 10
999.9999389648436
 20
-19.69161224365234
 30
-33.86882781982422
 10
999.9999389648436
 20
-21.57648086547852
 30
-30.33835411071777
 10
-1000.000061035156
 20
-21.57647895812988
 30
-30.33836555480957
 10
-1000.000061035156
 20
-19.69160652160644
 30
-33.86882781982422
 10
-1000.000061035156
 20
-17.02128791809082
 30
-36.84983062744141
 10
-1000.000061035156
 20
-13.71873474121094
 30
-39.1103515625
 10
-1000.000061035156
 20
-9.97335147857666
 30
-40.52074813842773
 10
999.9999389648436
 20
-1.500003814697265
 30
-41.00003051757812
 10
-1000.000061035156
 20
-1.500001907348632
 30
-41.00003051757812
 10
-1000.000061035156
 20
-0.925973892211914
 30
-41.11421203613281
 10
-1000.000061035156
 20
-0.4393405914306641
 30
-41.43936920166015
 10
-1000.000061035156
 20
-0.1141834259033203
 30
-41.92600631713867
 10
999.9999389648436
 20
-0.1141853332519531
 30
-41.9260025024414
 10
999.9999389648436
 20
-0.4393424987792969
 30
-41.43936920166015
 10
999.9999389648436
 20
-0.9259757995605468
 30
-41.11421203613281
 10
1000.000061035156
 20
-42.27080535888672
 30
-0.4545631408691407
 10
1000.000061035156
 20
-42.76258087158203
 30
-0.118316650390625
 10
-999.9998779296875
 20
-42.76258087158203
 30
-0.1183128356933594
 10
-999.9998779296875
 20
-42.27080535888672
 30
-0.454559326171875
 10
1000.000061035156
 20
-41.92592239379883
 30
-0.7111396789550782
 10
-999.9998779296875
 20
-48.5
 30
-1.045310974121093
 10
1000.000061035156
 20
-48.5
 30
-1.045297622680664
 10
-1000.000061035156
 20
-1.045343399047851
 30
-48.00003433227539
 10
999.9999389648436
 20
-1.045337677001953
 30
-48.00003051757812
 10
-1000.000061035156
 20
-0.03411865234375
 30
-50.08762741088867
 10
999.9999389648436
 20
-0.0341129302978516
 30
-50.0876235961914
 10
999.9999389648436
 20
-0.0340766906738281
 30
-45.91244506835937
 10
-1000.000061035156
 20
-0.0340747833251953
 30
-45.91244888305664
 10
-999.9998779296875
 20
-46.41240692138672
 30
-0.0341281890869141
 10
1000.000061035156
 20
-46.41240692138672
 30
-0.0341091156005859
 10
1000.000061035156
 20
-50.58758544921875
 30
-0.0340709686279297
 10
-999.9998779296875
 20
-50.58758544921875
 30
-0.0340843200683594
 10
-1000.000061035156
 20
-30.78398895263672
 30
-26.30414009094238
 10
999.9999389648436
 20
-30.21601676940918
 30
-28.69594573974609
 10
999.9999389648436
 20
-28.80487251281738
 30
-33.55134582519531
 10
999.9999389648436
 20
-26.43133544921875
 30
-38.01593399047852
 10
999.9999389648436
 20
-23.19557571411133
 30
-41.90131759643555
 10
999.9999389648436
 20
-19.23414230346679
 30
-45.04350662231445
 10
999.9999389648436
 20
-14.7142162322998
 30
-47.30990600585937
 10
999.9999389648436
 20
-9.826532363891601
 30
-48.60486602783203
 10
-1000.000061035156
 20
-12.22027206420898
 30
-48.10518264770507
 10
-1000.000061035156
 20
-16.9553279876709
 30
-46.33161926269531
 10
-1000.000061035156
 20
-21.22805786132813
 30
-43.62789535522461
 10
-1000.000061035156
 20
-24.8581428527832
 30
-40.10814666748046
 10
-1000.000061035156
 20
-27.69241142272949
 30
-35.92085647583008
 10
-1000.000061035156
 20
-29.6112289428711
 30
-31.24276542663575
 10
1000.000061035156
 20
-48.77978134155274
 30
-6.894826889038085
 10
1000.000061035156
 20
-44.04471588134765
 30
-8.668392181396484
 10
1000.000061035156
 20
-39.77197265625
 30
-11.37209510803222
 10
1000.000061035156
 20
-36.14187240600586
 30
-14.89186859130859
 10
999.9999389648436
 20
-33.30762481689453
 30
-19.07917022705078
 10
999.9999389648436
 20
-31.38877868652344
 30
-23.75726509094238
 10
-1000.000061035156
 20
-32.19514083862305
 30
-21.44872283935547
 10
-1000.0
 20
-34.56868743896484
 30
-16.98411178588867
 10
-999.9998779296875
 20
-37.80444717407227
 30
-13.09868907928467
 10
-999.9998779296875
 20
-41.76589965820312
 30
-9.956506729125976
 10
-999.9998779296875
 20
-46.28584671020507
 30
-7.690107345581054
 10
-999.9998779296875
 20
-51.17351913452148
 30
-6.395137786865234
 93
      779
 90
        4
 90
        6
 90
        5
 90
        4
 90
        7
 90
        4
 90
        5
 90
      110
 90
      111
 90
        4
 90
        4
 90
      110
 90
       74
 90
       71
 90
      111
 90
        4
 90
       74
 90
       73
 90
       72
 90
       71
 90
        4
 90
       73
 90
      101
 90
      100
 90
       72
 90
        4
 90
      101
 90
       68
 90
       69
 90
      100
 90
        4
 90
       68
 90
       67
 90
       70
 90
       69
 90
        4
 90
       67
 90
      109
 90
      108
 90
       70
 90
        4
 90
      109
 90
        0
 90
        1
 90
      108
 90
        4
 90
        0
 90
        3
 90
        2
 90
        1
 90
        4
 90
        3
 90
       96
 90
       97
 90
        2
 90
        4
 90
       96
 90
       95
 90
       98
 90
       97
 90
        4
 90
       95
 90
       99
 90
       56
 90
       98
 90
        4
 90
       99
 90
       66
 90
       57
 90
       56
 90
        4
 90
       66
 90
       65
 90
       58
 90
       57
 90
        4
 90
       65
 90
       64
 90
       59
 90
       58
 90
        4
 90
       64
 90
       63
 90
       60
 90
       59
 90
        4
 90
       63
 90
       62
 90
       61
 90
       60
 90
        4
 90
       62
 90
       81
 90
       82
 90
       61
 90
        4
 90
       81
 90
       80
 90
       83
 90
       82
 90
        4
 90
       80
 90
       79
 90
       84
 90
       83
 90
        4
 90
       79
 90
       78
 90
       85
 90
       84
 90
        4
 90
       78
 90
       77
 90
       86
 90
       85
 90
        4
 90
       77
 90
       76
 90
       75
 90
       86
 90
        4
 90
       76
 90
       87
 90
       88
 90
       75
 90
        4
 90
       87
 90
       94
 90
       89
 90
       88
 90
        4
 90
       94
 90
       93
 90
       90
 90
       89
 90
        4
 90
       93
 90
       92
 90
       91
 90
       90
 90
        4
 90
       92
 90
       14
 90
       15
 90
       91
 90
        4
 90
       14
 90
       13
 90
       12
 90
       15
 90
        4
 90
       13
 90
      106
 90
      107
 90
       12
 90
        4
 90
      106
 90
       55
 90
       52
 90
      107
 90
        4
 90
       55
 90
       54
 90
       53
 90
       52
 90
        4
 90
       54
 90
      103
 90
      102
 90
       53
 90
        4
 90
      103
 90
       49
 90
       50
 90
      102
 90
        4
 90
       49
 90
       48
 90
       51
 90
       50
 90
        4
 90
       48
 90
      105
 90
      104
 90
       51
 90
        4
 90
      105
 90
        8
 90
        9
 90
      104
 90
        4
 90
        8
 90
       11
 90
       10
 90
        9
 90
        4
 90
       11
 90
       17
 90
       16
 90
       10
 90
        4
 90
       17
 90
       19
 90
       18
 90
       16
 90
        4
 90
       19
 90
      119
 90
       28
 90
       18
 90
        4
 90
       27
 90
      118
 90
       29
 90
      120
 90
        4
 90
       26
 90
      117
 90
       30
 90
      121
 90
        4
 90
       25
 90
      116
 90
       31
 90
      122
 90
        4
 90
       24
 90
      115
 90
       32
 90
      123
 90
        4
 90
       23
 90
      114
 90
       33
 90
      124
 90
        4
 90
       22
 90
      113
 90
       20
 90
      125
 90
        4
 90
       21
 90
      131
 90
       42
 90
      112
 90
        4
 90
       41
 90
      130
 90
       43
 90
      132
 90
        4
 90
       40
 90
      129
 90
       44
 90
      133
 90
        4
 90
       39
 90
      128
 90
       45
 90
      134
 90
        4
 90
       38
 90
      127
 90
       46
 90
      135
 90
        4
 90
       37
 90
      126
 90
       47
 90
      136
 90
        4
 90
       36
 90
       35
 90
       34
 90
      137
 90
        4
 90
       35
 90
        6
 90
        7
 90
       34
 90
        4
 90
      119
 90
       27
 90
      120
 90
       28
 90
        4
 90
      118
 90
       26
 90
      121
 90
       29
 90
        4
 90
      117
 90
       25
 90
      122
 90
       30
 90
        4
 90
      116
 90
       24
 90
      123
 90
       31
 90
        4
 90
      115
 90
       23
 90
      124
 90
       32
 90
        4
 90
      114
 90
       22
 90
      125
 90
       33
 90
        4
 90
      113
 90
       21
 90
      112
 90
       20
 90
        4
 90
      131
 90
       41
 90
      132
 90
       42
 90
        4
 90
      130
 90
       40
 90
      133
 90
       43
 90
        4
 90
      129
 90
       39
 90
      134
 90
       44
 90
        4
 90
      128
 90
       38
 90
      135
 90
       45
 90
        4
 90
      127
 90
       37
 90
      136
 90
       46
 90
        4
 90
      126
 90
       36
 90
      137
 90
       47
 90
        4
 90
        2
 90
       46
 90
      136
 90
        1
 90
        4
 90
      137
 90
       34
 90
        7
 90
        4
 90
        3
 90
      137
 90
        4
 90
      111
 90
        3
 90
      137
 90
      111
 90
       71
 90
        3
 90
       47
 90
       72
 90
      100
 90
        3
 90
       47
 90
      100
 90
       69
 90
        4
 90
       47
 90
      137
 90
       71
 90
       72
 90
        4
 90
      136
 90
       47
 90
       69
 90
       70
 90
        3
 90
      136
 90
       70
 90
      108
 90
        3
 90
      136
 90
      108
 90
        1
 90
        3
 90
        2
 90
       97
 90
       46
 90
        3
 90
       97
 90
       98
 90
       46
 90
        3
 90
       98
 90
       56
 90
       46
 90
        4
 90
       56
 90
       57
 90
      135
 90
       46
 90
        3
 90
      102
 90
       50
 90
       18
 90
        3
 90
       53
 90
      102
 90
       18
 90
        4
 90
       50
 90
       51
 90
       16
 90
       18
 90
        3
 90
       51
 90
      104
 90
       16
 90
        3
 90
      104
 90
        9
 90
       16
 90
        3
 90
        9
 90
       10
 90
       16
 90
        3
 90
      107
 90
       52
 90
       18
 90
        3
 90
       52
 90
       53
 90
       18
 90
        3
 90
       12
 90
      107
 90
       18
 90
        3
 90
       15
 90
       12
 90
       18
 90
        3
 90
       91
 90
       15
 90
       18
 90
        3
 90
       90
 90
       91
 90
       18
 90
        3
 90
       89
 90
       90
 90
       18
 90
        3
 90
       88
 90
       89
 90
       18
 90
        4
 90
       75
 90
       88
 90
       18
 90
       28
 90
        3
 90
       75
 90
       28
 90
      120
 90
        4
 90
       86
 90
       75
 90
      120
 90
       29
 90
        3
 90
       86
 90
       29
 90
      121
 90
        4
 90
       85
 90
       86
 90
      121
 90
       30
 90
        3
 90
       85
 90
       30
 90
      122
 90
        4
 90
       84
 90
       85
 90
      122
 90
       31
 90
        3
 90
       84
 90
       31
 90
      123
 90
        4
 90
       83
 90
       84
 90
      123
 90
       32
 90
        3
 90
       83
 90
       32
 90
      124
 90
        4
 90
       82
 90
       83
 90
      124
 90
       33
 90
        3
 90
       82
 90
       33
 90
      125
 90
        4
 90
       61
 90
       82
 90
      125
 90
       20
 90
        3
 90
       61
 90
       20
 90
      112
 90
        4
 90
       60
 90
       61
 90
      112
 90
       42
 90
        3
 90
       60
 90
       42
 90
      132
 90
        4
 90
       59
 90
       60
 90
      132
 90
       43
 90
        3
 90
       59
 90
       43
 90
      133
 90
        4
 90
       58
 90
       59
 90
      133
 90
       44
 90
        3
 90
       58
 90
       44
 90
      134
 90
        4
 90
       57
 90
       58
 90
      134
 90
       45
 90
        3
 90
       57
 90
       45
 90
      135
 90
        4
 90
        3
 90
        0
 90
       37
 90
      127
 90
        4
 90
       36
 90
        5
 90
        6
 90
       35
 90
        3
 90
       36
 90
      110
 90
        5
 90
        3
 90
       36
 90
       74
 90
      110
 90
        3
 90
      126
 90
      101
 90
       73
 90
        3
 90
      126
 90
       68
 90
      101
 90
        4
 90
      126
 90
       73
 90
       74
 90
       36
 90
        4
 90
       37
 90
       67
 90
       68
 90
      126
 90
        3
 90
       37
 90
      109
 90
       67
 90
        3
 90
       37
 90
        0
 90
      109
 90
        3
 90
        3
 90
      127
 90
       96
 90
        3
 90
       96
 90
      127
 90
       95
 90
        3
 90
       95
 90
      127
 90
       99
 90
        4
 90
       99
 90
      127
 90
       38
 90
       66
 90
        3
 90
      103
 90
       19
 90
       49
 90
        3
 90
       54
 90
       19
 90
      103
 90
        4
 90
       49
 90
       19
 90
       17
 90
       48
 90
        3
 90
       48
 90
       17
 90
      105
 90
        3
 90
      105
 90
       17
 90
        8
 90
        3
 90
        8
 90
       17
 90
       11
 90
        3
 90
      106
 90
       19
 90
       55
 90
        3
 90
       55
 90
       19
 90
       54
 90
        3
 90
       13
 90
       19
 90
      106
 90
        3
 90
       14
 90
       19
 90
       13
 90
        3
 90
       92
 90
       19
 90
       14
 90
        3
 90
       93
 90
       19
 90
       92
 90
        3
 90
       94
 90
       19
 90
       93
 90
        3
 90
       87
 90
       19
 90
       94
 90
        4
 90
       76
 90
      119
 90
       19
 90
       87
 90
        3
 90
       76
 90
       27
 90
      119
 90
        4
 90
       77
 90
      118
 90
       27
 90
       76
 90
        3
 90
       77
 90
       26
 90
      118
 90
        4
 90
       78
 90
      117
 90
       26
 90
       77
 90
        3
 90
       78
 90
       25
 90
      117
 90
        4
 90
       79
 90
      116
 90
       25
 90
       78
 90
        3
 90
       79
 90
       24
 90
      116
 90
        4
 90
       80
 90
      115
 90
       24
 90
       79
 90
        3
 90
       80
 90
       23
 90
      115
 90
        4
 90
       81
 90
      114
 90
       23
 90
       80
 90
        3
 90
       81
 90
       22
 90
      114
 90
        4
 90
       62
 90
      113
 90
       22
 90
       81
 90
        3
 90
       62
 90
       21
 90
      113
 90
        4
 90
       63
 90
      131
 90
       21
 90
       62
 90
        3
 90
       63
 90
       41
 90
      131
 90
        4
 90
       64
 90
      130
 90
       41
 90
       63
 90
        3
 90
       64
 90
       40
 90
      130
 90
        4
 90
       65
 90
      129
 90
       40
 90
       64
 90
        3
 90
       65
 90
       39
 90
      129
 90
        4
 90
       66
 90
      128
 90
       39
 90
       65
 90
        3
 90
       66
 90
       38
 90
      128
 94
      305
 90
        5
 90
        6
 90
        4
 90
        5
 90
        4
 90
        7
 90
        6
 90
        7
 90
        5
 90
      110
 90
      110
 90
      111
 90
        4
 90
      111
 90
       74
 90
      110
 90
       71
 90
       74
 90
       71
 90
      111
 90
       73
 90
       74
 90
       72
 90
       73
 90
       71
 90
       72
 90
       73
 90
      101
 90
      100
 90
      101
 90
       72
 90
      100
 90
       68
 90
      101
 90
       68
 90
       69
 90
       69
 90
      100
 90
       67
 90
       68
 90
       67
 90
       70
 90
       69
 90
       70
 90
       67
 90
      109
 90
      108
 90
      109
 90
       70
 90
      108
 90
        0
 90
      109
 90
        0
 90
        1
 90
        1
 90
      108
 90
        0
 90
        3
 90
        2
 90
        3
 90
        1
 90
        2
 90
        3
 90
       96
 90
       96
 90
       97
 90
        2
 90
       97
 90
       95
 90
       96
 90
       95
 90
       98
 90
       97
 90
       98
 90
       95
 90
       99
 90
       56
 90
       99
 90
       56
 90
       98
 90
       66
 90
       99
 90
       57
 90
       66
 90
       56
 90
       57
 90
       65
 90
       66
 90
       58
 90
       65
 90
       57
 90
       58
 90
       64
 90
       65
 90
       59
 90
       64
 90
       58
 90
       59
 90
       63
 90
       64
 90
       60
 90
       63
 90
       59
 90
       60
 90
       62
 90
       63
 90
       61
 90
       62
 90
       60
 90
       61
 90
       62
 90
       81
 90
       81
 90
       82
 90
       61
 90
       82
 90
       80
 90
       81
 90
       80
 90
       83
 90
       82
 90
       83
 90
       79
 90
       80
 90
       79
 90
       84
 90
       83
 90
       84
 90
       78
 90
       79
 90
       78
 90
       85
 90
       84
 90
       85
 90
       77
 90
       78
 90
       77
 90
       86
 90
       85
 90
       86
 90
       76
 90
       77
 90
       75
 90
       76
 90
       75
 90
       86
 90
       76
 90
       87
 90
       87
 90
       88
 90
       75
 90
       88
 90
       87
 90
       94
 90
       89
 90
       94
 90
       88
 90
       89
 90
       93
 90
       94
 90
       90
 90
       93
 90
       89
 90
       90
 90
       92
 90
       93
 90
       91
 90
       92
 90
       90
 90
       91
 90
       14
 90
       92
 90
       14
 90
       15
 90
       15
 90
       91
 90
       13
 90
       14
 90
       12
 90
       13
 90
       12
 90
       15
 90
       13
 90
      106
 90
      106
 90
      107
 90
       12
 90
      107
 90
       55
 90
      106
 90
       52
 90
       55
 90
       52
 90
      107
 90
       54
 90
       55
 90
       53
 90
       54
 90
       52
 90
       53
 90
       54
 90
      103
 90
      102
 90
      103
 90
       53
 90
      102
 90
       49
 90
      103
 90
       49
 90
       50
 90
       50
 90
      102
 90
       48
 90
       49
 90
       48
 90
       51
 90
       50
 90
       51
 90
       48
 90
      105
 90
      104
 90
      105
 90
       51
 90
      104
 90
        8
 90
      105
 90
        8
 90
        9
 90
        9
 90
      104
 90
        8
 90
       11
 90
       10
 90
       11
 90
        9
 90
       10
 90
       11
 90
       17
 90
       16
 90
       17
 90
       10
 90
       16
 90
       17
 90
       19
 90
       18
 90
       19
 90
       16
 90
       18
 90
       19
 90
      119
 90
       28
 90
      119
 90
       18
 90
       28
 90
       27
 90
      118
 90
       29
 90
      118
 90
       29
 90
      120
 90
       27
 90
      120
 90
       26
 90
      117
 90
       30
 90
      117
 90
       30
 90
      121
 90
       26
 90
      121
 90
       25
 90
      116
 90
       31
 90
      116
 90
       31
 90
      122
 90
       25
 90
      122
 90
       24
 90
      115
 90
       32
 90
      115
 90
       32
 90
      123
 90
       24
 90
      123
 90
       23
 90
      114
 90
       33
 90
      114
 90
       33
 90
      124
 90
       23
 90
      124
 90
       22
 90
      113
 90
       20
 90
      113
 90
       20
 90
      125
 90
       22
 90
      125
 90
       21
 90
      131
 90
       42
 90
      131
 90
       42
 90
      112
 90
       21
 90
      112
 90
       41
 90
      130
 90
       43
 90
      130
 90
       43
 90
      132
 90
       41
 90
      132
 90
       40
 90
      129
 90
       44
 90
      129
 90
       44
 90
      133
 90
       40
 90
      133
 90
       39
 90
      128
 90
       45
 90
      128
 90
       45
 90
      134
 90
       39
 90
      134
 90
       38
 90
      127
 90
       46
 90
      127
 90
       46
 90
      135
 90
       38
 90
      135
 90
       37
 90
      126
 90
       47
 90
      126
 90
       47
 90
      136
 90
       37
 90
      136
 90
       35
 90
       36
 90
       34
 90
       35
 90
       34
 90
      137
 90
       36
 90
      137
 90
        6
 90
       35
 90
        7
 90
       34
 90
       27
 90
      119
 90
       28
 90
      120
 90
       26
 90
      118
 90
       29
 90
      121
 90
       25
 90
      117
 90
       30
 90
      122
 90
       24
 90
      116
 90
       31
 90
      123
 90
       23
 90
      115
 90
       32
 90
      124
 90
       22
 90
      114
 90
       33
 90
      125
 90
       21
 90
      113
 90
       20
 90
      112
 90
       41
 90
      131
 90
       42
 90
      132
 90
       40
 90
      130
 90
       43
 90
      133
 90
       39
 90
      129
 90
       44
 90
      134
 90
       38
 90
      128
 90
       45
 90
      135
 90
       37
 90
      127
 90
       46
 90
      136
 90
       36
 90
      126
 90
       47
 90
      137
 90
        2
 90
       46
 90
        1
 90
      136
 90
        4
 90
      137
 90
      111
 90
      137
 90
       71
 90
      137
 90
       47
 90
       72
 90
       47
 90
      100
 90
       47
 90
       69
 90
       70
 90
      136
 90
      108
 90
      136
 90
       46
 90
       97
 90
       46
 90
       98
 90
       46
 90
       56
 90
       57
 90
      135
 90
       18
 90
       50
 90
       18
 90
      102
 90
       18
 90
       53
 90
       16
 90
       51
 90
       16
 90
      104
 90
        9
 90
       16
 90
       18
 90
       52
 90
       18
 90
      107
 90
       12
 90
       18
 90
       15
 90
       18
 90
       18
 90
       91
 90
       18
 90
       90
 90
       18
 90
       89
 90
       18
 90
       88
 90
       28
 90
       75
 90
       75
 90
      120
 90
       29
 90
       86
 90
       86
 90
      121
 90
       30
 90
       85
 90
       85
 90
      122
 90
       31
 90
       84
 90
       84
 90
      123
 90
       32
 90
       83
 90
       83
 90
      124
 90
       33
 90
       82
 90
       82
 90
      125
 90
       20
 90
       61
 90
       61
 90
      112
 90
       42
 90
       60
 90
       60
 90
      132
 90
       43
 90
       59
 90
       59
 90
      133
 90
       44
 90
       58
 90
       58
 90
      134
 90
       45
 90
       57
 90
        0
 90
       37
 90
        3
 90
      127
 90
        5
 90
       36
 90
       36
 90
      110
 90
       36
 90
       74
 90
      101
 90
      126
 90
       73
 90
      126
 90
       68
 90
      126
 90
       37
 90
       67
 90
       37
 90
      109
 90
       96
 90
      127
 90
       95
 90
      127
 90
       99
 90
      127
 90
       38
 90
       66
 90
       19
 90
      103
 90
       19
 90
       49
 90
       19
 90
       54
 90
       17
 90
       48
 90
       17
 90
      105
 90
        8
 90
       17
 90
       19
 90
      106
 90
       19
 90
       55
 90
       13
 90
       19
 90
       14
 90
       19
 90
       19
 90
       92
 90
       19
 90
       93
 90
       19
 90
       94
 90
       19
 90
       87
 90
       76
 90
      119
 90
       27
 90
       76
 90
       77
 90
      118
 90
       26
 90
       77
 90
       78
 90
      117
 90
       25
 90
       78
 90
       79
 90
      116
 90
       24
 90
       79
 90
       80
 90
      115
 90
       23
 90
       80
 90
       81
 90
      114
 90
       22
 90
       81
 90
       62
 90
      113
 90
       21
 90
       62
 90
       63
 90
      131
 90
       41
 90
       63
 90
       64
 90
      130
 90
       40
 90
       64
 90
       65
 90
      129
 90
       39
 90
       65
 90
       66
 90
      128
 95
      305
140
0.0
140
0.0
140
0.0
140
0.0
140
0.0
140
0.0
140
0.0
140
0.0
140
0.0
140
0.0
140
0.0
140
0.0
140
0.0
140
0.0
140
0.0
140
0.0
140
0.0
140
0.0
140
0.0
140
0.0
140
0.0
140
0.0
140
0.0
140
0.0
140
0.0
140
0.0
140
0.0
140
0.0
140
0.0
140
0.0
140
0.0
140
0.0
140
0.0
140
0.0
140
0.0
140
0.0
140
0.0
140
0.0
140
0.0
140
0.0
140
0.0
140
0.0
140
0.0
140
0.0
140
0.0
140
0.0
140
0.0
140
0.0
140
0.0
140
0.0
140
0.0
140
0.0
140
0.0
140
0.0
140
0.0
140
0.0
140
0.0
140
0.0
140
0.0
140
0.0
140
0.0
140
0.0
140
0.0
140
0.0
140
0.0
140
0.0
140
0.0
140
0.0
140
0.0
140
0.0
140
0.0
140
0.0
140
0.0
140
0.0
140
0.0
140
0.0
140
0.0
140
0.0
140
0.0
140
0.0
140
0.0
140
0.0
140
0.0
140
0.0
140
0.0
140
0.0
140
0.0
140
0.0
140
0.0
140
0.0
140
0.0
140
0.0
140
0.0
140
0.0
140
0.0
140
0.0
140
0.0
140
0.0
140
0.0
140
0.0
140
0.0
140
0.0
140
0.0
140
0.0
140
0.0
140
0.0
140
0.0
140
0.0
140
0.0
140
0.0
140
0.0
140
0.0
140
0.0
140
0.0
140
0.0
140
0.0
140
0.0
140
0.0
140
0.0
140
0.0
140
0.0
140
0.0
140
0.0
140
0.0
140
0.0
140
0.0
140
0.0
140
0.0
140
0.0
140
0.0
140
0.0
140
0.0
140
0.0
140
0.0
140
0.0
140
0.0
140
0.0
140
0.0
140
0.0
140
0.0
140
0.0
140
0.0
140
0.0
140
0.0
140
0.0
140
0.0
140
0.0
140
0.0
140
0.0
140
0.0
140
0.0
140
0.0
140
0.0
140
0.0
140
0.0
140
0.0
140
0.0
140
0.0
140
0.0
140
0.0
140
0.0
140
0.0
140
0.0
140
0.0
140
0.0
140
0.0
140
0.0
140
0.0
140
0.0
140
0.0
140
0.0
140
0.0
140
0.0
140
0.0
140
0.0
140
0.0
140
0.0
140
0.0
140
0.0
140
0.0
140
0.0
140
0.0
140
0.0
140
0.0
140
0.0
140
0.0
140
0.0
140
0.0
140
0.0
140
0.0
140
0.0
140
0.0
140
0.0
140
0.0
140
0.0
140
0.0
140
0.0
140
0.0
140
0.0
140
0.0
140
0.0
140
0.0
140
0.0
140
0.0
140
0.0
140
0.0
140
0.0
140
0.0
140
0.0
140
0.0
140
0.0
140
0.0
140
0.0
140
0.0
140
0.0
140
0.0
140
0.0
140
0.0
140
0.0
140
0.0
140
0.0
140
0.0
140
0.0
140
0.0
140
0.0
140
0.0
140
0.0
140
0.0
140
0.0
140
0.0
140
0.0
140
0.0
140
0.0
140
0.0
140
0.0
140
0.0
140
0.0
140
0.0
140
0.0
140
0.0
140
0.0
140
0.0
140
0.0
140
0.0
140
0.0
140
0.0
140
0.0
140
0.0
140
0.0
140
0.0
140
0.0
140
0.0
140
0.0
140
0.0
140
0.0
140
0.0
140
0.0
140
0.0
140
0.0
140
0.0
140
0.0
140
0.0
140
0.0
140
0.0
140
0.0
140
0.0
140
0.0
140
0.0
140
0.0
140
0.0
140
0.0
140
0.0
140
0.0
140
0.0
140
0.0
140
0.0
140
0.0
140
0.0
140
0.0
140
0.0
140
0.0
140
0.0
140
0.0
140
0.0
140
0.0
140
0.0
140
0.0
140
0.0
140
0.0
140
0.0
140
0.0
140
0.0
140
0.0
140
0.0
140
0.0
140
0.0
140
0.0
140
0.0
140
0.0
140
0.0
140
0.0
140
0.0
140
0.0
140
0.0
140
0.0
 90
        0
  0
POLYLINE
  5
FA
330
1F
100
AcDbEntity
  8
OracDecor_cornice_mouldings
 62
    34
420
 11622427
100
AcDb3dPolyline
 66
     1
 10
0.0
 20
0.0
 30
0.0
 70
     9
  0
VERTEX
  5
FB
330
FA
100
AcDbEntity
  8
OracDecor_cornice_mouldings
 62
    34
420
 11622427
100
AcDbVertex
100
AcDb3dPolylineVertex
 10
0.0000685670092935
 20
46.15357589721679
 30
-0.0000118880570881
 70
    32
  0
VERTEX
  5
FC
330
FA
100
AcDbEntity
  8
OracDecor_cornice_mouldings
 62
    34
420
 11622427
100
AcDbVertex
100
AcDb3dPolylineVertex
 10
0.0000681096644257
 20
43.3464469909668
 30
-0.0000099807066363
 70
    32
  0
VERTEX
  5
FD
330
FA
100
AcDbEntity
  8
OracDecor_cornice_mouldings
 62
    34
420
 11622427
100
AcDbVertex
100
AcDb3dPolylineVertex
 10
0.0000680197117617
 20
42.76256942749023
 30
-0.118315190076828
 70
    32
  0
VERTEX
  5
FE
330
FA
100
AcDbEntity
  8
OracDecor_cornice_mouldings
 62
    34
420
 11622427
100
AcDbVertex
100
AcDb3dPolylineVertex
 10
0.0000679542936268
 20
42.27079391479492
 30
-0.4545616805553437
 70
    32
  0
VERTEX
  5
FF
330
FA
100
AcDbEntity
  8
OracDecor_cornice_mouldings
 62
    34
420
 11622427
100
AcDbVertex
100
AcDb3dPolylineVertex
 10
0.0000679093136569
 20
41.92591094970703
 30
-0.7111381888389588
 70
    32
  0
VERTEX
  5
100
330
FA
100
AcDbEntity
  8
OracDecor_cornice_mouldings
 62
    34
420
 11622427
100
AcDbVertex
100
AcDb3dPolylineVertex
 10
0.0000670891604386
 20
35.98369979858399
 30
-4.095812320709228
 70
    32
  0
VERTEX
  5
101
330
FA
100
AcDbEntity
  8
OracDecor_cornice_mouldings
 62
    34
420
 11622427
100
AcDbVertex
100
AcDb3dPolylineVertex
 10
0.0000664648759994
 20
30.96354675292969
 30
-8.524942398071289
 70
    32
  0
VERTEX
  5
102
330
FA
100
AcDbEntity
  8
OracDecor_cornice_mouldings
 62
    34
420
 11622427
100
AcDbVertex
100
AcDb3dPolylineVertex
 10
0.0000584158660786
 20
26.95028877258301
 30
-13.88340759277344
 70
    32
  0
VERTEX
  5
103
330
FA
100
AcDbEntity
  8
OracDecor_cornice_mouldings
 62
    34
420
 11622427
100
AcDbVertex
100
AcDb3dPolylineVertex
 10
-0.0000638518176856
 20
24.1120719909668
 30
-19.94675636291504
 70
    32
  0
VERTEX
  5
104
330
FA
100
AcDbEntity
  8
OracDecor_cornice_mouldings
 62
    34
420
 11622427
100
AcDbVertex
100
AcDb3dPolylineVertex
 10
-0.0000638186684228
 20
22.56776237487793
 30
-26.46095085144043
 70
    32
  0
VERTEX
  5
105
330
FA
100
AcDbEntity
  8
OracDecor_cornice_mouldings
 62
    34
420
 11622427
100
AcDbVertex
100
AcDb3dPolylineVertex
 10
-0.0000638106866973
 20
21.57647323608399
 30
-30.33834075927734
 70
    32
  0
VERTEX
  5
106
330
FA
100
AcDbEntity
  8
OracDecor_cornice_mouldings
 62
    34
420
 11622427
100
AcDbVertex
100
AcDb3dPolylineVertex
 10
-0.0000639634454274
 20
19.69161033630371
 30
-33.86883163452149
 70
    32
  0
VERTEX
  5
107
330
FA
100
AcDbEntity
  8
OracDecor_cornice_mouldings
 62
    34
420
 11622427
100
AcDbVertex
100
AcDb3dPolylineVertex
 10
-0.0000642681916361
 20
17.02129554748535
 30
-36.84983444213867
 70
    32
  0
VERTEX
  5
108
330
FA
100
AcDbEntity
  8
OracDecor_cornice_mouldings
 62
    34
420
 11622427
100
AcDbVertex
100
AcDb3dPolylineVertex
 10
-0.0000647074411972
 20
13.7187385559082
 30
-39.11035537719726
 70
    32
  0
VERTEX
  5
109
330
FA
100
AcDbEntity
  8
OracDecor_cornice_mouldings
 62
    34
420
 11622427
100
AcDbVertex
100
AcDb3dPolylineVertex
 10
-0.0000652559901937
 20
9.973356246948242
 30
-40.52074432373046
 70
    32
  0
VERTEX
  5
10A
330
FA
100
AcDbEntity
  8
OracDecor_cornice_mouldings
 62
    34
420
 11622427
100
AcDbVertex
100
AcDb3dPolylineVertex
 10
-0.0000658823773847
 20
5.999996662139892
 30
-41.00003051757812
 70
    32
  0
VERTEX
  5
10B
330
FA
100
AcDbEntity
  8
OracDecor_cornice_mouldings
 62
    34
420
 11622427
100
AcDbVertex
100
AcDb3dPolylineVertex
 10
-0.0000666155247018
 20
1.499998569488525
 30
-41.00003051757812
 70
    32
  0
VERTEX
  5
10C
330
FA
100
AcDbEntity
  8
OracDecor_cornice_mouldings
 62
    34
420
 11622427
100
AcDbVertex
100
AcDb3dPolylineVertex
 10
-0.0000667040512781
 20
0.9259707331657409
 30
-41.11421203613281
 70
    32
  0
VERTEX
  5
10D
330
FA
100
AcDbEntity
  8
OracDecor_cornice_mouldings
 62
    34
420
 11622427
100
AcDbVertex
100
AcDb3dPolylineVertex
 10
-0.000066769120167
 20
0.4393374025821686
 30
-41.43936920166015
 70
    32
  0
VERTEX
  5
10E
330
FA
100
AcDbEntity
  8
OracDecor_cornice_mouldings
 62
    34
420
 11622427
100
AcDbVertex
100
AcDb3dPolylineVertex
 10
-0.0000668008287903
 20
0.1141802221536636
 30
-41.9260025024414
 70
    32
  0
VERTEX
  5
10F
330
FA
100
AcDbEntity
  8
OracDecor_cornice_mouldings
 62
    34
420
 11622427
100
AcDbVertex
100
AcDb3dPolylineVertex
 10
-0.0000667943386361
 20
-0.0000012889596519
 30
-42.50003051757812
 70
    32
  0
VERTEX
  5
110
330
FA
100
AcDbEntity
  8
OracDecor_cornice_mouldings
 62
    34
420
 11622427
100
AcDbVertex
100
AcDb3dPolylineVertex
 10
-0.0000666564883431
 20
-0.000003196308171
 30
-45.65362548828125
 70
    32
  0
VERTEX
  5
111
330
FA
100
AcDbEntity
  8
OracDecor_cornice_mouldings
 62
    34
420
 11622427
100
AcDbVertex
100
AcDb3dPolylineVertex
 10
-0.0000666396226734
 20
0.0340715907514095
 30
-45.91244506835937
 70
    32
  0
VERTEX
  5
112
330
FA
100
AcDbEntity
  8
OracDecor_cornice_mouldings
 62
    34
420
 11622427
100
AcDbVertex
100
AcDb3dPolylineVertex
 10
-0.0000666128034936
 20
0.1339727938175201
 30
-46.15362548828125
 70
    32
  0
VERTEX
  5
113
330
FA
100
AcDbEntity
  8
OracDecor_cornice_mouldings
 62
    34
420
 11622427
100
AcDbVertex
100
AcDb3dPolylineVertex
 10
-0.0000664273029543
 20
0.9113528132438659
 30
-47.50003051757812
 70
    32
  0
VERTEX
  5
114
330
FA
100
AcDbEntity
  8
OracDecor_cornice_mouldings
 62
    34
420
 11622427
100
AcDbVertex
100
AcDb3dPolylineVertex
 10
-0.0000663836181047
 20
1.045326709747314
 30
-48.00003051757812
 70
    32
  0
VERTEX
  5
115
330
FA
100
AcDbEntity
  8
OracDecor_cornice_mouldings
 62
    34
420
 11622427
100
AcDbVertex
100
AcDb3dPolylineVertex
 10
-0.0000663835890009
 20
0.9113528132438659
 30
-48.50003051757813
 70
    32
  0
VERTEX
  5
116
330
FA
100
AcDbEntity
  8
OracDecor_cornice_mouldings
 62
    34
420
 11622427
100
AcDbVertex
100
AcDb3dPolylineVertex
 10
-0.000066451386374
 20
0.1340033113956451
 30
-49.84644317626953
 70
    32
  0
VERTEX
  5
117
330
FA
100
AcDbEntity
  8
OracDecor_cornice_mouldings
 62
    34
420
 11622427
100
AcDbVertex
100
AcDb3dPolylineVertex
 10
-0.0000664571198286
 20
0.0341021083295345
 30
-50.0876235961914
 70
    32
  0
VERTEX
  5
118
330
FA
100
AcDbEntity
  8
OracDecor_cornice_mouldings
 62
    34
420
 11622427
100
AcDbVertex
100
AcDb3dPolylineVertex
 10
-0.0000664513572701
 20
0.000027321269954
 30
-50.34644317626953
 70
    32
  0
VERTEX
  5
119
330
FA
100
AcDbEntity
  8
OracDecor_cornice_mouldings
 62
    34
420
 11622427
100
AcDbVertex
100
AcDb3dPolylineVertex
 10
0.0000634517637081
 20
0.000027321268135
 30
-55.00003051757812
 70
    32
  0
VERTEX
  5
11A
330
FA
100
AcDbEntity
  8
OracDecor_cornice_mouldings
 62
    34
420
 11622427
100
AcDbVertex
100
AcDb3dPolylineVertex
 10
0.0000644292886136
 20
6.000002384185791
 30
-54.99999618530273
 70
    32
  0
VERTEX
  5
11B
330
FA
100
AcDbEntity
  8
OracDecor_cornice_mouldings
 62
    34
420
 11622427
100
AcDbVertex
100
AcDb3dPolylineVertex
 10
-0.0000655326875858
 20
6.000027179718017
 30
-48.99999618530273
 70
    32
  0
VERTEX
  5
11C
330
FA
100
AcDbEntity
  8
OracDecor_cornice_mouldings
 62
    34
420
 11622427
100
AcDbVertex
100
AcDb3dPolylineVertex
 10
-0.0000649265421089
 20
9.826527595520019
 30
-48.60486984252929
 70
    32
  0
VERTEX
  5
11D
330
FA
100
AcDbEntity
  8
OracDecor_cornice_mouldings
 62
    34
420
 11622427
100
AcDbVertex
100
AcDb3dPolylineVertex
 10
-0.0000645583932055
 20
12.22026634216308
 30
-48.10518646240234
 70
    32
  0
VERTEX
  5
11E
330
FA
100
AcDbEntity
  8
OracDecor_cornice_mouldings
 62
    34
420
 11622427
100
AcDbVertex
100
AcDb3dPolylineVertex
 10
-0.000064186839154
 20
14.71421909332275
 30
-47.30990600585937
 70
    32
  0
VERTEX
  5
11F
330
FA
100
AcDbEntity
  8
OracDecor_cornice_mouldings
 62
    34
420
 11622427
100
AcDbVertex
100
AcDb3dPolylineVertex
 10
-0.0000638644778519
 20
16.95533943176269
 30
-46.33161926269531
 70
    32
  0
VERTEX
  5
120
330
FA
100
AcDbEntity
  8
OracDecor_cornice_mouldings
 62
    34
420
 11622427
100
AcDbVertex
100
AcDb3dPolylineVertex
 10
-0.0000635495161987
 20
19.23414421081543
 30
-45.04351043701172
 70
    32
  0
VERTEX
  5
121
330
FA
100
AcDbEntity
  8
OracDecor_cornice_mouldings
 62
    34
420
 11622427
100
AcDbVertex
100
AcDb3dPolylineVertex
 10
-0.0000632865412626
 20
21.22807121276856
 30
-43.62791061401367
 70
    32
  0
VERTEX
  5
122
330
FA
100
AcDbEntity
  8
OracDecor_cornice_mouldings
 62
    34
420
 11622427
100
AcDbVertex
100
AcDb3dPolylineVertex
 10
-0.0000630414651823
 20
23.19558906555176
 30
-41.90131378173828
 70
    32
  0
VERTEX
  5
123
330
FA
100
AcDbEntity
  8
OracDecor_cornice_mouldings
 62
    34
420
 11622427
100
AcDbVertex
100
AcDb3dPolylineVertex
 10
-0.0000628489797236
 20
24.85817337036133
 30
-40.10813903808593
 70
    32
  0
VERTEX
  5
124
330
FA
100
AcDbEntity
  8
OracDecor_cornice_mouldings
 62
    34
420
 11622427
100
AcDbVertex
100
AcDb3dPolylineVertex
 10
-0.000062684128352
 20
26.43133544921875
 30
-38.01593780517578
 70
    32
  0
VERTEX
  5
125
330
FA
100
AcDbEntity
  8
OracDecor_cornice_mouldings
 62
    34
420
 11622427
100
AcDbVertex
100
AcDb3dPolylineVertex
 10
-0.0000625702523394
 20
27.69241714477539
 30
-35.92086029052734
 70
    32
  0
VERTEX
  5
126
330
FA
100
AcDbEntity
  8
OracDecor_cornice_mouldings
 62
    34
420
 11622427
100
AcDbVertex
100
AcDb3dPolylineVertex
 10
-0.0000624925887678
 20
28.80487251281738
 30
-33.55136489868164
 70
    32
  0
VERTEX
  5
127
330
FA
100
AcDbEntity
  8
OracDecor_cornice_mouldings
 62
    34
420
 11622427
100
AcDbVertex
100
AcDb3dPolylineVertex
 10
-0.0000624621243333
 20
29.6112289428711
 30
-31.24279975891113
 70
    32
  0
VERTEX
  5
128
330
FA
100
AcDbEntity
  8
OracDecor_cornice_mouldings
 62
    34
420
 11622427
100
AcDbVertex
100
AcDb3dPolylineVertex
 10
-0.0000624749227427
 20
30.21601486206055
 30
-28.69592475891113
 70
    32
  0
VERTEX
  5
129
330
FA
100
AcDbEntity
  8
OracDecor_cornice_mouldings
 62
    34
420
 11622427
100
AcDbVertex
100
AcDb3dPolylineVertex
 10
-0.0000624869353487
 20
30.78398513793946
 30
-26.30409622192383
 70
    32
  0
VERTEX
  5
12A
330
FA
100
AcDbEntity
  8
OracDecor_cornice_mouldings
 62
    34
420
 11622427
100
AcDbVertex
100
AcDb3dPolylineVertex
 10
-0.0000624997264822
 20
31.38877296447754
 30
-23.75724411010742
 70
    32
  0
VERTEX
  5
12B
330
FA
100
AcDbEntity
  8
OracDecor_cornice_mouldings
 62
    34
420
 11622427
100
AcDbVertex
100
AcDb3dPolylineVertex
 10
-0.0000624692693236
 20
32.19514083862305
 30
-21.44868850708008
 70
    32
  0
VERTEX
  5
12C
330
FA
100
AcDbEntity
  8
OracDecor_cornice_mouldings
 62
    34
420
 11622427
100
AcDbVertex
100
AcDb3dPolylineVertex
 10
-0.0000623915912001
 20
33.30763244628907
 30
-19.07914543151855
 70
    32
  0
VERTEX
  5
12D
330
FA
100
AcDbEntity
  8
OracDecor_cornice_mouldings
 62
    34
420
 11622427
100
AcDbVertex
100
AcDb3dPolylineVertex
 10
-0.0000317601334245
 20
34.56872177124024
 30
-16.98406982421875
 70
    32
  0
VERTEX
  5
12E
330
FA
100
AcDbEntity
  8
OracDecor_cornice_mouldings
 62
    34
420
 11622427
100
AcDbVertex
100
AcDb3dPolylineVertex
 10
0.0000294398651022
 20
36.14186859130859
 30
-14.89186477661133
 70
    32
  0
VERTEX
  5
12F
330
FA
100
AcDbEntity
  8
OracDecor_cornice_mouldings
 62
    34
420
 11622427
100
AcDbVertex
100
AcDb3dPolylineVertex
 10
0.0000601499305048
 20
37.80444717407227
 30
-13.09868144989013
 70
    32
  0
VERTEX
  5
130
330
FA
100
AcDbEntity
  8
OracDecor_cornice_mouldings
 62
    34
420
 11622427
100
AcDbVertex
100
AcDb3dPolylineVertex
 10
0.0000603950102231
 20
39.77196884155274
 30
-11.37208366394043
 70
    32
  0
VERTEX
  5
131
330
FA
100
AcDbEntity
  8
OracDecor_cornice_mouldings
 62
    34
420
 11622427
100
AcDbVertex
100
AcDb3dPolylineVertex
 10
0.0000606579851592
 20
41.76589584350586
 30
-9.956484794616699
 70
    32
  0
VERTEX
  5
132
330
FA
100
AcDbEntity
  8
OracDecor_cornice_mouldings
 62
    34
420
 11622427
100
AcDbVertex
100
AcDb3dPolylineVertex
 10
0.0000609729431744
 20
44.04469680786132
 30
-8.668384552001953
 70
    32
  0
VERTEX
  5
133
330
FA
100
AcDbEntity
  8
OracDecor_cornice_mouldings
 62
    34
420
 11622427
100
AcDbVertex
100
AcDb3dPolylineVertex
 10
0.0000612953008385
 20
46.28582000732421
 30
-7.690098762512207
 70
    32
  0
VERTEX
  5
134
330
FA
100
AcDbEntity
  8
OracDecor_cornice_mouldings
 62
    34
420
 11622427
100
AcDbVertex
100
AcDb3dPolylineVertex
 10
0.0000616668548901
 20
48.77976989746094
 30
-6.894820213317871
 70
    32
  0
VERTEX
  5
135
330
FA
100
AcDbEntity
  8
OracDecor_cornice_mouldings
 62
    34
420
 11622427
100
AcDbVertex
100
AcDb3dPolylineVertex
 10
0.0000544056129002
 20
51.17350769042968
 30
-6.395132064819335
 70
    32
  0
VERTEX
  5
136
330
FA
100
AcDbEntity
  8
OracDecor_cornice_mouldings
 62
    34
420
 11622427
100
AcDbVertex
100
AcDb3dPolylineVertex
 10
0.0000550117583771
 20
55.00001144409179
 30
-6.000004291534423
 70
    32
  0
VERTEX
  5
137
330
FA
100
AcDbEntity
  8
OracDecor_cornice_mouldings
 62
    34
420
 11622427
100
AcDbVertex
100
AcDb3dPolylineVertex
 10
0.000054749481933
 20
54.99998855590821
 30
0.0000186295237654
 70
    32
  0
VERTEX
  5
138
330
FA
100
AcDbEntity
  8
OracDecor_cornice_mouldings
 62
    34
420
 11622427
100
AcDbVertex
100
AcDb3dPolylineVertex
 10
0.0000540727778571
 20
50.84639358520508
 30
0.0000186295219464
 70
    32
  0
VERTEX
  5
139
330
FA
100
AcDbEntity
  8
OracDecor_cornice_mouldings
 62
    34
420
 11622427
100
AcDbVertex
100
AcDb3dPolylineVertex
 10
0.000054032101616
 20
50.58757400512695
 30
-0.0340542457997799
 70
    32
  0
VERTEX
  5
13A
330
FA
100
AcDbEntity
  8
OracDecor_cornice_mouldings
 62
    34
420
 11622427
100
AcDbVertex
100
AcDb3dPolylineVertex
 10
0.0000616265679128
 20
50.34639358520507
 30
-0.1339554488658905
 70
    32
  0
VERTEX
  5
13B
330
FA
100
AcDbEntity
  8
OracDecor_cornice_mouldings
 62
    34
420
 11622427
100
AcDbVertex
100
AcDb3dPolylineVertex
 10
0.0000614411837887
 20
48.9999885559082
 30
-0.9113048911094665
 70
    32
  0
VERTEX
  5
13C
330
FA
100
AcDbEntity
  8
OracDecor_cornice_mouldings
 62
    34
420
 11622427
100
AcDbVertex
100
AcDb3dPolylineVertex
 10
0.0000613655793131
 20
48.4999885559082
 30
-1.045279026031494
 70
    32
  0
VERTEX
  5
13D
330
FA
100
AcDbEntity
  8
OracDecor_cornice_mouldings
 62
    34
420
 11622427
100
AcDbVertex
100
AcDb3dPolylineVertex
 10
0.000068907662353
 20
47.9999885559082
 30
-0.9113048911094665
 70
    32
  0
VERTEX
  5
13E
330
FA
100
AcDbEntity
  8
OracDecor_cornice_mouldings
 62
    34
420
 11622427
100
AcDbVertex
100
AcDb3dPolylineVertex
 10
0.0000686543207848
 20
46.65357589721679
 30
-0.1339554488658905
 70
    32
  0
VERTEX
  5
13F
330
FA
100
AcDbEntity
  8
OracDecor_cornice_mouldings
 62
    34
420
 11622427
100
AcDbVertex
100
AcDb3dPolylineVertex
 10
0.0000686106650392
 20
46.41239547729492
 30
-0.0340847633779049
 70
    32
  0
SEQEND
  5
140
330
FA
100
AcDbEntity
  8
OracDecor_cornice_mouldings
 62
    34
420
 11622427
  0
ENDSEC
  0
SECTION
  2
OBJECTS
  0
DICTIONARY
  5
C
330
0
100
AcDbDictionary
281
     1
  3
ACAD_COLOR
350
DC
  3
ACAD_DETAILVIEWSTYLE
350
F5
  3
ACAD_GROUP
350
D
  3
ACAD_LAYOUT
350
1A
  3
ACAD_MATERIAL
350
AA
  3
ACAD_MLEADERSTYLE
350
F1
  3
ACAD_MLINESTYLE
350
17
  3
ACAD_PLOTSETTINGS
350
19
  3
ACAD_PLOTSTYLENAME
350
E
  3
ACAD_SCALELIST
350
DF
  3
ACAD_SECTIONVIEWSTYLE
350
F3
  3
ACAD_TABLESTYLE
350
DD
  3
ACAD_VISUALSTYLE
350
C3
  3
ACDB_RECOMPOSE_DATA
350
14D
  3
AcDbVariableDictionary
350
141
  0
DICTIONARY
  5
DC
102
{ACAD_REACTORS
330
C
102
}
330
C
100
AcDbDictionary
281
     1
  0
DICTIONARY
  5
F5
102
{ACAD_REACTORS
330
C
102
}
330
C
100
AcDbDictionary
281
     1
  3
Imperial24
350
F6
  0
DICTIONARY
  5
D
102
{ACAD_REACTORS
330
C
102
}
330
C
100
AcDbDictionary
281
     1
  0
DICTIONARY
  5
1A
102
{ACAD_REACTORS
330
C
102
}
330
C
100
AcDbDictionary
281
     1
  3
Layout1
350
1E
  3
Layout2
350
26
  3
Model
350
22
  0
DICTIONARY
  5
AA
102
{ACAD_REACTORS
330
C
102
}
330
C
100
AcDbDictionary
281
     1
  3
ByBlock
350
B3
  3
ByLayer
350
AB
  3
Global
350
BB
  0
DICTIONARY
  5
F1
102
{ACAD_REACTORS
330
C
102
}
330
C
100
AcDbDictionary
281
     1
  3
Standard
350
F2
  0
DICTIONARY
  5
17
102
{ACAD_REACTORS
330
C
102
}
330
C
100
AcDbDictionary
281
     1
  3
Standard
350
18
  0
DICTIONARY
  5
19
102
{ACAD_REACTORS
330
C
102
}
330
C
100
AcDbDictionary
281
     1
  0
ACDBDICTIONARYWDFLT
  5
E
102
{ACAD_REACTORS
330
C
102
}
330
C
100
AcDbDictionary
281
     1
  3
ByLayer
350
2D
  3
Normal
350
F
100
AcDbDictionaryWithDefault
340
F
  0
DICTIONARY
  5
DF
102
{ACAD_REACTORS
330
C
102
}
330
C
100
AcDbDictionary
281
     1
  3
A0
350
E0
  3
A1
350
E1
  3
A2
350
E2
  3
A3
350
E3
  3
A4
350
E4
  3
A5
350
E5
  3
A6
350
E6
  3
A7
350
E7
  3
A8
350
E8
  3
A9
350
E9
  3
B0
350
EA
  3
B1
350
EB
  3
B2
350
EC
  3
B3
350
ED
  3
B4
350
EE
  3
B5
350
EF
  3
B6
350
F0
  0
DICTIONARY
  5
F3
102
{ACAD_REACTORS
330
C
102
}
330
C
100
AcDbDictionary
281
     1
  3
Imperial24
350
F4
  0
DICTIONARY
  5
DD
102
{ACAD_REACTORS
330
C
102
}
330
C
100
AcDbDictionary
281
     1
  3
Standard
350
DE
  0
DICTIONARY
  5
C3
102
{ACAD_REACTORS
330
C
102
}
330
C
100
AcDbDictionary
281
     1
  3
2dWireframe
350
C9
  3
Basic
350
C8
  3
Brighten
350
CF
  3
ColorChange
350
D3
  3
Conceptual
350
CC
  3
Dim
350
CE
  3
EdgeColorOff
350
DB
  3
Facepattern
350
D2
  3
Flat
350
C4
  3
FlatWithEdges
350
C5
  3
Gouraud
350
C6
  3
GouraudWithEdges
350
C7
  3
Hidden
350
CB
  3
JitterOff
350
D9
  3
Linepattern
350
D1
  3
OverhangOff
350
DA
  3
Realistic
350
CD
  3
Shaded
350
D8
  3
Shaded with edges
350
D7
  3
Shades of Gray
350
D4
  3
Sketchy
350
D5
  3
Thicken
350
D0
  3
Wireframe
350
CA
  3
X-Ray
350
D6
  0
XRECORD
  5
14D
102
{ACAD_REACTORS
330
C
102
}
330
C
100
AcDbXrecord
280
     1
 90
        1
330
DE
  0
DICTIONARY
  5
141
102
{ACAD_REACTORS
330
C
102
}
330
C
100
AcDbDictionary
281
     1
  3
CANNOSCALE
350
147
  3
CMLEADERSTYLE
350
143
  3
CTABLESTYLE
350
142
  3
CVIEWDETAILSTYLE
350
144
  3
CVIEWSECTIONSTYLE
350
145
  3
LAYEREVAL
350
149
  3
LAYERNOTIFY
350
14A
  3
LIGHTINGUNITS
350
148
  3
MSLTSCALE
350
146
  0
ACDBDETAILVIEWSTYLE
  5
F6
102
{ACAD_XDICTIONARY
360
182
102
}
102
{ACAD_REACTORS
330
F5
102
}
330
F5
100
AcDbModelDocViewStyle
 70
     0
  3
Imperial24
290
     0
100
AcDbDetailViewStyle
 70
     0
 71
     0
 90
        3
 71
     1
340
11
 62
   256
 40
0.24
340
0
 62
   256
 40
0.24
300

 40
0.36
280
     3
 71
     2
340
16
 90
       25
 62
   256
 71
     3
340
11
 62
   256
 40
0.24
 90
        1
 40
0.75
 90
        1
300
%<\AcVar ViewType \f "%tc1">% %<\AcVar ViewDetailId>%\PSCALE %<\AcVar ViewScale \f "%sn">%
 71
     4
340
16
 90
       25
 62
   256
340
16
 90
       25
 62
   256
280
     0
  0
LAYOUT
  5
1E
102
{ACAD_REACTORS
330
1A
102
}
330
1A
100
AcDbPlotSettings
  1

  2
\\KTXNTBDC\CASF2PN1
  4

  6

 40
0.0
 41
0.0
 42
0.0
 43
0.0
 44
0.0
 45
0.0
 46
0.0
 47
0.0
 48
0.0
 49
0.0
140
0.0
141
0.0
142
1.0
143
1.0
 70
   688
 72
     0
 73
     0
 74
     5
  7

 75
    16
147
1.0
 76
     0
 77
     2
 78
   300
148
0.0
149
0.0
100
AcDbLayout
  1
Layout1
 70
     1
 71
     1
 10
0.0
 20
0.0
 11
12.0
 21
9.0
 12
0.0
 22
0.0
 32
0.0
 14
1.000000000000000E+20
 24
1.000000000000000E+20
 34
1.000000000000000E+20
 15
-1.000000000000000E+20
 25
-1.000000000000000E+20
 35
-1.000000000000000E+20
146
0.0
 13
0.0
 23
0.0
 33
0.0
 16
1.0
 26
0.0
 36
0.0
 17
0.0
 27
1.0
 37
0.0
 76
     0
330
1B
  0
LAYOUT
  5
26
102
{ACAD_REACTORS
330
1A
102
}
330
1A
100
AcDbPlotSettings
  1

  2
\\KTXNTBDC\CASF2PN1
  4

  6

 40
0.0
 41
0.0
 42
0.0
 43
0.0
 44
0.0
 45
0.0
 46
0.0
 47
0.0
 48
0.0
 49
0.0
140
0.0
141
0.0
142
1.0
143
1.0
 70
   688
 72
     0
 73
     0
 74
     5
  7

 75
    16
147
1.0
 76
     0
 77
     2
 78
   300
148
0.0
149
0.0
100
AcDbLayout
  1
Layout2
 70
     1
 71
     2
 10
0.0
 20
0.0
 11
12.0
 21
9.0
 12
0.0
 22
0.0
 32
0.0
 14
0.0
 24
0.0
 34
0.0
 15
0.0
 25
0.0
 35
0.0
146
0.0
 13
0.0
 23
0.0
 33
0.0
 16
1.0
 26
0.0
 36
0.0
 17
0.0
 27
1.0
 37
0.0
 76
     0
330
23
  0
LAYOUT
  5
22
102
{ACAD_REACTORS
330
1A
102
}
330
1A
100
AcDbPlotSettings
  1

  2
\\KTXNTBDC\CASF2PN1
  4

  6

 40
0.0
 41
0.0
 42
0.0
 43
0.0
 44
0.0
 45
0.0
 46
0.0
 47
0.0
 48
0.0
 49
0.0
140
0.0
141
0.0
142
1.0
143
1.0
 70
  1712
 72
     0
 73
     0
 74
     0
  7

 75
     0
147
1.0
 76
     0
 77
     2
 78
   300
148
0.0
149
0.0
100
AcDbLayout
  1
Model
 70
     1
 71
     0
 10
0.0
 20
0.0
 11
12.0
 21
9.0
 12
0.0
 22
0.0
 32
0.0
 14
0.0
 24
0.0
 34
0.0
 15
0.0
 25
0.0
 35
0.0
146
0.0
 13
0.0
 23
0.0
 33
0.0
 16
1.0
 26
0.0
 36
0.0
 17
0.0
 27
1.0
 37
0.0
 76
     0
330
1F
  0
MATERIAL
  5
B3
102
{ACAD_XDICTIONARY
360
B4
102
}
102
{ACAD_REACTORS
330
AA
102
}
330
AA
100
AcDbMaterial
  1
ByBlock
 72
     0
 43
0.0208333333333333
 43
0.0
 43
0.0
 43
0.0
 43
0.0
 43
0.0208333333333333
 43
0.0
 43
0.0
 43
0.0
 43
0.0
 43
1.0
 43
0.0
 43
0.0
 43
0.0
 43
0.0
 43
1.0
 77
     0
 47
0.0208333333333333
 47
0.0
 47
0.0
 47
0.0
 47
0.0
 47
0.0208333333333333
 47
0.0
 47
0.0
 47
0.0
 47
0.0
 47
1.0
 47
0.0
 47
0.0
 47
0.0
 47
0.0
 47
1.0
171
     0
 49
0.0208333333333333
 49
0.0
 49
0.0
 49
0.0
 49
0.0
 49
0.0208333333333333
 49
0.0
 49
0.0
 49
0.0
 49
0.0
 49
1.0
 49
0.0
 49
0.0
 49
0.0
 49
0.0
 49
1.0
175
     0
142
0.0208333333333333
142
0.0
142
0.0
142
0.0
142
0.0
142
0.0208333333333333
142
0.0
142
0.0
142
0.0
142
0.0
142
1.0
142
0.0
142
0.0
142
0.0
142
0.0
142
1.0
179
     0
144
0.0208333333333333
144
0.0
144
0.0
144
0.0
144
0.0
144
0.0208333333333333
144
0.0
144
0.0
144
0.0
144
0.0
144
1.0
144
0.0
144
0.0
144
0.0
144
0.0
144
1.0
147
0.0208333333333333
147
0.0
147
0.0
147
0.0
147
0.0
147
0.0208333333333333
147
0.0
147
0.0
147
0.0
147
0.0
147
1.0
147
0.0
147
0.0
147
0.0
147
0.0
147
1.0
  0
MATERIAL
  5
AB
102
{ACAD_XDICTIONARY
360
AC
102
}
102
{ACAD_REACTORS
330
AA
102
}
330
AA
100
AcDbMaterial
  1
ByLayer
 72
     0
 43
0.0208333333333333
 43
0.0
 43
0.0
 43
0.0
 43
0.0
 43
0.0208333333333333
 43
0.0
 43
0.0
 43
0.0
 43
0.0
 43
1.0
 43
0.0
 43
0.0
 43
0.0
 43
0.0
 43
1.0
 77
     0
 47
0.0208333333333333
 47
0.0
 47
0.0
 47
0.0
 47
0.0
 47
0.0208333333333333
 47
0.0
 47
0.0
 47
0.0
 47
0.0
 47
1.0
 47
0.0
 47
0.0
 47
0.0
 47
0.0
 47
1.0
171
     0
 49
0.0208333333333333
 49
0.0
 49
0.0
 49
0.0
 49
0.0
 49
0.0208333333333333
 49
0.0
 49
0.0
 49
0.0
 49
0.0
 49
1.0
 49
0.0
 49
0.0
 49
0.0
 49
0.0
 49
1.0
175
     0
142
0.0208333333333333
142
0.0
142
0.0
142
0.0
142
0.0
142
0.0208333333333333
142
0.0
142
0.0
142
0.0
142
0.0
142
1.0
142
0.0
142
0.0
142
0.0
142
0.0
142
1.0
179
     0
144
0.0208333333333333
144
0.0
144
0.0
144
0.0
144
0.0
144
0.0208333333333333
144
0.0
144
0.0
144
0.0
144
0.0
144
1.0
144
0.0
144
0.0
144
0.0
144
0.0
144
1.0
147
0.0208333333333333
147
0.0
147
0.0
147
0.0
147
0.0
147
0.0208333333333333
147
0.0
147
0.0
147
0.0
147
0.0
147
1.0
147
0.0
147
0.0
147
0.0
147
0.0
147
1.0
  0
MATERIAL
  5
BB
102
{ACAD_XDICTIONARY
360
BC
102
}
102
{ACAD_REACTORS
330
AA
102
}
330
AA
100
AcDbMaterial
  1
Global
 72
     0
 43
0.0208333333333333
 43
0.0
 43
0.0
 43
0.0
 43
0.0
 43
0.0208333333333333
 43
0.0
 43
0.0
 43
0.0
 43
0.0
 43
1.0
 43
0.0
 43
0.0
 43
0.0
 43
0.0
 43
1.0
 77
     0
 47
0.0208333333333333
 47
0.0
 47
0.0
 47
0.0
 47
0.0
 47
0.0208333333333333
 47
0.0
 47
0.0
 47
0.0
 47
0.0
 47
1.0
 47
0.0
 47
0.0
 47
0.0
 47
0.0
 47
1.0
171
     0
 49
0.0208333333333333
 49
0.0
 49
0.0
 49
0.0
 49
0.0
 49
0.0208333333333333
 49
0.0
 49
0.0
 49
0.0
 49
0.0
 49
1.0
 49
0.0
 49
0.0
 49
0.0
 49
0.0
 49
1.0
175
     0
142
0.0208333333333333
142
0.0
142
0.0
142
0.0
142
0.0
142
0.0208333333333333
142
0.0
142
0.0
142
0.0
142
0.0
142
1.0
142
0.0
142
0.0
142
0.0
142
0.0
142
1.0
179
     0
144
0.0208333333333333
144
0.0
144
0.0
144
0.0
144
0.0
144
0.0208333333333333
144
0.0
144
0.0
144
0.0
144
0.0
144
1.0
144
0.0
144
0.0
144
0.0
144
0.0
144
1.0
147
0.0208333333333333
147
0.0
147
0.0
147
0.0
147
0.0
147
0.0208333333333333
147
0.0
147
0.0
147
0.0
147
0.0
147
1.0
147
0.0
147
0.0
147
0.0
147
0.0
147
1.0
  0
MLEADERSTYLE
  5
F2
102
{ACAD_XDICTIONARY
360
17E
102
}
102
{ACAD_REACTORS
330
F1
102
}
330
F1
100
AcDbMLeaderStyle
179
     2
170
     2
171
     1
172
     0
 90
        2
 40
0.0
 41
0.0
173
     1
 91
-1056964608
340
14
 92
       -2
290
     1
 42
0.09
291
     1
 43
0.36
  3
Standard
 44
0.18
300

342
11
174
     1
178
     6
175
     1
176
     0
 93
-1056964608
 45
0.18
292
     0
297
     0
 46
0.18
 94
-1056964608
 47
1.0
 49
1.0
140
1.0
293
     1
141
0.0
294
     1
177
     0
142
1.0
295
     0
296
     0
143
0.125
271
     0
272
     9
273
     9
  0
MLINESTYLE
  5
18
102
{ACAD_REACTORS
330
17
102
}
330
17
100
AcDbMlineStyle
  2
STANDARD
 70
     0
  3

 62
   256
 51
90.0
 52
90.0
 71
     2
 49
0.5
 62
   256
  6
BYLAYER
 49
-0.5
 62
   256
  6
BYLAYER
  0
ACDBPLACEHOLDER
  5
2D
102
{ACAD_REACTORS
330
E
102
}
330
E
  0
ACDBPLACEHOLDER
  5
F
102
{ACAD_REACTORS
330
E
102
}
330
E
  0
SCALE
  5
E0
102
{ACAD_REACTORS
330
DF
102
}
330
DF
100
AcDbScale
 70
     0
300
1:1
140
1.0
141
1.0
290
     1
  0
SCALE
  5
E1
102
{ACAD_REACTORS
330
DF
102
}
330
DF
100
AcDbScale
 70
     0
300
1/128" = 1'-0"
140
0.0078125
141
12.0
290
     0
  0
SCALE
  5
E2
102
{ACAD_REACTORS
330
DF
102
}
330
DF
100
AcDbScale
 70
     0
300
1/64" = 1'-0"
140
0.015625
141
12.0
290
     0
  0
SCALE
  5
E3
102
{ACAD_REACTORS
330
DF
102
}
330
DF
100
AcDbScale
 70
     0
300
1/32" = 1'-0"
140
0.03125
141
12.0
290
     0
  0
SCALE
  5
E4
102
{ACAD_REACTORS
330
DF
102
}
330
DF
100
AcDbScale
 70
     0
300
1/16" = 1'-0"
140
0.0625
141
12.0
290
     0
  0
SCALE
  5
E5
102
{ACAD_REACTORS
330
DF
102
}
330
DF
100
AcDbScale
 70
     0
300
3/32" = 1'-0"
140
0.09375
141
12.0
290
     0
  0
SCALE
  5
E6
102
{ACAD_REACTORS
330
DF
102
}
330
DF
100
AcDbScale
 70
     0
300
1/8" = 1'-0"
140
0.125
141
12.0
290
     0
  0
SCALE
  5
E7
102
{ACAD_REACTORS
330
DF
102
}
330
DF
100
AcDbScale
 70
     0
300
3/16" = 1'-0"
140
0.1875
141
12.0
290
     0
  0
SCALE
  5
E8
102
{ACAD_REACTORS
330
DF
102
}
330
DF
100
AcDbScale
 70
     0
300
1/4" = 1'-0"
140
0.25
141
12.0
290
     0
  0
SCALE
  5
E9
102
{ACAD_REACTORS
330
DF
102
}
330
DF
100
AcDbScale
 70
     0
300
3/8" = 1'-0"
140
0.375
141
12.0
290
     0
  0
SCALE
  5
EA
102
{ACAD_REACTORS
330
DF
102
}
330
DF
100
AcDbScale
 70
     0
300
1/2" = 1'-0"
140
0.5
141
12.0
290
     0
  0
SCALE
  5
EB
102
{ACAD_REACTORS
330
DF
102
}
330
DF
100
AcDbScale
 70
     0
300
3/4" = 1'-0"
140
0.75
141
12.0
290
     0
  0
SCALE
  5
EC
102
{ACAD_REACTORS
330
DF
102
}
330
DF
100
AcDbScale
 70
     0
300
1" = 1'-0"
140
1.0
141
12.0
290
     0
  0
SCALE
  5
ED
102
{ACAD_REACTORS
330
DF
102
}
330
DF
100
AcDbScale
 70
     0
300
1-1/2" = 1'-0"
140
1.5
141
12.0
290
     0
  0
SCALE
  5
EE
102
{ACAD_REACTORS
330
DF
102
}
330
DF
100
AcDbScale
 70
     0
300
3" = 1'-0"
140
3.0
141
12.0
290
     0
  0
SCALE
  5
EF
102
{ACAD_REACTORS
330
DF
102
}
330
DF
100
AcDbScale
 70
     0
300
6" = 1'-0"
140
6.0
141
12.0
290
     0
  0
SCALE
  5
F0
102
{ACAD_REACTORS
330
DF
102
}
330
DF
100
AcDbScale
 70
     0
300
1'-0" = 1'-0"
140
12.0
141
12.0
290
     0
  0
ACDBSECTIONVIEWSTYLE
  5
F4
102
{ACAD_XDICTIONARY
360
180
102
}
102
{ACAD_REACTORS
330
F3
102
}
330
F3
100
AcDbModelDocViewStyle
 70
     0
  3
Imperial24
290
     0
100
AcDbSectionViewStyle
 70
     0
 71
     0
 90
       78
 71
     1
340
11
 62
   256
 40
0.24
340
0
340
0
 62
   256
 40
0.24
300
I, O, Q, S, X, Z
 40
0.48
 90
        3
 40
0.18
 90
        1
 71
     2
340
16
 90
       25
 62
   256
340
16
 90
       50
 62
   256
 40
0.24
 40
0.0
 40
0.24
 71
     3
340
11
 62
   256
 40
0.24
 90
        1
 40
0.75
 90
        1
300
%<\AcVar ViewType \f "%tc1">% %<\AcVar ViewSectionStartId>%-%<\AcVar ViewSectionEndId>%\PSCALE %<\AcVar ViewScale \f "%sn">%
 71
     4
 62
   256
 62
   257
300
ANSI31
 40
1.0
 90
        0
290
     0
290
     0
 90
        6
 40
0.0
 40
1.570796326794896
 40
0.2617993877991494
 40
1.308996938995747
 40
-0.2617993877991494
 40
1.832595714594046
  0
TABLESTYLE
  5
DE
102
{ACAD_XDICTIONARY
360
14B
102
}
102
{ACAD_REACTORS
330
DD
102
}
330
DD
100
AcDbTableStyle
280
     0
  3
Standard
 70
     0
 71
     0
 40
0.06
 41
0.06
280
     0
281
     0
  7
Standard
140
0.18
170
     2
 62
     0
 63
     7
283
     0
 90
      512
 91
        0
  1

274
    -2
284
     1
 64
     0
275
    -2
285
     1
 65
     0
276
    -2
286
     1
 66
     0
277
    -2
287
     1
 67
     0
278
    -2
288
     1
 68
     0
279
    -2
289
     1
 69
     0
  7
Standard
140
0.25
170
     5
 62
     0
 63
     7
283
     0
 90
      512
 91
        0
  1

274
    -2
284
     1
 64
     0
275
    -2
285
     1
 65
     0
276
    -2
286
     1
 66
     0
277
    -2
287
     1
 67
     0
278
    -2
288
     1
 68
     0
279
    -2
289
     1
 69
     0
  7
Standard
140
0.18
170
     5
 62
     0
 63
     7
283
     0
 90
      512
 91
        0
  1

274
    -2
284
     1
 64
     0
275
    -2
285
     1
 65
     0
276
    -2
286
     1
 66
     0
277
    -2
287
     1
 67
     0
278
    -2
288
     1
 68
     0
279
    -2
289
     1
 69
     0
  0
VISUALSTYLE
  5
C9
102
{ACAD_XDICTIONARY
360
158
102
}
102
{ACAD_REACTORS
330
C3
102
}
330
C3
100
AcDbVisualStyle
  2
2dWireframe
 70
     4
177
     2
291
     0
 71
     0
176
     1
 72
     2
176
     1
 73
     0
176
     1
 90
        0
176
     1
 40
0.6
176
     1
 41
30.0
176
     1
 63
     7
421
 16777215
176
     1
 74
     1
176
     1
 91
        4
176
     1
 64
     7
176
     1
 65
   257
176
     1
 75
     1
176
     1
175
     1
176
     1
 42
1.0
176
     1
 92
        0
176
     1
 66
   257
176
     1
 43
1.0
176
     1
 76
     1
176
     1
 77
     6
176
     1
 78
     2
176
     1
 67
     7
176
     1
 79
     5
176
     1
170
     0
176
     1
171
     0
176
     1
290
     0
176
     1
 93
        1
176
     1
 44
0.0
176
     1
173
     0
176
     1
1001
ACAD
1000
AcDbSavedByObjectVersion
1070
     0
  0
VISUALSTYLE
  5
C8
102
{ACAD_XDICTIONARY
360
156
102
}
102
{ACAD_REACTORS
330
C3
102
}
330
C3
100
AcDbVisualStyle
  2
Basic
 70
     7
177
     2
291
     1
 71
     1
176
     1
 72
     0
176
     1
 73
     1
176
     1
 90
        0
176
     1
 40
0.6
176
     1
 41
30.0
176
     1
 63
     7
421
 16777215
176
     1
 74
     0
176
     1
 91
        4
176
     1
 64
     7
176
     1
 65
   257
176
     1
 75
     1
176
     1
175
     1
176
     1
 42
1.0
176
     1
 92
        8
176
     1
 66
     7
176
     1
 43
1.0
176
     1
 76
     1
176
     1
 77
     6
176
     1
 78
     2
176
     1
 67
     7
176
     1
 79
     5
176
     1
170
     0
176
     1
171
     0
176
     1
290
     0
176
     1
 93
        1
176
     1
 44
0.0
176
     1
173
     0
176
     1
1001
ACAD
1000
AcDbSavedByObjectVersion
1070
     0
  0
VISUALSTYLE
  5
CF
102
{ACAD_XDICTIONARY
360
164
102
}
102
{ACAD_REACTORS
330
C3
102
}
330
C3
100
AcDbVisualStyle
  2
Brighten
 70
    12
177
     2
291
     1
 71
     2
176
     1
 72
     2
176
     1
 73
     0
176
     1
 90
        0
176
     1
 40
0.6
176
     1
 41
30.0
176
     1
 63
     7
421
 16777215
176
     1
 74
     1
176
     1
 91
        4
176
     1
 64
     7
176
     1
 65
   257
176
     1
 75
     1
176
     1
175
     1
176
     1
 42
1.0
176
     1
 92
        8
176
     1
 66
     7
176
     1
 43
1.0
176
     1
 76
     1
176
     1
 77
     6
176
     1
 78
     2
176
     1
 67
     7
176
     1
 79
     5
176
     1
170
     0
176
     1
171
     0
176
     1
290
     0
176
     1
 93
        1
176
     1
 44
50.0
176
     1
173
     0
176
     1
1001
ACAD
1000
AcDbSavedByObjectVersion
1070
     0
  0
VISUALSTYLE
  5
D3
102
{ACAD_XDICTIONARY
360
16C
102
}
102
{ACAD_REACTORS
330
C3
102
}
330
C3
100
AcDbVisualStyle
  2
ColorChange
 70
    16
177
     2
291
     1
 71
     2
176
     1
 72
     2
176
     1
 73
     3
176
     1
 90
        0
176
     1
 40
0.6
176
     1
 41
30.0
176
     1
 63
     8
421
  8421504
176
     1
 74
     1
176
     1
 91
        4
176
     1
 64
     7
176
     1
 65
   257
176
     1
 75
     1
176
     1
175
     1
176
     1
 42
1.0
176
     1
 92
        8
176
     1
 66
     8
424
  8421504
176
     1
 43
1.0
176
     1
 76
     1
176
     1
 77
     6
176
     1
 78
     2
176
     1
 67
     7
176
     1
 79
     5
176
     1
170
     0
176
     1
171
     0
176
     1
290
     0
176
     1
 93
        1
176
     1
 44
0.0
176
     1
173
     0
176
     1
1001
ACAD
1000
AcDbSavedByObjectVersion
1070
     0
  0
VISUALSTYLE
  5
CC
102
{ACAD_XDICTIONARY
360
15E
102
}
102
{ACAD_REACTORS
330
C3
102
}
330
C3
100
AcDbVisualStyle
  2
Conceptual
 70
     9
177
     2
291
     0
 71
     3
176
     1
 72
     2
176
     1
 73
     0
176
     1
 90
        0
176
     1
 40
0.6
176
     1
 41
30.0
176
     1
 63
     7
421
 16777215
176
     1
 74
     2
176
     1
 91
        2
176
     1
 64
     7
176
     1
 65
   257
176
     1
 75
     1
176
     1
175
     1
176
     1
 42
179.0
176
     1
 92
        8
176
     1
 66
     7
176
     1
 43
1.0
176
     1
 76
     1
176
     1
 77
     6
176
     1
 78
     2
176
     1
 67
     7
176
     1
 79
     3
176
     1
170
     0
176
     1
171
     0
176
     1
290
     0
176
     1
 93
        1
176
     1
 44
0.0
176
     1
173
     0
176
     1
1001
ACAD
1000
AcDbSavedByObjectVersion
1070
     0
  0
VISUALSTYLE
  5
CE
102
{ACAD_XDICTIONARY
360
162
102
}
102
{ACAD_REACTORS
330
C3
102
}
330
C3
100
AcDbVisualStyle
  2
Dim
 70
    11
177
     2
291
     1
 71
     2
176
     1
 72
     2
176
     1
 73
     0
176
     1
 90
        0
176
     1
 40
0.6
176
     1
 41
30.0
176
     1
 63
     7
421
 16777215
176
     1
 74
     1
176
     1
 91
        4
176
     1
 64
     7
176
     1
 65
   257
176
     1
 75
     1
176
     1
175
     1
176
     1
 42
1.0
176
     1
 92
        8
176
     1
 66
     7
176
     1
 43
1.0
176
     1
 76
     1
176
     1
 77
     6
176
     1
 78
     2
176
     1
 67
     7
176
     1
 79
     5
176
     1
170
     0
176
     1
171
     0
176
     1
290
     0
176
     1
 93
        1
176
     1
 44
-50.0
176
     1
173
     0
176
     1
1001
ACAD
1000
AcDbSavedByObjectVersion
1070
     0
  0
VISUALSTYLE
  5
DB
102
{ACAD_XDICTIONARY
360
17C
102
}
102
{ACAD_REACTORS
330
C3
102
}
330
C3
100
AcDbVisualStyle
  2
EdgeColorOff
 70
    22
177
     2
291
     1
 71
     2
176
     0
 72
     2
176
     0
 73
     0
176
     0
 90
        0
176
     0
 40
0.6
176
     0
 41
30.0
176
     0
 63
     7
421
 16777215
176
     0
 74
     1
176
     0
 91
        4
176
     0
 64
     7
176
     0
 65
   257
176
     0
 75
     1
176
     0
175
     1
176
     0
 42
1.0
176
     0
 92
        8
176
     2
 66
     7
176
     0
 43
1.0
176
     0
 76
     1
176
     0
 77
     6
176
     0
 78
     2
176
     0
 67
     7
176
     0
 79
     5
176
     0
170
     0
176
     0
171
     0
176
     0
290
     0
176
     0
 93
        1
176
     0
 44
0.0
176
     0
173
     0
176
     0
1001
ACAD
1000
AcDbSavedByObjectVersion
1070
     0
  0
VISUALSTYLE
  5
D2
102
{ACAD_XDICTIONARY
360
16A
102
}
102
{ACAD_REACTORS
330
C3
102
}
330
C3
100
AcDbVisualStyle
  2
Facepattern
 70
    15
177
     2
291
     1
 71
     2
176
     1
 72
     2
176
     1
 73
     0
176
     1
 90
        0
176
     1
 40
0.6
176
     1
 41
30.0
176
     1
 63
     7
421
 16777215
176
     1
 74
     1
176
     1
 91
        4
176
     1
 64
     7
176
     1
 65
   257
176
     1
 75
     1
176
     1
175
     1
176
     1
 42
1.0
176
     1
 92
        8
176
     1
 66
     7
176
     1
 43
1.0
176
     1
 76
     1
176
     1
 77
     6
176
     1
 78
     2
176
     1
 67
     7
176
     1
 79
     5
176
     1
170
     0
176
     1
171
     0
176
     1
290
     0
176
     1
 93
        1
176
     1
 44
0.0
176
     1
173
     0
176
     1
1001
ACAD
1000
AcDbSavedByObjectVersion
1070
     0
  0
VISUALSTYLE
  5
C4
102
{ACAD_XDICTIONARY
360
14E
102
}
102
{ACAD_REACTORS
330
C3
102
}
330
C3
100
AcDbVisualStyle
  2
Flat
 70
     0
177
     2
291
     1
 71
     2
176
     1
 72
     1
176
     1
 73
     1
176
     1
 90
        2
176
     1
 40
0.6
176
     1
 41
30.0
176
     1
 63
     7
421
 16777215
176
     1
 74
     0
176
     1
 91
        0
176
     1
 64
     7
176
     1
 65
   257
176
     1
 75
     1
176
     1
175
     1
176
     1
 42
1.0
176
     1
 92
        8
176
     1
 66
     7
176
     1
 43
1.0
176
     1
 76
     1
176
     1
 77
     6
176
     1
 78
     2
176
     1
 67
     7
176
     1
 79
     5
176
     1
170
     0
176
     1
171
     0
176
     1
290
     0
176
     1
 93
       13
176
     1
 44
0.0
176
     1
173
     0
176
     1
1001
ACAD
1000
AcDbSavedByObjectVersion
1070
     0
  0
VISUALSTYLE
  5
C5
102
{ACAD_XDICTIONARY
360
150
102
}
102
{ACAD_REACTORS
330
C3
102
}
330
C3
100
AcDbVisualStyle
  2
FlatWithEdges
 70
     1
177
     2
291
     1
 71
     2
176
     1
 72
     1
176
     1
 73
     1
176
     1
 90
        2
176
     1
 40
0.6
176
     1
 41
30.0
176
     1
 63
     7
421
 16777215
176
     1
 74
     1
176
     1
 91
        0
176
     1
 64
     7
176
     1
 65
   257
176
     1
 75
     1
176
     1
175
     1
176
     1
 42
1.0
176
     1
 92
        0
176
     1
 66
   257
176
     1
 43
1.0
176
     1
 76
     1
176
     1
 77
     6
176
     1
 78
     2
176
     1
 67
     7
176
     1
 79
     5
176
     1
170
     0
176
     1
171
     0
176
     1
290
     0
176
     1
 93
       13
176
     1
 44
0.0
176
     1
173
     0
176
     1
1001
ACAD
1000
AcDbSavedByObjectVersion
1070
     0
  0
VISUALSTYLE
  5
C6
102
{ACAD_XDICTIONARY
360
152
102
}
102
{ACAD_REACTORS
330
C3
102
}
330
C3
100
AcDbVisualStyle
  2
Gouraud
 70
     2
177
     2
291
     1
 71
     2
176
     1
 72
     2
176
     1
 73
     1
176
     1
 90
        2
176
     1
 40
0.6
176
     1
 41
30.0
176
     1
 63
     7
421
 16777215
176
     1
 74
     0
176
     1
 91
        0
176
     1
 64
     7
176
     1
 65
   257
176
     1
 75
     1
176
     1
175
     1
176
     1
 42
1.0
176
     1
 92
        0
176
     1
 66
     7
176
     1
 43
1.0
176
     1
 76
     1
176
     1
 77
     6
176
     1
 78
     2
176
     1
 67
     7
176
     1
 79
     5
176
     1
170
     0
176
     1
171
     0
176
     1
290
     0
176
     1
 93
       13
176
     1
 44
0.0
176
     1
173
     0
176
     1
1001
ACAD
1000
AcDbSavedByObjectVersion
1070
     0
  0
VISUALSTYLE
  5
C7
102
{ACAD_XDICTIONARY
360
154
102
}
102
{ACAD_REACTORS
330
C3
102
}
330
C3
100
AcDbVisualStyle
  2
GouraudWithEdges
 70
     3
177
     2
291
     1
 71
     2
176
     1
 72
     2
176
     1
 73
     1
176
     1
 90
        2
176
     1
 40
0.6
176
     1
 41
30.0
176
     1
 63
     7
421
 16777215
176
     1
 74
     1
176
     1
 91
        0
176
     1
 64
     7
176
     1
 65
   257
176
     1
 75
     1
176
     1
175
     1
176
     1
 42
1.0
176
     1
 92
        0
176
     1
 66
   257
176
     1
 43
1.0
176
     1
 76
     1
176
     1
 77
     6
176
     1
 78
     2
176
     1
 67
     7
176
     1
 79
     5
176
     1
170
     0
176
     1
171
     0
176
     1
290
     0
176
     1
 93
       13
176
     1
 44
0.0
176
     1
173
     0
176
     1
1001
ACAD
1000
AcDbSavedByObjectVersion
1070
     0
  0
VISUALSTYLE
  5
CB
102
{ACAD_XDICTIONARY
360
15C
102
}
102
{ACAD_REACTORS
330
C3
102
}
330
C3
100
AcDbVisualStyle
  2
Hidden
 70
     6
177
     2
291
     0
 71
     1
176
     1
 72
     2
176
     1
 73
     2
176
     1
 90
        0
176
     1
 40
0.6
176
     1
 41
30.0
176
     1
 63
     7
421
 16777215
176
     1
 74
     2
176
     1
 91
        2
176
     1
 64
     7
176
     1
 65
   257
176
     1
 75
     2
176
     1
175
     1
176
     1
 42
40.0
176
     1
 92
        0
176
     1
 66
   257
176
     1
 43
1.0
176
     1
 76
     1
176
     1
 77
     6
176
     1
 78
     2
176
     1
 67
     7
176
     1
 79
     3
176
     1
170
     0
176
     1
171
     0
176
     1
290
     0
176
     1
 93
        1
176
     1
 44
0.0
176
     1
173
     0
176
     1
1001
ACAD
1000
AcDbSavedByObjectVersion
1070
     0
  0
VISUALSTYLE
  5
D9
102
{ACAD_XDICTIONARY
360
178
102
}
102
{ACAD_REACTORS
330
C3
102
}
330
C3
100
AcDbVisualStyle
  2
JitterOff
 70
    20
177
     2
291
     1
 71
     2
176
     0
 72
     2
176
     0
 73
     0
176
     0
 90
        0
176
     0
 40
0.6
176
     0
 41
30.0
176
     0
 63
     7
421
 16777215
176
     0
 74
     1
176
     0
 91
        4
176
     0
 64
     7
176
     0
 65
   257
176
     0
 75
     1
176
     0
175
     1
176
     0
 42
1.0
176
     0
 92
       10
176
     2
 66
     7
176
     0
 43
1.0
176
     0
 76
     1
176
     0
 77
     6
176
     0
 78
     2
176
     0
 67
     7
176
     0
 79
     5
176
     0
170
     0
176
     0
171
     0
176
     0
290
     0
176
     0
 93
        1
176
     0
 44
0.0
176
     0
173
     0
176
     0
1001
ACAD
1000
AcDbSavedByObjectVersion
1070
     0
  0
VISUALSTYLE
  5
D1
102
{ACAD_XDICTIONARY
360
168
102
}
102
{ACAD_REACTORS
330
C3
102
}
330
C3
100
AcDbVisualStyle
  2
Linepattern
 70
    14
177
     2
291
     1
 71
     2
176
     1
 72
     2
176
     1
 73
     0
176
     1
 90
        0
176
     1
 40
0.6
176
     1
 41
30.0
176
     1
 63
     7
421
 16777215
176
     1
 74
     1
176
     1
 91
        4
176
     1
 64
     7
176
     1
 65
   257
176
     1
 75
     7
176
     1
175
     7
176
     1
 42
1.0
176
     1
 92
        8
176
     1
 66
     7
176
     1
 43
1.0
176
     1
 76
     1
176
     1
 77
     6
176
     1
 78
     2
176
     1
 67
     7
176
     1
 79
     5
176
     1
170
     0
176
     1
171
     0
176
     1
290
     0
176
     1
 93
        1
176
     1
 44
0.0
176
     1
173
     0
176
     1
1001
ACAD
1000
AcDbSavedByObjectVersion
1070
     0
  0
VISUALSTYLE
  5
DA
102
{ACAD_XDICTIONARY
360
17A
102
}
102
{ACAD_REACTORS
330
C3
102
}
330
C3
100
AcDbVisualStyle
  2
OverhangOff
 70
    21
177
     2
291
     1
 71
     2
176
     0
 72
     2
176
     0
 73
     0
176
     0
 90
        0
176
     0
 40
0.6
176
     0
 41
30.0
176
     0
 63
     7
421
 16777215
176
     0
 74
     1
176
     0
 91
        4
176
     0
 64
     7
176
     0
 65
   257
176
     0
 75
     1
176
     0
175
     1
176
     0
 42
1.0
176
     0
 92
        9
176
     2
 66
     7
176
     0
 43
1.0
176
     0
 76
     1
176
     0
 77
     6
176
     0
 78
     2
176
     0
 67
     7
176
     0
 79
     5
176
     0
170
     0
176
     0
171
     0
176
     0
290
     0
176
     0
 93
        1
176
     0
 44
0.0
176
     0
173
     0
176
     0
1001
ACAD
1000
AcDbSavedByObjectVersion
1070
     0
  0
VISUALSTYLE
  5
CD
102
{ACAD_XDICTIONARY
360
160
102
}
102
{ACAD_REACTORS
330
C3
102
}
330
C3
100
AcDbVisualStyle
  2
Realistic
 70
     8
177
     2
291
     0
 71
     2
176
     1
 72
     3
176
     1
 73
     0
176
     1
 90
        2
176
     1
 40
0.6
176
     1
 41
30.0
176
     1
 63
     7
421
 16777215
176
     1
 74
     0
176
     1
 91
        0
176
     1
 64
     7
176
     1
 65
   257
176
     1
 75
     1
176
     1
175
     1
176
     1
 42
1.0
176
     1
 92
        8
176
     1
 66
   257
176
     1
 43
1.0
176
     1
 76
     1
176
     1
 77
     6
176
     1
 78
     2
176
     1
 67
     7
176
     1
 79
     3
176
     1
170
     0
176
     1
171
     0
176
     1
290
     0
176
     1
 93
       13
176
     1
 44
0.0
176
     1
173
     0
176
     1
1001
ACAD
1000
AcDbSavedByObjectVersion
1070
     0
  0
VISUALSTYLE
  5
D8
102
{ACAD_XDICTIONARY
360
176
102
}
102
{ACAD_REACTORS
330
C3
102
}
330
C3
100
AcDbVisualStyle
  2
Shaded
 70
    27
177
     2
291
     0
 71
     2
176
     1
 72
     2
176
     1
 73
     1
176
     1
 90
        2
176
     1
 40
0.6
176
     1
 41
30.0
176
     1
 63
     7
421
 16777215
176
     1
 74
     0
176
     1
 91
        4
176
     1
 64
     7
176
     1
 65
   257
176
     1
 75
     1
176
     1
175
     1
176
     1
 42
1.0
176
     1
 92
        8
176
     1
 66
   257
176
     1
 43
1.0
176
     1
 76
     1
176
     1
 77
     6
176
     1
 78
     2
176
     1
 67
     8
425
  7895160
176
     1
 79
     3
176
     1
170
     0
176
     1
171
     0
176
     1
290
     0
176
     1
 93
        5
176
     1
 44
0.0
176
     1
173
     0
176
     1
1001
ACAD
1000
AcDbSavedByObjectVersion
1070
     0
  0
VISUALSTYLE
  5
D7
102
{ACAD_XDICTIONARY
360
174
102
}
102
{ACAD_REACTORS
330
C3
102
}
330
C3
100
AcDbVisualStyle
  2
Shaded with edges
 70
    26
177
     2
291
     0
 71
     2
176
     1
 72
     2
176
     1
 73
     1
176
     1
 90
        2
176
     1
 40
0.6
176
     1
 41
30.0
176
     1
 63
     7
421
 16777215
176
     1
 74
     1
176
     1
 91
       10
176
     1
 64
     7
176
     1
 65
   257
176
     1
 75
     2
176
     1
175
     1
176
     1
 42
1.0
176
     1
 92
        8
176
     1
 66
   257
176
     1
 43
1.0
176
     1
 76
     1
176
     1
 77
     6
176
     1
 78
     2
176
     1
 67
     7
176
     1
 79
     3
176
     1
170
     0
176
     1
171
     0
176
     1
290
     0
176
     1
 93
        5
176
     1
 44
0.0
176
     1
173
     0
176
     1
1001
ACAD
1000
AcDbSavedByObjectVersion
1070
     0
  0
VISUALSTYLE
  5
D4
102
{ACAD_XDICTIONARY
360
16E
102
}
102
{ACAD_REACTORS
330
C3
102
}
330
C3
100
AcDbVisualStyle
  2
Shades of Gray
 70
    23
177
     2
291
     0
 71
     2
176
     1
 72
     2
176
     1
 73
     3
176
     1
 90
        0
176
     1
 40
0.6
176
     1
 41
30.0
176
     1
 63
     7
421
 16777215
176
     1
 74
     2
176
     1
 91
        2
176
     1
 64
     7
176
     1
 65
     7
176
     1
 75
     1
176
     1
175
     1
176
     1
 42
40.0
176
     1
 92
        8
176
     1
 66
     7
176
     1
 43
1.0
176
     1
 76
     1
176
     1
 77
     6
176
     1
 78
     2
176
     1
 67
     7
176
     1
 79
     3
176
     1
170
     0
176
     1
171
     0
176
     1
290
     0
176
     1
 93
        1
176
     1
 44
0.0
176
     1
173
     0
176
     1
1001
ACAD
1000
AcDbSavedByObjectVersion
1070
     0
  0
VISUALSTYLE
  5
D5
102
{ACAD_XDICTIONARY
360
170
102
}
102
{ACAD_REACTORS
330
C3
102
}
330
C3
100
AcDbVisualStyle
  2
Sketchy
 70
    24
177
     2
291
     0
 71
     1
176
     1
 72
     2
176
     1
 73
     2
176
     1
 90
        0
176
     1
 40
0.6
176
     1
 41
30.0
176
     1
 63
     7
421
 16777215
176
     1
 74
     2
176
     1
 91
        2
176
     1
 64
     7
176
     1
 65
     7
176
     1
 75
     1
176
     1
175
     1
176
     1
 42
40.0
176
     1
 92
       11
176
     1
 66
     7
176
     1
 43
1.0
176
     1
 76
     1
176
     1
 77
     6
176
     1
 78
     2
176
     1
 67
     7
176
     1
 79
     6
176
     1
170
     0
176
     1
171
     0
176
     1
290
     0
176
     1
 93
        1
176
     1
 44
0.0
176
     1
173
     0
176
     1
1001
ACAD
1000
AcDbSavedByObjectVersion
1070
     0
  0
VISUALSTYLE
  5
D0
102
{ACAD_XDICTIONARY
360
166
102
}
102
{ACAD_REACTORS
330
C3
102
}
330
C3
100
AcDbVisualStyle
  2
Thicken
 70
    13
177
     2
291
     1
 71
     2
176
     1
 72
     2
176
     1
 73
     0
176
     1
 90
        0
176
     1
 40
0.6
176
     1
 41
30.0
176
     1
 63
     7
421
 16777215
176
     1
 74
     1
176
     1
 91
        4
176
     1
 64
     7
176
     1
 65
   257
176
     1
 75
     1
176
     1
175
     1
176
     1
 42
1.0
176
     1
 92
       12
176
     1
 66
     7
176
     1
 43
1.0
176
     1
 76
     1
176
     1
 77
     6
176
     1
 78
     2
176
     1
 67
     7
176
     1
 79
     5
176
     1
170
     0
176
     1
171
     0
176
     1
290
     0
176
     1
 93
        1
176
     1
 44
0.0
176
     1
173
     0
176
     1
1001
ACAD
1000
AcDbSavedByObjectVersion
1070
     0
  0
VISUALSTYLE
  5
CA
102
{ACAD_XDICTIONARY
360
15A
102
}
102
{ACAD_REACTORS
330
C3
102
}
330
C3
100
AcDbVisualStyle
  2
Wireframe
 70
     5
177
     2
291
     0
 71
     0
176
     1
 72
     2
176
     1
 73
     0
176
     1
 90
        0
176
     1
 40
0.6
176
     1
 41
30.0
176
     1
 63
     7
421
 16777215
176
     1
 74
     1
176
     1
 91
        4
176
     1
 64
     7
176
     1
 65
   257
176
     1
 75
     1
176
     1
175
     1
176
     1
 42
1.0
176
     1
 92
        0
176
     1
 66
   257
176
     1
 43
1.0
176
     1
 76
     1
176
     1
 77
     6
176
     1
 78
     2
176
     1
 67
     7
176
     1
 79
     3
176
     1
170
     0
176
     1
171
     0
176
     1
290
     0
176
     1
 93
        1
176
     1
 44
0.0
176
     1
173
     0
176
     1
1001
ACAD
1000
AcDbSavedByObjectVersion
1070
     0
  0
VISUALSTYLE
  5
D6
102
{ACAD_XDICTIONARY
360
172
102
}
102
{ACAD_REACTORS
330
C3
102
}
330
C3
100
AcDbVisualStyle
  2
X-Ray
 70
    25
177
     2
291
     0
 71
     2
176
     1
 72
     2
176
     1
 73
     1
176
     1
 90
        1
176
     1
 40
0.5
176
     1
 41
30.0
176
     1
 63
     7
421
 16777215
176
     1
 74
     1
176
     1
 91
        0
176
     1
 64
     7
176
     1
 65
   257
176
     1
 75
     1
176
     1
175
     1
176
     1
 42
1.0
176
     1
 92
        8
176
     1
 66
     7
176
     1
 43
1.0
176
     1
 76
     1
176
     1
 77
     6
176
     1
 78
     2
176
     1
 67
     7
176
     1
 79
     3
176
     1
170
     0
176
     1
171
     0
176
     1
290
     0
176
     1
 93
       13
176
     1
 44
0.0
176
     1
173
     0
176
     1
1001
ACAD
1000
AcDbSavedByObjectVersion
1070
     0
  0
DICTIONARYVAR
  5
147
102
{ACAD_REACTORS
330
141
102
}
330
141
100
DictionaryVariables
280
     0
  1
1:1
  0
DICTIONARYVAR
  5
143
102
{ACAD_REACTORS
330
141
102
}
330
141
100
DictionaryVariables
280
     0
  1
STANDARD
  0
DICTIONARYVAR
  5
142
102
{ACAD_REACTORS
330
141
102
}
330
141
100
DictionaryVariables
280
     0
  1
STANDARD
  0
DICTIONARYVAR
  5
144
102
{ACAD_REACTORS
330
141
102
}
330
141
100
DictionaryVariables
280
     0
  1
Imperial24
  0
DICTIONARYVAR
  5
145
102
{ACAD_REACTORS
330
141
102
}
330
141
100
DictionaryVariables
280
     0
  1
Imperial24
  0
DICTIONARYVAR
  5
149
102
{ACAD_REACTORS
330
141
102
}
330
141
100
DictionaryVariables
280
     0
  1
1
  0
DICTIONARYVAR
  5
14A
102
{ACAD_REACTORS
330
141
102
}
330
141
100
DictionaryVariables
280
     0
  1
15
  0
DICTIONARYVAR
  5
148
102
{ACAD_REACTORS
330
141
102
}
330
141
100
DictionaryVariables
280
     0
  1
0
  0
DICTIONARYVAR
  5
146
102
{ACAD_REACTORS
330
141
102
}
330
141
100
DictionaryVariables
280
     0
  1
0
  0
DICTIONARY
  5
182
330
F6
100
AcDbDictionary
280
     1
281
     1
  3
ACAD_XREC_ROUNDTRIP
360
183
  0
DICTIONARY
  5
B4
330
B3
100
AcDbDictionary
280
     1
281
     1
  3
BUMPTILE
360
B6
  3
DIFFUSETILE
360
B5
  3
OPACITYTILE
360
B9
  3
REFLECTIONTILE
360
B8
  3
REFRACTIONTILE
360
BA
  3
SPECULARTILE
360
B7
  0
DICTIONARY
  5
AC
330
AB
100
AcDbDictionary
280
     1
281
     1
  3
BUMPTILE
360
AE
  3
DIFFUSETILE
360
AD
  3
OPACITYTILE
360
B1
  3
REFLECTIONTILE
360
B0
  3
REFRACTIONTILE
360
B2
  3
SPECULARTILE
360
AF
  0
DICTIONARY
  5
BC
330
BB
100
AcDbDictionary
280
     1
281
     1
  3
BUMPTILE
360
BE
  3
DIFFUSETILE
360
BD
  3
OPACITYTILE
360
C1
  3
REFLECTIONTILE
360
C0
  3
REFRACTIONTILE
360
C2
  3
SPECULARTILE
360
BF
  0
DICTIONARY
  5
17E
330
F2
100
AcDbDictionary
280
     1
281
     1
  3
ACAD_XREC_ROUNDTRIP
360
17F
  0
DICTIONARY
  5
180
330
F4
100
AcDbDictionary
280
     1
281
     1
  3
ACAD_XREC_ROUNDTRIP
360
181
  0
DICTIONARY
  5
14B
330
DE
100
AcDbDictionary
280
     1
281
     1
  3
ACAD_ROUNDTRIP_2008_TABLESTYLE_CELLSTYLEMAP
360
14C
  0
DICTIONARY
  5
158
330
C9
100
AcDbDictionary
280
     1
281
     1
  3
ACAD_XREC_ROUNDTRIP
360
159
  0
DICTIONARY
  5
156
330
C8
100
AcDbDictionary
280
     1
281
     1
  3
ACAD_XREC_ROUNDTRIP
360
157
  0
DICTIONARY
  5
164
330
CF
100
AcDbDictionary
280
     1
281
     1
  3
ACAD_XREC_ROUNDTRIP
360
165
  0
DICTIONARY
  5
16C
330
D3
100
AcDbDictionary
280
     1
281
     1
  3
ACAD_XREC_ROUNDTRIP
360
16D
  0
DICTIONARY
  5
15E
330
CC
100
AcDbDictionary
280
     1
281
     1
  3
ACAD_XREC_ROUNDTRIP
360
15F
  0
DICTIONARY
  5
162
330
CE
100
AcDbDictionary
280
     1
281
     1
  3
ACAD_XREC_ROUNDTRIP
360
163
  0
DICTIONARY
  5
17C
330
DB
100
AcDbDictionary
280
     1
281
     1
  3
ACAD_XREC_ROUNDTRIP
360
17D
  0
DICTIONARY
  5
16A
330
D2
100
AcDbDictionary
280
     1
281
     1
  3
ACAD_XREC_ROUNDTRIP
360
16B
  0
DICTIONARY
  5
14E
330
C4
100
AcDbDictionary
280
     1
281
     1
  3
ACAD_XREC_ROUNDTRIP
360
14F
  0
DICTIONARY
  5
150
330
C5
100
AcDbDictionary
280
     1
281
     1
  3
ACAD_XREC_ROUNDTRIP
360
151
  0
DICTIONARY
  5
152
330
C6
100
AcDbDictionary
280
     1
281
     1
  3
ACAD_XREC_ROUNDTRIP
360
153
  0
DICTIONARY
  5
154
330
C7
100
AcDbDictionary
280
     1
281
     1
  3
ACAD_XREC_ROUNDTRIP
360
155
  0
DICTIONARY
  5
15C
330
CB
100
AcDbDictionary
280
     1
281
     1
  3
ACAD_XREC_ROUNDTRIP
360
15D
  0
DICTIONARY
  5
178
330
D9
100
AcDbDictionary
280
     1
281
     1
  3
ACAD_XREC_ROUNDTRIP
360
179
  0
DICTIONARY
  5
168
330
D1
100
AcDbDictionary
280
     1
281
     1
  3
ACAD_XREC_ROUNDTRIP
360
169
  0
DICTIONARY
  5
17A
330
DA
100
AcDbDictionary
280
     1
281
     1
  3
ACAD_XREC_ROUNDTRIP
360
17B
  0
DICTIONARY
  5
160
330
CD
100
AcDbDictionary
280
     1
281
     1
  3
ACAD_XREC_ROUNDTRIP
360
161
  0
DICTIONARY
  5
176
330
D8
100
AcDbDictionary
280
     1
281
     1
  3
ACAD_XREC_ROUNDTRIP
360
177
  0
DICTIONARY
  5
174
330
D7
100
AcDbDictionary
280
     1
281
     1
  3
ACAD_XREC_ROUNDTRIP
360
175
  0
DICTIONARY
  5
16E
330
D4
100
AcDbDictionary
280
     1
281
     1
  3
ACAD_XREC_ROUNDTRIP
360
16F
  0
DICTIONARY
  5
170
330
D5
100
AcDbDictionary
280
     1
281
     1
  3
ACAD_XREC_ROUNDTRIP
360
171
  0
DICTIONARY
  5
166
330
D0
100
AcDbDictionary
280
     1
281
     1
  3
ACAD_XREC_ROUNDTRIP
360
167
  0
DICTIONARY
  5
15A
330
CA
100
AcDbDictionary
280
     1
281
     1
  3
ACAD_XREC_ROUNDTRIP
360
15B
  0
DICTIONARY
  5
172
330
D6
100
AcDbDictionary
280
     1
281
     1
  3
ACAD_XREC_ROUNDTRIP
360
173
  0
XRECORD
  5
183
102
{ACAD_REACTORS
330
182
102
}
330
182
100
AcDbXrecord
280
     1
102
DISPLAYNAME
  1
Imperial24
102
FLAGS
 90
        0
  0
XRECORD
  5
B6
102
{ACAD_REACTORS
330
B4
102
}
330
B4
100
AcDbXrecord
280
     1
270
     1
271
     1
  0
XRECORD
  5
B5
102
{ACAD_REACTORS
330
B4
102
}
330
B4
100
AcDbXrecord
280
     1
270
     1
271
     1
  0
XRECORD
  5
B9
102
{ACAD_REACTORS
330
B4
102
}
330
B4
100
AcDbXrecord
280
     1
270
     1
271
     1
  0
XRECORD
  5
B8
102
{ACAD_REACTORS
330
B4
102
}
330
B4
100
AcDbXrecord
280
     1
270
     1
271
     1
  0
XRECORD
  5
BA
102
{ACAD_REACTORS
330
B4
102
}
330
B4
100
AcDbXrecord
280
     1
270
     1
271
     1
  0
XRECORD
  5
B7
102
{ACAD_REACTORS
330
B4
102
}
330
B4
100
AcDbXrecord
280
     1
270
     1
271
     1
  0
XRECORD
  5
AE
102
{ACAD_REACTORS
330
AC
102
}
330
AC
100
AcDbXrecord
280
     1
270
     1
271
     1
  0
XRECORD
  5
AD
102
{ACAD_REACTORS
330
AC
102
}
330
AC
100
AcDbXrecord
280
     1
270
     1
271
     1
  0
XRECORD
  5
B1
102
{ACAD_REACTORS
330
AC
102
}
330
AC
100
AcDbXrecord
280
     1
270
     1
271
     1
  0
XRECORD
  5
B0
102
{ACAD_REACTORS
330
AC
102
}
330
AC
100
AcDbXrecord
280
     1
270
     1
271
     1
  0
XRECORD
  5
B2
102
{ACAD_REACTORS
330
AC
102
}
330
AC
100
AcDbXrecord
280
     1
270
     1
271
     1
  0
XRECORD
  5
AF
102
{ACAD_REACTORS
330
AC
102
}
330
AC
100
AcDbXrecord
280
     1
270
     1
271
     1
  0
XRECORD
  5
BE
102
{ACAD_REACTORS
330
BC
102
}
330
BC
100
AcDbXrecord
280
     1
270
     1
271
     1
  0
XRECORD
  5
BD
102
{ACAD_REACTORS
330
BC
102
}
330
BC
100
AcDbXrecord
280
     1
270
     1
271
     1
  0
XRECORD
  5
C1
102
{ACAD_REACTORS
330
BC
102
}
330
BC
100
AcDbXrecord
280
     1
270
     1
271
     1
  0
XRECORD
  5
C0
102
{ACAD_REACTORS
330
BC
102
}
330
BC
100
AcDbXrecord
280
     1
270
     1
271
     1
  0
XRECORD
  5
C2
102
{ACAD_REACTORS
330
BC
102
}
330
BC
100
AcDbXrecord
280
     1
270
     1
271
     1
  0
XRECORD
  5
BF
102
{ACAD_REACTORS
330
BC
102
}
330
BC
100
AcDbXrecord
280
     1
270
     1
271
     1
  0
XRECORD
  5
17F
102
{ACAD_REACTORS
330
17E
102
}
330
17E
100
AcDbXrecord
280
     1
102
ACAD_ROUNDTRIP_2012_MLEADER_STYLE
298
     1
  0
XRECORD
  5
181
102
{ACAD_REACTORS
330
180
102
}
330
180
100
AcDbXrecord
280
     1
102
DISPLAYNAME
  1
Imperial24
102
FLAGS
 90
        0
  0
CELLSTYLEMAP
  5
14C
102
{ACAD_REACTORS
330
14B
102
}
330
14B
100
AcDbCellStyleMap
 90
        3
300
CELLSTYLE
  1
TABLEFORMAT_BEGIN
 90
        5
170
     1
 91
        0
 92
    32768
 62
   257
 93
        1
300
CONTENTFORMAT
  1
CONTENTFORMAT_BEGIN
 90
        0
 91
        0
 92
      512
 93
        0
300

 40
0.0
140
1.0
 94
        5
 62
     0
340
11
144
0.25
309
CONTENTFORMAT_END
171
     0
 94
        0
309
TABLEFORMAT_END
  1
CELLSTYLE_BEGIN
 90
        1
 91
        1
300
_TITLE
309
CELLSTYLE_END
300
CELLSTYLE
  1
TABLEFORMAT_BEGIN
 90
        5
170
     1
 91
        0
 92
        0
 62
   257
 93
        1
300
CONTENTFORMAT
  1
CONTENTFORMAT_BEGIN
 90
        0
 91
        0
 92
      512
 93
        0
300

 40
0.0
140
1.0
 94
        5
 62
     0
340
11
144
0.18
309
CONTENTFORMAT_END
171
     0
 94
        0
309
TABLEFORMAT_END
  1
CELLSTYLE_BEGIN
 90
        2
 91
        1
300
_HEADER
309
CELLSTYLE_END
300
CELLSTYLE
  1
TABLEFORMAT_BEGIN
 90
        5
170
     1
 91
        0
 92
        0
 62
   257
 93
        1
300
CONTENTFORMAT
  1
CONTENTFORMAT_BEGIN
 90
        0
 91
        0
 92
      512
 93
        0
300

 40
0.0
140
1.0
 94
        2
 62
     0
340
11
144
0.18
309
CONTENTFORMAT_END
171
     0
 94
        0
309
TABLEFORMAT_END
  1
CELLSTYLE_BEGIN
 90
        3
 91
        2
300
_DATA
309
CELLSTYLE_END
  0
XRECORD
  5
159
102
{ACAD_REACTORS
330
158
102
}
330
158
100
AcDbXrecord
280
     1
102
RTVSPost2010Prop28
280
     1
102
RTVSPost2010PropOp28
 70
     1
102
RTVSPost2010Prop29
280
     1
102
RTVSPost2010PropOp29
 70
     1
102
RTVSPost2010Prop30
280
     0
102
RTVSPost2010PropOp30
 70
     1
102
RTVSPost2010Prop31
280
     0
102
RTVSPost2010PropOp31
 70
     1
102
RTVSPost2010Prop32
280
     0
102
RTVSPost2010PropOp32
 70
     1
102
RTVSPost2010Prop33
280
     0
102
RTVSPost2010PropOp33
 70
     1
102
RTVSPost2010Prop34
280
     0
102
RTVSPost2010PropOp34
 70
     1
102
RTVSPost2010Prop35
280
     0
102
RTVSPost2010PropOp35
 70
     1
102
RTVSPost2010Prop36
280
     0
102
RTVSPost2010PropOp36
 70
     1
102
RTVSPost2010Prop37
 90
       50
102
RTVSPost2010PropOp37
 70
     1
102
RTVSPost2010Prop38
140
0.0
102
RTVSPost2010PropOp38
 70
     1
102
RTVSPost2010Prop39
140
1.0
102
RTVSPost2010PropOp39
 70
     1
102
RTVSPost2010Prop40
 90
        0
102
RTVSPost2010PropOp40
 70
     1
102
RTVSPost2010Prop41ColorIndex
 90
       18
102
RTVSPost2010Prop41ColorRGB
 90
        0
102
RTVSPost2010PropOp41
 70
     1
102
RTVSPost2010Prop42
 90
       50
102
RTVSPost2010PropOp42
 70
     1
102
RTVSPost2010Prop43
 90
        3
102
RTVSPost2010PropOp43
 70
     1
102
RTVSPost2010Prop44ColorIndex
 90
        5
102
RTVSPost2010Prop44ColorRGB
 90
      255
102
RTVSPost2010PropOp44
 70
     1
102
RTVSPost2010Prop45
280
     0
102
RTVSPost2010PropOp45
 70
     1
102
RTVSPost2010Prop46
 90
       50
102
RTVSPost2010PropOp46
 70
     1
102
RTVSPost2010Prop47
 90
       50
102
RTVSPost2010PropOp47
 70
     1
102
RTVSPost2010Prop48
 90
       50
102
RTVSPost2010PropOp48
 70
     1
102
RTVSPost2010Prop49
280
     0
102
RTVSPost2010PropOp49
 70
     1
102
RTVSPost2010Prop50
 90
       50
102
RTVSPost2010PropOp50
 70
     1
102
RTVSPost2010Prop51ColorIndex
 90
      256
102
RTVSPost2010Prop51ColorRGB
 90
-16777216
102
RTVSPost2010PropOp51
 70
     0
102
RTVSPost2010Prop52
140
1.0
102
RTVSPost2010PropOp52
 70
     0
102
RTVSPost2010Prop53
 90
        2
102
RTVSPost2010PropOp53
 70
     1
102
RTVSPost2010Prop54
  1
strokes_ogs.tif
102
RTVSPost2010PropOp54
 70
     1
102
RTVSPost2010Prop55
280
     0
102
RTVSPost2010PropOp55
 70
     1
102
RTVSPost2010Prop56
140
1.0
102
RTVSPost2010PropOp56
 70
     1
102
RTVSPost2010Prop57
140
1.0
102
RTVSPost2010PropOp57
 70
     1
  0
XRECORD
  5
157
102
{ACAD_REACTORS
330
156
102
}
330
156
100
AcDbXrecord
280
     1
102
RTVSPost2010Prop28
280
     0
102
RTVSPost2010PropOp28
 70
     1
102
RTVSPost2010Prop29
280
     1
102
RTVSPost2010PropOp29
 70
     1
102
RTVSPost2010Prop30
280
     1
102
RTVSPost2010PropOp30
 70
     1
102
RTVSPost2010Prop31
280
     0
102
RTVSPost2010PropOp31
 70
     1
102
RTVSPost2010Prop32
280
     0
102
RTVSPost2010PropOp32
 70
     1
102
RTVSPost2010Prop33
280
     0
102
RTVSPost2010PropOp33
 70
     1
102
RTVSPost2010Prop34
280
     0
102
RTVSPost2010PropOp34
 70
     1
102
RTVSPost2010Prop35
280
     0
102
RTVSPost2010PropOp35
 70
     1
102
RTVSPost2010Prop36
280
     0
102
RTVSPost2010PropOp36
 70
     1
102
RTVSPost2010Prop37
 90
       50
102
RTVSPost2010PropOp37
 70
     1
102
RTVSPost2010Prop38
140
0.0
102
RTVSPost2010PropOp38
 70
     1
102
RTVSPost2010Prop39
140
1.0
102
RTVSPost2010PropOp39
 70
     1
102
RTVSPost2010Prop40
 90
        0
102
RTVSPost2010PropOp40
 70
     1
102
RTVSPost2010Prop41ColorIndex
 90
       18
102
RTVSPost2010Prop41ColorRGB
 90
        0
102
RTVSPost2010PropOp41
 70
     1
102
RTVSPost2010Prop42
 90
       50
102
RTVSPost2010PropOp42
 70
     1
102
RTVSPost2010Prop43
 90
        3
102
RTVSPost2010PropOp43
 70
     1
102
RTVSPost2010Prop44ColorIndex
 90
        5
102
RTVSPost2010Prop44ColorRGB
 90
      255
102
RTVSPost2010PropOp44
 70
     1
102
RTVSPost2010Prop45
280
     0
102
RTVSPost2010PropOp45
 70
     1
102
RTVSPost2010Prop46
 90
       50
102
RTVSPost2010PropOp46
 70
     1
102
RTVSPost2010Prop47
 90
       50
102
RTVSPost2010PropOp47
 70
     1
102
RTVSPost2010Prop48
 90
       50
102
RTVSPost2010PropOp48
 70
     1
102
RTVSPost2010Prop49
280
     0
102
RTVSPost2010PropOp49
 70
     1
102
RTVSPost2010Prop50
 90
       50
102
RTVSPost2010PropOp50
 70
     1
102
RTVSPost2010Prop51ColorIndex
 90
      256
102
RTVSPost2010Prop51ColorRGB
 90
-16777216
102
RTVSPost2010PropOp51
 70
     0
102
RTVSPost2010Prop52
140
1.0
102
RTVSPost2010PropOp52
 70
     0
102
RTVSPost2010Prop53
 90
        2
102
RTVSPost2010PropOp53
 70
     1
102
RTVSPost2010Prop54
  1
strokes_ogs.tif
102
RTVSPost2010PropOp54
 70
     1
102
RTVSPost2010Prop55
280
     0
102
RTVSPost2010PropOp55
 70
     1
102
RTVSPost2010Prop56
140
1.0
102
RTVSPost2010PropOp56
 70
     1
102
RTVSPost2010Prop57
140
1.0
102
RTVSPost2010PropOp57
 70
     1
  0
XRECORD
  5
165
102
{ACAD_REACTORS
330
164
102
}
330
164
100
AcDbXrecord
280
     1
102
RTVSPost2010Prop28
280
     0
102
RTVSPost2010PropOp28
 70
     1
102
RTVSPost2010Prop29
280
     1
102
RTVSPost2010PropOp29
 70
     1
102
RTVSPost2010Prop30
280
     1
102
RTVSPost2010PropOp30
 70
     1
102
RTVSPost2010Prop31
280
     0
102
RTVSPost2010PropOp31
 70
     1
102
RTVSPost2010Prop32
280
     0
102
RTVSPost2010PropOp32
 70
     1
102
RTVSPost2010Prop33
280
     0
102
RTVSPost2010PropOp33
 70
     1
102
RTVSPost2010Prop34
280
     0
102
RTVSPost2010PropOp34
 70
     1
102
RTVSPost2010Prop35
280
     0
102
RTVSPost2010PropOp35
 70
     1
102
RTVSPost2010Prop36
280
     0
102
RTVSPost2010PropOp36
 70
     1
102
RTVSPost2010Prop37
 90
       50
102
RTVSPost2010PropOp37
 70
     1
102
RTVSPost2010Prop38
140
0.0
102
RTVSPost2010PropOp38
 70
     1
102
RTVSPost2010Prop39
140
1.0
102
RTVSPost2010PropOp39
 70
     1
102
RTVSPost2010Prop40
 90
        0
102
RTVSPost2010PropOp40
 70
     1
102
RTVSPost2010Prop41ColorIndex
 90
       18
102
RTVSPost2010Prop41ColorRGB
 90
        0
102
RTVSPost2010PropOp41
 70
     1
102
RTVSPost2010Prop42
 90
       50
102
RTVSPost2010PropOp42
 70
     1
102
RTVSPost2010Prop43
 90
        3
102
RTVSPost2010PropOp43
 70
     1
102
RTVSPost2010Prop44ColorIndex
 90
        5
102
RTVSPost2010Prop44ColorRGB
 90
      255
102
RTVSPost2010PropOp44
 70
     1
102
RTVSPost2010Prop45
280
     0
102
RTVSPost2010PropOp45
 70
     1
102
RTVSPost2010Prop46
 90
       50
102
RTVSPost2010PropOp46
 70
     1
102
RTVSPost2010Prop47
 90
       50
102
RTVSPost2010PropOp47
 70
     1
102
RTVSPost2010Prop48
 90
       50
102
RTVSPost2010PropOp48
 70
     1
102
RTVSPost2010Prop49
280
     0
102
RTVSPost2010PropOp49
 70
     1
102
RTVSPost2010Prop50
 90
       50
102
RTVSPost2010PropOp50
 70
     1
102
RTVSPost2010Prop51ColorIndex
 90
      256
102
RTVSPost2010Prop51ColorRGB
 90
-16777216
102
RTVSPost2010PropOp51
 70
     0
102
RTVSPost2010Prop52
140
1.0
102
RTVSPost2010PropOp52
 70
     0
102
RTVSPost2010Prop53
 90
        2
102
RTVSPost2010PropOp53
 70
     1
102
RTVSPost2010Prop54
  1
strokes_ogs.tif
102
RTVSPost2010PropOp54
 70
     1
102
RTVSPost2010Prop55
280
     0
102
RTVSPost2010PropOp55
 70
     1
102
RTVSPost2010Prop56
140
1.0
102
RTVSPost2010PropOp56
 70
     1
102
RTVSPost2010Prop57
140
1.0
102
RTVSPost2010PropOp57
 70
     1
  0
XRECORD
  5
16D
102
{ACAD_REACTORS
330
16C
102
}
330
16C
100
AcDbXrecord
280
     1
102
RTVSPost2010Prop28
280
     0
102
RTVSPost2010PropOp28
 70
     1
102
RTVSPost2010Prop29
280
     1
102
RTVSPost2010PropOp29
 70
     1
102
RTVSPost2010Prop30
280
     1
102
RTVSPost2010PropOp30
 70
     1
102
RTVSPost2010Prop31
280
     0
102
RTVSPost2010PropOp31
 70
     1
102
RTVSPost2010Prop32
280
     0
102
RTVSPost2010PropOp32
 70
     1
102
RTVSPost2010Prop33
280
     0
102
RTVSPost2010PropOp33
 70
     1
102
RTVSPost2010Prop34
280
     0
102
RTVSPost2010PropOp34
 70
     1
102
RTVSPost2010Prop35
280
     0
102
RTVSPost2010PropOp35
 70
     1
102
RTVSPost2010Prop36
280
     0
102
RTVSPost2010PropOp36
 70
     1
102
RTVSPost2010Prop37
 90
       50
102
RTVSPost2010PropOp37
 70
     1
102
RTVSPost2010Prop38
140
0.0
102
RTVSPost2010PropOp38
 70
     1
102
RTVSPost2010Prop39
140
1.0
102
RTVSPost2010PropOp39
 70
     1
102
RTVSPost2010Prop40
 90
        0
102
RTVSPost2010PropOp40
 70
     1
102
RTVSPost2010Prop41ColorIndex
 90
       18
102
RTVSPost2010Prop41ColorRGB
 90
        0
102
RTVSPost2010PropOp41
 70
     1
102
RTVSPost2010Prop42
 90
       50
102
RTVSPost2010PropOp42
 70
     1
102
RTVSPost2010Prop43
 90
        3
102
RTVSPost2010PropOp43
 70
     1
102
RTVSPost2010Prop44ColorIndex
 90
        5
102
RTVSPost2010Prop44ColorRGB
 90
      255
102
RTVSPost2010PropOp44
 70
     1
102
RTVSPost2010Prop45
280
     0
102
RTVSPost2010PropOp45
 70
     1
102
RTVSPost2010Prop46
 90
       50
102
RTVSPost2010PropOp46
 70
     1
102
RTVSPost2010Prop47
 90
       50
102
RTVSPost2010PropOp47
 70
     1
102
RTVSPost2010Prop48
 90
       50
102
RTVSPost2010PropOp48
 70
     1
102
RTVSPost2010Prop49
280
     0
102
RTVSPost2010PropOp49
 70
     1
102
RTVSPost2010Prop50
 90
       50
102
RTVSPost2010PropOp50
 70
     1
102
RTVSPost2010Prop51ColorIndex
 90
      256
102
RTVSPost2010Prop51ColorRGB
 90
-16777216
102
RTVSPost2010PropOp51
 70
     0
102
RTVSPost2010Prop52
140
1.0
102
RTVSPost2010PropOp52
 70
     0
102
RTVSPost2010Prop53
 90
        2
102
RTVSPost2010PropOp53
 70
     1
102
RTVSPost2010Prop54
  1
strokes_ogs.tif
102
RTVSPost2010PropOp54
 70
     1
102
RTVSPost2010Prop55
280
     0
102
RTVSPost2010PropOp55
 70
     1
102
RTVSPost2010Prop56
140
1.0
102
RTVSPost2010PropOp56
 70
     1
102
RTVSPost2010Prop57
140
1.0
102
RTVSPost2010PropOp57
 70
     1
  0
XRECORD
  5
15F
102
{ACAD_REACTORS
330
15E
102
}
330
15E
100
AcDbXrecord
280
     1
102
RTVSPost2010Prop28
280
     0
102
RTVSPost2010PropOp28
 70
     1
102
RTVSPost2010Prop29
280
     1
102
RTVSPost2010PropOp29
 70
     1
102
RTVSPost2010Prop30
280
     1
102
RTVSPost2010PropOp30
 70
     1
102
RTVSPost2010Prop31
280
     0
102
RTVSPost2010PropOp31
 70
     1
102
RTVSPost2010Prop32
280
     0
102
RTVSPost2010PropOp32
 70
     1
102
RTVSPost2010Prop33
280
     0
102
RTVSPost2010PropOp33
 70
     1
102
RTVSPost2010Prop34
280
     0
102
RTVSPost2010PropOp34
 70
     1
102
RTVSPost2010Prop35
280
     0
102
RTVSPost2010PropOp35
 70
     1
102
RTVSPost2010Prop36
280
     0
102
RTVSPost2010PropOp36
 70
     1
102
RTVSPost2010Prop37
 90
       50
102
RTVSPost2010PropOp37
 70
     1
102
RTVSPost2010Prop38
140
0.0
102
RTVSPost2010PropOp38
 70
     1
102
RTVSPost2010Prop39
140
1.0
102
RTVSPost2010PropOp39
 70
     1
102
RTVSPost2010Prop40
 90
        0
102
RTVSPost2010PropOp40
 70
     1
102
RTVSPost2010Prop41ColorIndex
 90
       18
102
RTVSPost2010Prop41ColorRGB
 90
        0
102
RTVSPost2010PropOp41
 70
     1
102
RTVSPost2010Prop42
 90
       50
102
RTVSPost2010PropOp42
 70
     1
102
RTVSPost2010Prop43
 90
        3
102
RTVSPost2010PropOp43
 70
     1
102
RTVSPost2010Prop44ColorIndex
 90
        5
102
RTVSPost2010Prop44ColorRGB
 90
      255
102
RTVSPost2010PropOp44
 70
     1
102
RTVSPost2010Prop45
280
     0
102
RTVSPost2010PropOp45
 70
     1
102
RTVSPost2010Prop46
 90
       50
102
RTVSPost2010PropOp46
 70
     1
102
RTVSPost2010Prop47
 90
       50
102
RTVSPost2010PropOp47
 70
     1
102
RTVSPost2010Prop48
 90
       50
102
RTVSPost2010PropOp48
 70
     1
102
RTVSPost2010Prop49
280
     0
102
RTVSPost2010PropOp49
 70
     1
102
RTVSPost2010Prop50
 90
       50
102
RTVSPost2010PropOp50
 70
     1
102
RTVSPost2010Prop51ColorIndex
 90
      256
102
RTVSPost2010Prop51ColorRGB
 90
-16777216
102
RTVSPost2010PropOp51
 70
     0
102
RTVSPost2010Prop52
140
1.0
102
RTVSPost2010PropOp52
 70
     0
102
RTVSPost2010Prop53
 90
        2
102
RTVSPost2010PropOp53
 70
     1
102
RTVSPost2010Prop54
  1
strokes_ogs.tif
102
RTVSPost2010PropOp54
 70
     1
102
RTVSPost2010Prop55
280
     0
102
RTVSPost2010PropOp55
 70
     1
102
RTVSPost2010Prop56
140
1.0
102
RTVSPost2010PropOp56
 70
     1
102
RTVSPost2010Prop57
140
1.0
102
RTVSPost2010PropOp57
 70
     1
  0
XRECORD
  5
163
102
{ACAD_REACTORS
330
162
102
}
330
162
100
AcDbXrecord
280
     1
102
RTVSPost2010Prop28
280
     0
102
RTVSPost2010PropOp28
 70
     1
102
RTVSPost2010Prop29
280
     1
102
RTVSPost2010PropOp29
 70
     1
102
RTVSPost2010Prop30
280
     1
102
RTVSPost2010PropOp30
 70
     1
102
RTVSPost2010Prop31
280
     0
102
RTVSPost2010PropOp31
 70
     1
102
RTVSPost2010Prop32
280
     0
102
RTVSPost2010PropOp32
 70
     1
102
RTVSPost2010Prop33
280
     0
102
RTVSPost2010PropOp33
 70
     1
102
RTVSPost2010Prop34
280
     0
102
RTVSPost2010PropOp34
 70
     1
102
RTVSPost2010Prop35
280
     0
102
RTVSPost2010PropOp35
 70
     1
102
RTVSPost2010Prop36
280
     0
102
RTVSPost2010PropOp36
 70
     1
102
RTVSPost2010Prop37
 90
       50
102
RTVSPost2010PropOp37
 70
     1
102
RTVSPost2010Prop38
140
0.0
102
RTVSPost2010PropOp38
 70
     1
102
RTVSPost2010Prop39
140
1.0
102
RTVSPost2010PropOp39
 70
     1
102
RTVSPost2010Prop40
 90
        0
102
RTVSPost2010PropOp40
 70
     1
102
RTVSPost2010Prop41ColorIndex
 90
       18
102
RTVSPost2010Prop41ColorRGB
 90
        0
102
RTVSPost2010PropOp41
 70
     1
102
RTVSPost2010Prop42
 90
       50
102
RTVSPost2010PropOp42
 70
     1
102
RTVSPost2010Prop43
 90
        3
102
RTVSPost2010PropOp43
 70
     1
102
RTVSPost2010Prop44ColorIndex
 90
        5
102
RTVSPost2010Prop44ColorRGB
 90
      255
102
RTVSPost2010PropOp44
 70
     1
102
RTVSPost2010Prop45
280
     0
102
RTVSPost2010PropOp45
 70
     1
102
RTVSPost2010Prop46
 90
       50
102
RTVSPost2010PropOp46
 70
     1
102
RTVSPost2010Prop47
 90
       50
102
RTVSPost2010PropOp47
 70
     1
102
RTVSPost2010Prop48
 90
       50
102
RTVSPost2010PropOp48
 70
     1
102
RTVSPost2010Prop49
280
     0
102
RTVSPost2010PropOp49
 70
     1
102
RTVSPost2010Prop50
 90
       50
102
RTVSPost2010PropOp50
 70
     1
102
RTVSPost2010Prop51ColorIndex
 90
      256
102
RTVSPost2010Prop51ColorRGB
 90
-16777216
102
RTVSPost2010PropOp51
 70
     0
102
RTVSPost2010Prop52
140
1.0
102
RTVSPost2010PropOp52
 70
     0
102
RTVSPost2010Prop53
 90
        2
102
RTVSPost2010PropOp53
 70
     1
102
RTVSPost2010Prop54
  1
strokes_ogs.tif
102
RTVSPost2010PropOp54
 70
     1
102
RTVSPost2010Prop55
280
     0
102
RTVSPost2010PropOp55
 70
     1
102
RTVSPost2010Prop56
140
1.0
102
RTVSPost2010PropOp56
 70
     1
102
RTVSPost2010Prop57
140
1.0
102
RTVSPost2010PropOp57
 70
     1
  0
XRECORD
  5
17D
102
{ACAD_REACTORS
330
17C
102
}
330
17C
100
AcDbXrecord
280
     1
102
RTVSPost2010Prop28
280
     0
102
RTVSPost2010PropOp28
 70
     0
102
RTVSPost2010Prop29
280
     1
102
RTVSPost2010PropOp29
 70
     0
102
RTVSPost2010Prop30
280
     1
102
RTVSPost2010PropOp30
 70
     0
102
RTVSPost2010Prop31
280
     0
102
RTVSPost2010PropOp31
 70
     0
102
RTVSPost2010Prop32
280
     0
102
RTVSPost2010PropOp32
 70
     0
102
RTVSPost2010Prop33
280
     0
102
RTVSPost2010PropOp33
 70
     0
102
RTVSPost2010Prop34
280
     0
102
RTVSPost2010PropOp34
 70
     0
102
RTVSPost2010Prop35
280
     0
102
RTVSPost2010PropOp35
 70
     0
102
RTVSPost2010Prop36
280
     0
102
RTVSPost2010PropOp36
 70
     0
102
RTVSPost2010Prop37
 90
       50
102
RTVSPost2010PropOp37
 70
     0
102
RTVSPost2010Prop38
140
0.0
102
RTVSPost2010PropOp38
 70
     0
102
RTVSPost2010Prop39
140
1.0
102
RTVSPost2010PropOp39
 70
     0
102
RTVSPost2010Prop40
 90
        0
102
RTVSPost2010PropOp40
 70
     0
102
RTVSPost2010Prop41ColorIndex
 90
       18
102
RTVSPost2010Prop41ColorRGB
 90
        0
102
RTVSPost2010PropOp41
 70
     0
102
RTVSPost2010Prop42
 90
       50
102
RTVSPost2010PropOp42
 70
     0
102
RTVSPost2010Prop43
 90
        3
102
RTVSPost2010PropOp43
 70
     0
102
RTVSPost2010Prop44ColorIndex
 90
        5
102
RTVSPost2010Prop44ColorRGB
 90
      255
102
RTVSPost2010PropOp44
 70
     0
102
RTVSPost2010Prop45
280
     0
102
RTVSPost2010PropOp45
 70
     0
102
RTVSPost2010Prop46
 90
       50
102
RTVSPost2010PropOp46
 70
     0
102
RTVSPost2010Prop47
 90
       50
102
RTVSPost2010PropOp47
 70
     0
102
RTVSPost2010Prop48
 90
       50
102
RTVSPost2010PropOp48
 70
     0
102
RTVSPost2010Prop49
280
     0
102
RTVSPost2010PropOp49
 70
     0
102
RTVSPost2010Prop50
 90
       50
102
RTVSPost2010PropOp50
 70
     0
102
RTVSPost2010Prop51ColorIndex
 90
      256
102
RTVSPost2010Prop51ColorRGB
 90
-16777216
102
RTVSPost2010PropOp51
 70
     0
102
RTVSPost2010Prop52
140
1.0
102
RTVSPost2010PropOp52
 70
     0
102
RTVSPost2010Prop53
 90
        2
102
RTVSPost2010PropOp53
 70
     0
102
RTVSPost2010Prop54
  1
strokes_ogs.tif
102
RTVSPost2010PropOp54
 70
     0
102
RTVSPost2010Prop55
280
     0
102
RTVSPost2010PropOp55
 70
     0
102
RTVSPost2010Prop56
140
1.0
102
RTVSPost2010PropOp56
 70
     0
102
RTVSPost2010Prop57
140
1.0
102
RTVSPost2010PropOp57
 70
     0
  0
XRECORD
  5
16B
102
{ACAD_REACTORS
330
16A
102
}
330
16A
100
AcDbXrecord
280
     1
102
RTVSPost2010Prop28
280
     0
102
RTVSPost2010PropOp28
 70
     1
102
RTVSPost2010Prop29
280
     1
102
RTVSPost2010PropOp29
 70
     1
102
RTVSPost2010Prop30
280
     1
102
RTVSPost2010PropOp30
 70
     1
102
RTVSPost2010Prop31
280
     0
102
RTVSPost2010PropOp31
 70
     1
102
RTVSPost2010Prop32
280
     0
102
RTVSPost2010PropOp32
 70
     1
102
RTVSPost2010Prop33
280
     0
102
RTVSPost2010PropOp33
 70
     1
102
RTVSPost2010Prop34
280
     0
102
RTVSPost2010PropOp34
 70
     1
102
RTVSPost2010Prop35
280
     0
102
RTVSPost2010PropOp35
 70
     1
102
RTVSPost2010Prop36
280
     0
102
RTVSPost2010PropOp36
 70
     1
102
RTVSPost2010Prop37
 90
       50
102
RTVSPost2010PropOp37
 70
     1
102
RTVSPost2010Prop38
140
0.0
102
RTVSPost2010PropOp38
 70
     1
102
RTVSPost2010Prop39
140
1.0
102
RTVSPost2010PropOp39
 70
     1
102
RTVSPost2010Prop40
 90
        0
102
RTVSPost2010PropOp40
 70
     1
102
RTVSPost2010Prop41ColorIndex
 90
       18
102
RTVSPost2010Prop41ColorRGB
 90
        0
102
RTVSPost2010PropOp41
 70
     1
102
RTVSPost2010Prop42
 90
       50
102
RTVSPost2010PropOp42
 70
     1
102
RTVSPost2010Prop43
 90
        3
102
RTVSPost2010PropOp43
 70
     1
102
RTVSPost2010Prop44ColorIndex
 90
        5
102
RTVSPost2010Prop44ColorRGB
 90
      255
102
RTVSPost2010PropOp44
 70
     1
102
RTVSPost2010Prop45
280
     0
102
RTVSPost2010PropOp45
 70
     1
102
RTVSPost2010Prop46
 90
       50
102
RTVSPost2010PropOp46
 70
     1
102
RTVSPost2010Prop47
 90
       50
102
RTVSPost2010PropOp47
 70
     1
102
RTVSPost2010Prop48
 90
       50
102
RTVSPost2010PropOp48
 70
     1
102
RTVSPost2010Prop49
280
     0
102
RTVSPost2010PropOp49
 70
     1
102
RTVSPost2010Prop50
 90
       50
102
RTVSPost2010PropOp50
 70
     1
102
RTVSPost2010Prop51ColorIndex
 90
      256
102
RTVSPost2010Prop51ColorRGB
 90
-16777216
102
RTVSPost2010PropOp51
 70
     0
102
RTVSPost2010Prop52
140
1.0
102
RTVSPost2010PropOp52
 70
     0
102
RTVSPost2010Prop53
 90
        2
102
RTVSPost2010PropOp53
 70
     1
102
RTVSPost2010Prop54
  1
strokes_ogs.tif
102
RTVSPost2010PropOp54
 70
     1
102
RTVSPost2010Prop55
280
     0
102
RTVSPost2010PropOp55
 70
     1
102
RTVSPost2010Prop56
140
1.0
102
RTVSPost2010PropOp56
 70
     1
102
RTVSPost2010Prop57
140
1.0
102
RTVSPost2010PropOp57
 70
     1
  0
XRECORD
  5
14F
102
{ACAD_REACTORS
330
14E
102
}
330
14E
100
AcDbXrecord
280
     1
102
RTVSPost2010Prop28
280
     0
102
RTVSPost2010PropOp28
 70
     1
102
RTVSPost2010Prop29
280
     1
102
RTVSPost2010PropOp29
 70
     1
102
RTVSPost2010Prop30
280
     1
102
RTVSPost2010PropOp30
 70
     1
102
RTVSPost2010Prop31
280
     0
102
RTVSPost2010PropOp31
 70
     1
102
RTVSPost2010Prop32
280
     0
102
RTVSPost2010PropOp32
 70
     1
102
RTVSPost2010Prop33
280
     0
102
RTVSPost2010PropOp33
 70
     1
102
RTVSPost2010Prop34
280
     0
102
RTVSPost2010PropOp34
 70
     1
102
RTVSPost2010Prop35
280
     0
102
RTVSPost2010PropOp35
 70
     1
102
RTVSPost2010Prop36
280
     0
102
RTVSPost2010PropOp36
 70
     1
102
RTVSPost2010Prop37
 90
       50
102
RTVSPost2010PropOp37
 70
     1
102
RTVSPost2010Prop38
140
0.0
102
RTVSPost2010PropOp38
 70
     1
102
RTVSPost2010Prop39
140
1.0
102
RTVSPost2010PropOp39
 70
     1
102
RTVSPost2010Prop40
 90
        0
102
RTVSPost2010PropOp40
 70
     1
102
RTVSPost2010Prop41ColorIndex
 90
       18
102
RTVSPost2010Prop41ColorRGB
 90
        0
102
RTVSPost2010PropOp41
 70
     1
102
RTVSPost2010Prop42
 90
       50
102
RTVSPost2010PropOp42
 70
     1
102
RTVSPost2010Prop43
 90
        3
102
RTVSPost2010PropOp43
 70
     1
102
RTVSPost2010Prop44ColorIndex
 90
        5
102
RTVSPost2010Prop44ColorRGB
 90
      255
102
RTVSPost2010PropOp44
 70
     1
102
RTVSPost2010Prop45
280
     0
102
RTVSPost2010PropOp45
 70
     1
102
RTVSPost2010Prop46
 90
       50
102
RTVSPost2010PropOp46
 70
     1
102
RTVSPost2010Prop47
 90
       50
102
RTVSPost2010PropOp47
 70
     1
102
RTVSPost2010Prop48
 90
       50
102
RTVSPost2010PropOp48
 70
     1
102
RTVSPost2010Prop49
280
     0
102
RTVSPost2010PropOp49
 70
     1
102
RTVSPost2010Prop50
 90
       50
102
RTVSPost2010PropOp50
 70
     1
102
RTVSPost2010Prop51ColorIndex
 90
      256
102
RTVSPost2010Prop51ColorRGB
 90
-16777216
102
RTVSPost2010PropOp51
 70
     0
102
RTVSPost2010Prop52
140
1.0
102
RTVSPost2010PropOp52
 70
     0
102
RTVSPost2010Prop53
 90
        2
102
RTVSPost2010PropOp53
 70
     1
102
RTVSPost2010Prop54
  1
strokes_ogs.tif
102
RTVSPost2010PropOp54
 70
     1
102
RTVSPost2010Prop55
280
     0
102
RTVSPost2010PropOp55
 70
     1
102
RTVSPost2010Prop56
140
1.0
102
RTVSPost2010PropOp56
 70
     1
102
RTVSPost2010Prop57
140
1.0
102
RTVSPost2010PropOp57
 70
     1
  0
XRECORD
  5
151
102
{ACAD_REACTORS
330
150
102
}
330
150
100
AcDbXrecord
280
     1
102
RTVSPost2010Prop28
280
     0
102
RTVSPost2010PropOp28
 70
     1
102
RTVSPost2010Prop29
280
     1
102
RTVSPost2010PropOp29
 70
     1
102
RTVSPost2010Prop30
280
     1
102
RTVSPost2010PropOp30
 70
     1
102
RTVSPost2010Prop31
280
     0
102
RTVSPost2010PropOp31
 70
     1
102
RTVSPost2010Prop32
280
     0
102
RTVSPost2010PropOp32
 70
     1
102
RTVSPost2010Prop33
280
     0
102
RTVSPost2010PropOp33
 70
     1
102
RTVSPost2010Prop34
280
     0
102
RTVSPost2010PropOp34
 70
     1
102
RTVSPost2010Prop35
280
     0
102
RTVSPost2010PropOp35
 70
     1
102
RTVSPost2010Prop36
280
     0
102
RTVSPost2010PropOp36
 70
     1
102
RTVSPost2010Prop37
 90
       50
102
RTVSPost2010PropOp37
 70
     1
102
RTVSPost2010Prop38
140
0.0
102
RTVSPost2010PropOp38
 70
     1
102
RTVSPost2010Prop39
140
1.0
102
RTVSPost2010PropOp39
 70
     1
102
RTVSPost2010Prop40
 90
        0
102
RTVSPost2010PropOp40
 70
     1
102
RTVSPost2010Prop41ColorIndex
 90
       18
102
RTVSPost2010Prop41ColorRGB
 90
        0
102
RTVSPost2010PropOp41
 70
     1
102
RTVSPost2010Prop42
 90
       50
102
RTVSPost2010PropOp42
 70
     1
102
RTVSPost2010Prop43
 90
        3
102
RTVSPost2010PropOp43
 70
     1
102
RTVSPost2010Prop44ColorIndex
 90
        5
102
RTVSPost2010Prop44ColorRGB
 90
      255
102
RTVSPost2010PropOp44
 70
     1
102
RTVSPost2010Prop45
280
     0
102
RTVSPost2010PropOp45
 70
     1
102
RTVSPost2010Prop46
 90
       50
102
RTVSPost2010PropOp46
 70
     1
102
RTVSPost2010Prop47
 90
       50
102
RTVSPost2010PropOp47
 70
     1
102
RTVSPost2010Prop48
 90
       50
102
RTVSPost2010PropOp48
 70
     1
102
RTVSPost2010Prop49
280
     0
102
RTVSPost2010PropOp49
 70
     1
102
RTVSPost2010Prop50
 90
       50
102
RTVSPost2010PropOp50
 70
     1
102
RTVSPost2010Prop51ColorIndex
 90
      256
102
RTVSPost2010Prop51ColorRGB
 90
-16777216
102
RTVSPost2010PropOp51
 70
     0
102
RTVSPost2010Prop52
140
1.0
102
RTVSPost2010PropOp52
 70
     0
102
RTVSPost2010Prop53
 90
        2
102
RTVSPost2010PropOp53
 70
     1
102
RTVSPost2010Prop54
  1
strokes_ogs.tif
102
RTVSPost2010PropOp54
 70
     1
102
RTVSPost2010Prop55
280
     0
102
RTVSPost2010PropOp55
 70
     1
102
RTVSPost2010Prop56
140
1.0
102
RTVSPost2010PropOp56
 70
     1
102
RTVSPost2010Prop57
140
1.0
102
RTVSPost2010PropOp57
 70
     1
  0
XRECORD
  5
153
102
{ACAD_REACTORS
330
152
102
}
330
152
100
AcDbXrecord
280
     1
102
RTVSPost2010Prop28
280
     0
102
RTVSPost2010PropOp28
 70
     1
102
RTVSPost2010Prop29
280
     1
102
RTVSPost2010PropOp29
 70
     1
102
RTVSPost2010Prop30
280
     1
102
RTVSPost2010PropOp30
 70
     1
102
RTVSPost2010Prop31
280
     0
102
RTVSPost2010PropOp31
 70
     1
102
RTVSPost2010Prop32
280
     0
102
RTVSPost2010PropOp32
 70
     1
102
RTVSPost2010Prop33
280
     0
102
RTVSPost2010PropOp33
 70
     1
102
RTVSPost2010Prop34
280
     0
102
RTVSPost2010PropOp34
 70
     1
102
RTVSPost2010Prop35
280
     0
102
RTVSPost2010PropOp35
 70
     1
102
RTVSPost2010Prop36
280
     0
102
RTVSPost2010PropOp36
 70
     1
102
RTVSPost2010Prop37
 90
       50
102
RTVSPost2010PropOp37
 70
     1
102
RTVSPost2010Prop38
140
0.0
102
RTVSPost2010PropOp38
 70
     1
102
RTVSPost2010Prop39
140
1.0
102
RTVSPost2010PropOp39
 70
     1
102
RTVSPost2010Prop40
 90
        0
102
RTVSPost2010PropOp40
 70
     1
102
RTVSPost2010Prop41ColorIndex
 90
       18
102
RTVSPost2010Prop41ColorRGB
 90
        0
102
RTVSPost2010PropOp41
 70
     1
102
RTVSPost2010Prop42
 90
       50
102
RTVSPost2010PropOp42
 70
     1
102
RTVSPost2010Prop43
 90
        3
102
RTVSPost2010PropOp43
 70
     1
102
RTVSPost2010Prop44ColorIndex
 90
        5
102
RTVSPost2010Prop44ColorRGB
 90
      255
102
RTVSPost2010PropOp44
 70
     1
102
RTVSPost2010Prop45
280
     0
102
RTVSPost2010PropOp45
 70
     1
102
RTVSPost2010Prop46
 90
       50
102
RTVSPost2010PropOp46
 70
     1
102
RTVSPost2010Prop47
 90
       50
102
RTVSPost2010PropOp47
 70
     1
102
RTVSPost2010Prop48
 90
       50
102
RTVSPost2010PropOp48
 70
     1
102
RTVSPost2010Prop49
280
     0
102
RTVSPost2010PropOp49
 70
     1
102
RTVSPost2010Prop50
 90
       50
102
RTVSPost2010PropOp50
 70
     1
102
RTVSPost2010Prop51ColorIndex
 90
      256
102
RTVSPost2010Prop51ColorRGB
 90
-16777216
102
RTVSPost2010PropOp51
 70
     0
102
RTVSPost2010Prop52
140
1.0
102
RTVSPost2010PropOp52
 70
     0
102
RTVSPost2010Prop53
 90
        2
102
RTVSPost2010PropOp53
 70
     1
102
RTVSPost2010Prop54
  1
strokes_ogs.tif
102
RTVSPost2010PropOp54
 70
     1
102
RTVSPost2010Prop55
280
     0
102
RTVSPost2010PropOp55
 70
     1
102
RTVSPost2010Prop56
140
1.0
102
RTVSPost2010PropOp56
 70
     1
102
RTVSPost2010Prop57
140
1.0
102
RTVSPost2010PropOp57
 70
     1
  0
XRECORD
  5
155
102
{ACAD_REACTORS
330
154
102
}
330
154
100
AcDbXrecord
280
     1
102
RTVSPost2010Prop28
280
     0
102
RTVSPost2010PropOp28
 70
     1
102
RTVSPost2010Prop29
280
     1
102
RTVSPost2010PropOp29
 70
     1
102
RTVSPost2010Prop30
280
     1
102
RTVSPost2010PropOp30
 70
     1
102
RTVSPost2010Prop31
280
     0
102
RTVSPost2010PropOp31
 70
     1
102
RTVSPost2010Prop32
280
     0
102
RTVSPost2010PropOp32
 70
     1
102
RTVSPost2010Prop33
280
     0
102
RTVSPost2010PropOp33
 70
     1
102
RTVSPost2010Prop34
280
     0
102
RTVSPost2010PropOp34
 70
     1
102
RTVSPost2010Prop35
280
     0
102
RTVSPost2010PropOp35
 70
     1
102
RTVSPost2010Prop36
280
     0
102
RTVSPost2010PropOp36
 70
     1
102
RTVSPost2010Prop37
 90
       50
102
RTVSPost2010PropOp37
 70
     1
102
RTVSPost2010Prop38
140
0.0
102
RTVSPost2010PropOp38
 70
     1
102
RTVSPost2010Prop39
140
1.0
102
RTVSPost2010PropOp39
 70
     1
102
RTVSPost2010Prop40
 90
        0
102
RTVSPost2010PropOp40
 70
     1
102
RTVSPost2010Prop41ColorIndex
 90
       18
102
RTVSPost2010Prop41ColorRGB
 90
        0
102
RTVSPost2010PropOp41
 70
     1
102
RTVSPost2010Prop42
 90
       50
102
RTVSPost2010PropOp42
 70
     1
102
RTVSPost2010Prop43
 90
        3
102
RTVSPost2010PropOp43
 70
     1
102
RTVSPost2010Prop44ColorIndex
 90
        5
102
RTVSPost2010Prop44ColorRGB
 90
      255
102
RTVSPost2010PropOp44
 70
     1
102
RTVSPost2010Prop45
280
     0
102
RTVSPost2010PropOp45
 70
     1
102
RTVSPost2010Prop46
 90
       50
102
RTVSPost2010PropOp46
 70
     1
102
RTVSPost2010Prop47
 90
       50
102
RTVSPost2010PropOp47
 70
     1
102
RTVSPost2010Prop48
 90
       50
102
RTVSPost2010PropOp48
 70
     1
102
RTVSPost2010Prop49
280
     0
102
RTVSPost2010PropOp49
 70
     1
102
RTVSPost2010Prop50
 90
       50
102
RTVSPost2010PropOp50
 70
     1
102
RTVSPost2010Prop51ColorIndex
 90
      256
102
RTVSPost2010Prop51ColorRGB
 90
-16777216
102
RTVSPost2010PropOp51
 70
     0
102
RTVSPost2010Prop52
140
1.0
102
RTVSPost2010PropOp52
 70
     0
102
RTVSPost2010Prop53
 90
        2
102
RTVSPost2010PropOp53
 70
     1
102
RTVSPost2010Prop54
  1
strokes_ogs.tif
102
RTVSPost2010PropOp54
 70
     1
102
RTVSPost2010Prop55
280
     0
102
RTVSPost2010PropOp55
 70
     1
102
RTVSPost2010Prop56
140
1.0
102
RTVSPost2010PropOp56
 70
     1
102
RTVSPost2010Prop57
140
1.0
102
RTVSPost2010PropOp57
 70
     1
  0
XRECORD
  5
15D
102
{ACAD_REACTORS
330
15C
102
}
330
15C
100
AcDbXrecord
280
     1
102
RTVSPost2010Prop28
280
     0
102
RTVSPost2010PropOp28
 70
     1
102
RTVSPost2010Prop29
280
     1
102
RTVSPost2010PropOp29
 70
     1
102
RTVSPost2010Prop30
280
     1
102
RTVSPost2010PropOp30
 70
     1
102
RTVSPost2010Prop31
280
     0
102
RTVSPost2010PropOp31
 70
     1
102
RTVSPost2010Prop32
280
     0
102
RTVSPost2010PropOp32
 70
     1
102
RTVSPost2010Prop33
280
     0
102
RTVSPost2010PropOp33
 70
     1
102
RTVSPost2010Prop34
280
     0
102
RTVSPost2010PropOp34
 70
     1
102
RTVSPost2010Prop35
280
     0
102
RTVSPost2010PropOp35
 70
     1
102
RTVSPost2010Prop36
280
     0
102
RTVSPost2010PropOp36
 70
     1
102
RTVSPost2010Prop37
 90
       50
102
RTVSPost2010PropOp37
 70
     1
102
RTVSPost2010Prop38
140
0.0
102
RTVSPost2010PropOp38
 70
     1
102
RTVSPost2010Prop39
140
1.0
102
RTVSPost2010PropOp39
 70
     1
102
RTVSPost2010Prop40
 90
        0
102
RTVSPost2010PropOp40
 70
     1
102
RTVSPost2010Prop41ColorIndex
 90
       18
102
RTVSPost2010Prop41ColorRGB
 90
        0
102
RTVSPost2010PropOp41
 70
     1
102
RTVSPost2010Prop42
 90
       50
102
RTVSPost2010PropOp42
 70
     1
102
RTVSPost2010Prop43
 90
        3
102
RTVSPost2010PropOp43
 70
     1
102
RTVSPost2010Prop44ColorIndex
 90
        5
102
RTVSPost2010Prop44ColorRGB
 90
      255
102
RTVSPost2010PropOp44
 70
     1
102
RTVSPost2010Prop45
280
     0
102
RTVSPost2010PropOp45
 70
     1
102
RTVSPost2010Prop46
 90
       50
102
RTVSPost2010PropOp46
 70
     1
102
RTVSPost2010Prop47
 90
       50
102
RTVSPost2010PropOp47
 70
     1
102
RTVSPost2010Prop48
 90
       50
102
RTVSPost2010PropOp48
 70
     1
102
RTVSPost2010Prop49
280
     0
102
RTVSPost2010PropOp49
 70
     1
102
RTVSPost2010Prop50
 90
       50
102
RTVSPost2010PropOp50
 70
     1
102
RTVSPost2010Prop51ColorIndex
 90
      256
102
RTVSPost2010Prop51ColorRGB
 90
-16777216
102
RTVSPost2010PropOp51
 70
     0
102
RTVSPost2010Prop52
140
1.0
102
RTVSPost2010PropOp52
 70
     0
102
RTVSPost2010Prop53
 90
        2
102
RTVSPost2010PropOp53
 70
     1
102
RTVSPost2010Prop54
  1
strokes_ogs.tif
102
RTVSPost2010PropOp54
 70
     1
102
RTVSPost2010Prop55
280
     0
102
RTVSPost2010PropOp55
 70
     1
102
RTVSPost2010Prop56
140
1.0
102
RTVSPost2010PropOp56
 70
     1
102
RTVSPost2010Prop57
140
1.0
102
RTVSPost2010PropOp57
 70
     1
  0
XRECORD
  5
179
102
{ACAD_REACTORS
330
178
102
}
330
178
100
AcDbXrecord
280
     1
102
RTVSPost2010Prop28
280
     0
102
RTVSPost2010PropOp28
 70
     0
102
RTVSPost2010Prop29
280
     1
102
RTVSPost2010PropOp29
 70
     0
102
RTVSPost2010Prop30
280
     1
102
RTVSPost2010PropOp30
 70
     0
102
RTVSPost2010Prop31
280
     0
102
RTVSPost2010PropOp31
 70
     0
102
RTVSPost2010Prop32
280
     0
102
RTVSPost2010PropOp32
 70
     0
102
RTVSPost2010Prop33
280
     0
102
RTVSPost2010PropOp33
 70
     0
102
RTVSPost2010Prop34
280
     0
102
RTVSPost2010PropOp34
 70
     0
102
RTVSPost2010Prop35
280
     0
102
RTVSPost2010PropOp35
 70
     0
102
RTVSPost2010Prop36
280
     0
102
RTVSPost2010PropOp36
 70
     0
102
RTVSPost2010Prop37
 90
       50
102
RTVSPost2010PropOp37
 70
     0
102
RTVSPost2010Prop38
140
0.0
102
RTVSPost2010PropOp38
 70
     0
102
RTVSPost2010Prop39
140
1.0
102
RTVSPost2010PropOp39
 70
     0
102
RTVSPost2010Prop40
 90
        0
102
RTVSPost2010PropOp40
 70
     0
102
RTVSPost2010Prop41ColorIndex
 90
       18
102
RTVSPost2010Prop41ColorRGB
 90
        0
102
RTVSPost2010PropOp41
 70
     0
102
RTVSPost2010Prop42
 90
       50
102
RTVSPost2010PropOp42
 70
     0
102
RTVSPost2010Prop43
 90
        3
102
RTVSPost2010PropOp43
 70
     0
102
RTVSPost2010Prop44ColorIndex
 90
        5
102
RTVSPost2010Prop44ColorRGB
 90
      255
102
RTVSPost2010PropOp44
 70
     0
102
RTVSPost2010Prop45
280
     0
102
RTVSPost2010PropOp45
 70
     0
102
RTVSPost2010Prop46
 90
       50
102
RTVSPost2010PropOp46
 70
     0
102
RTVSPost2010Prop47
 90
       50
102
RTVSPost2010PropOp47
 70
     0
102
RTVSPost2010Prop48
 90
       50
102
RTVSPost2010PropOp48
 70
     0
102
RTVSPost2010Prop49
280
     0
102
RTVSPost2010PropOp49
 70
     0
102
RTVSPost2010Prop50
 90
       50
102
RTVSPost2010PropOp50
 70
     0
102
RTVSPost2010Prop51ColorIndex
 90
      256
102
RTVSPost2010Prop51ColorRGB
 90
-16777216
102
RTVSPost2010PropOp51
 70
     0
102
RTVSPost2010Prop52
140
1.0
102
RTVSPost2010PropOp52
 70
     0
102
RTVSPost2010Prop53
 90
        2
102
RTVSPost2010PropOp53
 70
     0
102
RTVSPost2010Prop54
  1
strokes_ogs.tif
102
RTVSPost2010PropOp54
 70
     0
102
RTVSPost2010Prop55
280
     0
102
RTVSPost2010PropOp55
 70
     0
102
RTVSPost2010Prop56
140
1.0
102
RTVSPost2010PropOp56
 70
     0
102
RTVSPost2010Prop57
140
1.0
102
RTVSPost2010PropOp57
 70
     0
  0
XRECORD
  5
169
102
{ACAD_REACTORS
330
168
102
}
330
168
100
AcDbXrecord
280
     1
102
RTVSPost2010Prop28
280
     0
102
RTVSPost2010PropOp28
 70
     1
102
RTVSPost2010Prop29
280
     1
102
RTVSPost2010PropOp29
 70
     1
102
RTVSPost2010Prop30
280
     1
102
RTVSPost2010PropOp30
 70
     1
102
RTVSPost2010Prop31
280
     0
102
RTVSPost2010PropOp31
 70
     1
102
RTVSPost2010Prop32
280
     0
102
RTVSPost2010PropOp32
 70
     1
102
RTVSPost2010Prop33
280
     0
102
RTVSPost2010PropOp33
 70
     1
102
RTVSPost2010Prop34
280
     0
102
RTVSPost2010PropOp34
 70
     1
102
RTVSPost2010Prop35
280
     0
102
RTVSPost2010PropOp35
 70
     1
102
RTVSPost2010Prop36
280
     0
102
RTVSPost2010PropOp36
 70
     1
102
RTVSPost2010Prop37
 90
       50
102
RTVSPost2010PropOp37
 70
     1
102
RTVSPost2010Prop38
140
0.0
102
RTVSPost2010PropOp38
 70
     1
102
RTVSPost2010Prop39
140
1.0
102
RTVSPost2010PropOp39
 70
     1
102
RTVSPost2010Prop40
 90
        0
102
RTVSPost2010PropOp40
 70
     1
102
RTVSPost2010Prop41ColorIndex
 90
       18
102
RTVSPost2010Prop41ColorRGB
 90
        0
102
RTVSPost2010PropOp41
 70
     1
102
RTVSPost2010Prop42
 90
       50
102
RTVSPost2010PropOp42
 70
     1
102
RTVSPost2010Prop43
 90
        3
102
RTVSPost2010PropOp43
 70
     1
102
RTVSPost2010Prop44ColorIndex
 90
        5
102
RTVSPost2010Prop44ColorRGB
 90
      255
102
RTVSPost2010PropOp44
 70
     1
102
RTVSPost2010Prop45
280
     0
102
RTVSPost2010PropOp45
 70
     1
102
RTVSPost2010Prop46
 90
       50
102
RTVSPost2010PropOp46
 70
     1
102
RTVSPost2010Prop47
 90
       50
102
RTVSPost2010PropOp47
 70
     1
102
RTVSPost2010Prop48
 90
       50
102
RTVSPost2010PropOp48
 70
     1
102
RTVSPost2010Prop49
280
     0
102
RTVSPost2010PropOp49
 70
     1
102
RTVSPost2010Prop50
 90
       50
102
RTVSPost2010PropOp50
 70
     1
102
RTVSPost2010Prop51ColorIndex
 90
      256
102
RTVSPost2010Prop51ColorRGB
 90
-16777216
102
RTVSPost2010PropOp51
 70
     0
102
RTVSPost2010Prop52
140
1.0
102
RTVSPost2010PropOp52
 70
     0
102
RTVSPost2010Prop53
 90
        2
102
RTVSPost2010PropOp53
 70
     1
102
RTVSPost2010Prop54
  1
strokes_ogs.tif
102
RTVSPost2010PropOp54
 70
     1
102
RTVSPost2010Prop55
280
     0
102
RTVSPost2010PropOp55
 70
     1
102
RTVSPost2010Prop56
140
1.0
102
RTVSPost2010PropOp56
 70
     1
102
RTVSPost2010Prop57
140
1.0
102
RTVSPost2010PropOp57
 70
     1
  0
XRECORD
  5
17B
102
{ACAD_REACTORS
330
17A
102
}
330
17A
100
AcDbXrecord
280
     1
102
RTVSPost2010Prop28
280
     0
102
RTVSPost2010PropOp28
 70
     0
102
RTVSPost2010Prop29
280
     1
102
RTVSPost2010PropOp29
 70
     0
102
RTVSPost2010Prop30
280
     1
102
RTVSPost2010PropOp30
 70
     0
102
RTVSPost2010Prop31
280
     0
102
RTVSPost2010PropOp31
 70
     0
102
RTVSPost2010Prop32
280
     0
102
RTVSPost2010PropOp32
 70
     0
102
RTVSPost2010Prop33
280
     0
102
RTVSPost2010PropOp33
 70
     0
102
RTVSPost2010Prop34
280
     0
102
RTVSPost2010PropOp34
 70
     0
102
RTVSPost2010Prop35
280
     0
102
RTVSPost2010PropOp35
 70
     0
102
RTVSPost2010Prop36
280
     0
102
RTVSPost2010PropOp36
 70
     0
102
RTVSPost2010Prop37
 90
       50
102
RTVSPost2010PropOp37
 70
     0
102
RTVSPost2010Prop38
140
0.0
102
RTVSPost2010PropOp38
 70
     0
102
RTVSPost2010Prop39
140
1.0
102
RTVSPost2010PropOp39
 70
     0
102
RTVSPost2010Prop40
 90
        0
102
RTVSPost2010PropOp40
 70
     0
102
RTVSPost2010Prop41ColorIndex
 90
       18
102
RTVSPost2010Prop41ColorRGB
 90
        0
102
RTVSPost2010PropOp41
 70
     0
102
RTVSPost2010Prop42
 90
       50
102
RTVSPost2010PropOp42
 70
     0
102
RTVSPost2010Prop43
 90
        3
102
RTVSPost2010PropOp43
 70
     0
102
RTVSPost2010Prop44ColorIndex
 90
        5
102
RTVSPost2010Prop44ColorRGB
 90
      255
102
RTVSPost2010PropOp44
 70
     0
102
RTVSPost2010Prop45
280
     0
102
RTVSPost2010PropOp45
 70
     0
102
RTVSPost2010Prop46
 90
       50
102
RTVSPost2010PropOp46
 70
     0
102
RTVSPost2010Prop47
 90
       50
102
RTVSPost2010PropOp47
 70
     0
102
RTVSPost2010Prop48
 90
       50
102
RTVSPost2010PropOp48
 70
     0
102
RTVSPost2010Prop49
280
     0
102
RTVSPost2010PropOp49
 70
     0
102
RTVSPost2010Prop50
 90
       50
102
RTVSPost2010PropOp50
 70
     0
102
RTVSPost2010Prop51ColorIndex
 90
      256
102
RTVSPost2010Prop51ColorRGB
 90
-16777216
102
RTVSPost2010PropOp51
 70
     0
102
RTVSPost2010Prop52
140
1.0
102
RTVSPost2010PropOp52
 70
     0
102
RTVSPost2010Prop53
 90
        2
102
RTVSPost2010PropOp53
 70
     0
102
RTVSPost2010Prop54
  1
strokes_ogs.tif
102
RTVSPost2010PropOp54
 70
     0
102
RTVSPost2010Prop55
280
     0
102
RTVSPost2010PropOp55
 70
     0
102
RTVSPost2010Prop56
140
1.0
102
RTVSPost2010PropOp56
 70
     0
102
RTVSPost2010Prop57
140
1.0
102
RTVSPost2010PropOp57
 70
     0
  0
XRECORD
  5
161
102
{ACAD_REACTORS
330
160
102
}
330
160
100
AcDbXrecord
280
     1
102
RTVSPost2010Prop28
280
     0
102
RTVSPost2010PropOp28
 70
     1
102
RTVSPost2010Prop29
280
     1
102
RTVSPost2010PropOp29
 70
     1
102
RTVSPost2010Prop30
280
     1
102
RTVSPost2010PropOp30
 70
     1
102
RTVSPost2010Prop31
280
     0
102
RTVSPost2010PropOp31
 70
     1
102
RTVSPost2010Prop32
280
     0
102
RTVSPost2010PropOp32
 70
     1
102
RTVSPost2010Prop33
280
     0
102
RTVSPost2010PropOp33
 70
     1
102
RTVSPost2010Prop34
280
     0
102
RTVSPost2010PropOp34
 70
     1
102
RTVSPost2010Prop35
280
     0
102
RTVSPost2010PropOp35
 70
     1
102
RTVSPost2010Prop36
280
     0
102
RTVSPost2010PropOp36
 70
     1
102
RTVSPost2010Prop37
 90
       50
102
RTVSPost2010PropOp37
 70
     1
102
RTVSPost2010Prop38
140
0.0
102
RTVSPost2010PropOp38
 70
     1
102
RTVSPost2010Prop39
140
1.0
102
RTVSPost2010PropOp39
 70
     1
102
RTVSPost2010Prop40
 90
        0
102
RTVSPost2010PropOp40
 70
     1
102
RTVSPost2010Prop41ColorIndex
 90
       18
102
RTVSPost2010Prop41ColorRGB
 90
        0
102
RTVSPost2010PropOp41
 70
     1
102
RTVSPost2010Prop42
 90
       50
102
RTVSPost2010PropOp42
 70
     1
102
RTVSPost2010Prop43
 90
        3
102
RTVSPost2010PropOp43
 70
     1
102
RTVSPost2010Prop44ColorIndex
 90
        5
102
RTVSPost2010Prop44ColorRGB
 90
      255
102
RTVSPost2010PropOp44
 70
     1
102
RTVSPost2010Prop45
280
     0
102
RTVSPost2010PropOp45
 70
     1
102
RTVSPost2010Prop46
 90
       50
102
RTVSPost2010PropOp46
 70
     1
102
RTVSPost2010Prop47
 90
       50
102
RTVSPost2010PropOp47
 70
     1
102
RTVSPost2010Prop48
 90
       50
102
RTVSPost2010PropOp48
 70
     1
102
RTVSPost2010Prop49
280
     0
102
RTVSPost2010PropOp49
 70
     1
102
RTVSPost2010Prop50
 90
       50
102
RTVSPost2010PropOp50
 70
     1
102
RTVSPost2010Prop51ColorIndex
 90
      256
102
RTVSPost2010Prop51ColorRGB
 90
-16777216
102
RTVSPost2010PropOp51
 70
     0
102
RTVSPost2010Prop52
140
1.0
102
RTVSPost2010PropOp52
 70
     0
102
RTVSPost2010Prop53
 90
        2
102
RTVSPost2010PropOp53
 70
     1
102
RTVSPost2010Prop54
  1
strokes_ogs.tif
102
RTVSPost2010PropOp54
 70
     1
102
RTVSPost2010Prop55
280
     0
102
RTVSPost2010PropOp55
 70
     1
102
RTVSPost2010Prop56
140
1.0
102
RTVSPost2010PropOp56
 70
     1
102
RTVSPost2010Prop57
140
1.0
102
RTVSPost2010PropOp57
 70
     1
  0
XRECORD
  5
177
102
{ACAD_REACTORS
330
176
102
}
330
176
100
AcDbXrecord
280
     1
102
RTVSPost2010Prop28
280
     0
102
RTVSPost2010PropOp28
 70
     1
102
RTVSPost2010Prop29
280
     1
102
RTVSPost2010PropOp29
 70
     1
102
RTVSPost2010Prop30
280
     1
102
RTVSPost2010PropOp30
 70
     1
102
RTVSPost2010Prop31
280
     0
102
RTVSPost2010PropOp31
 70
     1
102
RTVSPost2010Prop32
280
     0
102
RTVSPost2010PropOp32
 70
     1
102
RTVSPost2010Prop33
280
     0
102
RTVSPost2010PropOp33
 70
     1
102
RTVSPost2010Prop34
280
     0
102
RTVSPost2010PropOp34
 70
     1
102
RTVSPost2010Prop35
280
     0
102
RTVSPost2010PropOp35
 70
     1
102
RTVSPost2010Prop36
280
     0
102
RTVSPost2010PropOp36
 70
     1
102
RTVSPost2010Prop37
 90
       50
102
RTVSPost2010PropOp37
 70
     1
102
RTVSPost2010Prop38
140
0.0
102
RTVSPost2010PropOp38
 70
     1
102
RTVSPost2010Prop39
140
1.0
102
RTVSPost2010PropOp39
 70
     1
102
RTVSPost2010Prop40
 90
        0
102
RTVSPost2010PropOp40
 70
     1
102
RTVSPost2010Prop41ColorIndex
 90
       18
102
RTVSPost2010Prop41ColorRGB
 90
        0
102
RTVSPost2010PropOp41
 70
     1
102
RTVSPost2010Prop42
 90
       50
102
RTVSPost2010PropOp42
 70
     1
102
RTVSPost2010Prop43
 90
        3
102
RTVSPost2010PropOp43
 70
     1
102
RTVSPost2010Prop44ColorIndex
 90
        5
102
RTVSPost2010Prop44ColorRGB
 90
      255
102
RTVSPost2010PropOp44
 70
     1
102
RTVSPost2010Prop45
280
     0
102
RTVSPost2010PropOp45
 70
     1
102
RTVSPost2010Prop46
 90
       50
102
RTVSPost2010PropOp46
 70
     1
102
RTVSPost2010Prop47
 90
       50
102
RTVSPost2010PropOp47
 70
     1
102
RTVSPost2010Prop48
 90
       50
102
RTVSPost2010PropOp48
 70
     1
102
RTVSPost2010Prop49
280
     0
102
RTVSPost2010PropOp49
 70
     1
102
RTVSPost2010Prop50
 90
       50
102
RTVSPost2010PropOp50
 70
     1
102
RTVSPost2010Prop51ColorIndex
 90
      256
102
RTVSPost2010Prop51ColorRGB
 90
-16777216
102
RTVSPost2010PropOp51
 70
     0
102
RTVSPost2010Prop52
140
1.0
102
RTVSPost2010PropOp52
 70
     0
102
RTVSPost2010Prop53
 90
        2
102
RTVSPost2010PropOp53
 70
     1
102
RTVSPost2010Prop54
  1
strokes_ogs.tif
102
RTVSPost2010PropOp54
 70
     1
102
RTVSPost2010Prop55
280
     0
102
RTVSPost2010PropOp55
 70
     1
102
RTVSPost2010Prop56
140
1.0
102
RTVSPost2010PropOp56
 70
     1
102
RTVSPost2010Prop57
140
1.0
102
RTVSPost2010PropOp57
 70
     1
  0
XRECORD
  5
175
102
{ACAD_REACTORS
330
174
102
}
330
174
100
AcDbXrecord
280
     1
102
RTVSPost2010Prop28
280
     0
102
RTVSPost2010PropOp28
 70
     1
102
RTVSPost2010Prop29
280
     1
102
RTVSPost2010PropOp29
 70
     1
102
RTVSPost2010Prop30
280
     1
102
RTVSPost2010PropOp30
 70
     1
102
RTVSPost2010Prop31
280
     0
102
RTVSPost2010PropOp31
 70
     1
102
RTVSPost2010Prop32
280
     0
102
RTVSPost2010PropOp32
 70
     1
102
RTVSPost2010Prop33
280
     0
102
RTVSPost2010PropOp33
 70
     1
102
RTVSPost2010Prop34
280
     0
102
RTVSPost2010PropOp34
 70
     1
102
RTVSPost2010Prop35
280
     0
102
RTVSPost2010PropOp35
 70
     1
102
RTVSPost2010Prop36
280
     0
102
RTVSPost2010PropOp36
 70
     1
102
RTVSPost2010Prop37
 90
       50
102
RTVSPost2010PropOp37
 70
     1
102
RTVSPost2010Prop38
140
0.0
102
RTVSPost2010PropOp38
 70
     1
102
RTVSPost2010Prop39
140
1.0
102
RTVSPost2010PropOp39
 70
     1
102
RTVSPost2010Prop40
 90
        0
102
RTVSPost2010PropOp40
 70
     1
102
RTVSPost2010Prop41ColorIndex
 90
       18
102
RTVSPost2010Prop41ColorRGB
 90
        0
102
RTVSPost2010PropOp41
 70
     1
102
RTVSPost2010Prop42
 90
       50
102
RTVSPost2010PropOp42
 70
     1
102
RTVSPost2010Prop43
 90
        3
102
RTVSPost2010PropOp43
 70
     1
102
RTVSPost2010Prop44ColorIndex
 90
        5
102
RTVSPost2010Prop44ColorRGB
 90
      255
102
RTVSPost2010PropOp44
 70
     1
102
RTVSPost2010Prop45
280
     0
102
RTVSPost2010PropOp45
 70
     1
102
RTVSPost2010Prop46
 90
       50
102
RTVSPost2010PropOp46
 70
     1
102
RTVSPost2010Prop47
 90
       50
102
RTVSPost2010PropOp47
 70
     1
102
RTVSPost2010Prop48
 90
       50
102
RTVSPost2010PropOp48
 70
     1
102
RTVSPost2010Prop49
280
     0
102
RTVSPost2010PropOp49
 70
     1
102
RTVSPost2010Prop50
 90
       50
102
RTVSPost2010PropOp50
 70
     1
102
RTVSPost2010Prop51ColorIndex
 90
      256
102
RTVSPost2010Prop51ColorRGB
 90
-16777216
102
RTVSPost2010PropOp51
 70
     0
102
RTVSPost2010Prop52
140
1.0
102
RTVSPost2010PropOp52
 70
     0
102
RTVSPost2010Prop53
 90
        2
102
RTVSPost2010PropOp53
 70
     1
102
RTVSPost2010Prop54
  1
strokes_ogs.tif
102
RTVSPost2010PropOp54
 70
     1
102
RTVSPost2010Prop55
280
     0
102
RTVSPost2010PropOp55
 70
     1
102
RTVSPost2010Prop56
140
1.0
102
RTVSPost2010PropOp56
 70
     1
102
RTVSPost2010Prop57
140
1.0
102
RTVSPost2010PropOp57
 70
     1
  0
XRECORD
  5
16F
102
{ACAD_REACTORS
330
16E
102
}
330
16E
100
AcDbXrecord
280
     1
102
RTVSPost2010Prop28
280
     0
102
RTVSPost2010PropOp28
 70
     1
102
RTVSPost2010Prop29
280
     1
102
RTVSPost2010PropOp29
 70
     1
102
RTVSPost2010Prop30
280
     1
102
RTVSPost2010PropOp30
 70
     1
102
RTVSPost2010Prop31
280
     0
102
RTVSPost2010PropOp31
 70
     1
102
RTVSPost2010Prop32
280
     0
102
RTVSPost2010PropOp32
 70
     1
102
RTVSPost2010Prop33
280
     0
102
RTVSPost2010PropOp33
 70
     1
102
RTVSPost2010Prop34
280
     0
102
RTVSPost2010PropOp34
 70
     1
102
RTVSPost2010Prop35
280
     0
102
RTVSPost2010PropOp35
 70
     1
102
RTVSPost2010Prop36
280
     0
102
RTVSPost2010PropOp36
 70
     1
102
RTVSPost2010Prop37
 90
       50
102
RTVSPost2010PropOp37
 70
     1
102
RTVSPost2010Prop38
140
0.0
102
RTVSPost2010PropOp38
 70
     1
102
RTVSPost2010Prop39
140
1.0
102
RTVSPost2010PropOp39
 70
     1
102
RTVSPost2010Prop40
 90
        0
102
RTVSPost2010PropOp40
 70
     1
102
RTVSPost2010Prop41ColorIndex
 90
       18
102
RTVSPost2010Prop41ColorRGB
 90
        0
102
RTVSPost2010PropOp41
 70
     1
102
RTVSPost2010Prop42
 90
       50
102
RTVSPost2010PropOp42
 70
     1
102
RTVSPost2010Prop43
 90
        3
102
RTVSPost2010PropOp43
 70
     1
102
RTVSPost2010Prop44ColorIndex
 90
        5
102
RTVSPost2010Prop44ColorRGB
 90
      255
102
RTVSPost2010PropOp44
 70
     1
102
RTVSPost2010Prop45
280
     0
102
RTVSPost2010PropOp45
 70
     1
102
RTVSPost2010Prop46
 90
       50
102
RTVSPost2010PropOp46
 70
     1
102
RTVSPost2010Prop47
 90
       50
102
RTVSPost2010PropOp47
 70
     1
102
RTVSPost2010Prop48
 90
       50
102
RTVSPost2010PropOp48
 70
     1
102
RTVSPost2010Prop49
280
     0
102
RTVSPost2010PropOp49
 70
     1
102
RTVSPost2010Prop50
 90
       50
102
RTVSPost2010PropOp50
 70
     1
102
RTVSPost2010Prop51ColorIndex
 90
      256
102
RTVSPost2010Prop51ColorRGB
 90
-16777216
102
RTVSPost2010PropOp51
 70
     0
102
RTVSPost2010Prop52
140
1.0
102
RTVSPost2010PropOp52
 70
     0
102
RTVSPost2010Prop53
 90
        2
102
RTVSPost2010PropOp53
 70
     1
102
RTVSPost2010Prop54
  1
strokes_ogs.tif
102
RTVSPost2010PropOp54
 70
     1
102
RTVSPost2010Prop55
280
     0
102
RTVSPost2010PropOp55
 70
     1
102
RTVSPost2010Prop56
140
1.0
102
RTVSPost2010PropOp56
 70
     1
102
RTVSPost2010Prop57
140
1.0
102
RTVSPost2010PropOp57
 70
     1
  0
XRECORD
  5
171
102
{ACAD_REACTORS
330
170
102
}
330
170
100
AcDbXrecord
280
     1
102
RTVSPost2010Prop28
280
     0
102
RTVSPost2010PropOp28
 70
     1
102
RTVSPost2010Prop29
280
     1
102
RTVSPost2010PropOp29
 70
     1
102
RTVSPost2010Prop30
280
     1
102
RTVSPost2010PropOp30
 70
     1
102
RTVSPost2010Prop31
280
     0
102
RTVSPost2010PropOp31
 70
     1
102
RTVSPost2010Prop32
280
     0
102
RTVSPost2010PropOp32
 70
     1
102
RTVSPost2010Prop33
280
     0
102
RTVSPost2010PropOp33
 70
     1
102
RTVSPost2010Prop34
280
     0
102
RTVSPost2010PropOp34
 70
     1
102
RTVSPost2010Prop35
280
     0
102
RTVSPost2010PropOp35
 70
     1
102
RTVSPost2010Prop36
280
     0
102
RTVSPost2010PropOp36
 70
     1
102
RTVSPost2010Prop37
 90
       50
102
RTVSPost2010PropOp37
 70
     1
102
RTVSPost2010Prop38
140
0.0
102
RTVSPost2010PropOp38
 70
     1
102
RTVSPost2010Prop39
140
1.0
102
RTVSPost2010PropOp39
 70
     1
102
RTVSPost2010Prop40
 90
        0
102
RTVSPost2010PropOp40
 70
     1
102
RTVSPost2010Prop41ColorIndex
 90
       18
102
RTVSPost2010Prop41ColorRGB
 90
        0
102
RTVSPost2010PropOp41
 70
     1
102
RTVSPost2010Prop42
 90
       50
102
RTVSPost2010PropOp42
 70
     1
102
RTVSPost2010Prop43
 90
        3
102
RTVSPost2010PropOp43
 70
     1
102
RTVSPost2010Prop44ColorIndex
 90
        5
102
RTVSPost2010Prop44ColorRGB
 90
      255
102
RTVSPost2010PropOp44
 70
     1
102
RTVSPost2010Prop45
280
     0
102
RTVSPost2010PropOp45
 70
     1
102
RTVSPost2010Prop46
 90
       50
102
RTVSPost2010PropOp46
 70
     1
102
RTVSPost2010Prop47
 90
       50
102
RTVSPost2010PropOp47
 70
     1
102
RTVSPost2010Prop48
 90
       50
102
RTVSPost2010PropOp48
 70
     1
102
RTVSPost2010Prop49
280
     0
102
RTVSPost2010PropOp49
 70
     1
102
RTVSPost2010Prop50
 90
       50
102
RTVSPost2010PropOp50
 70
     1
102
RTVSPost2010Prop51ColorIndex
 90
      256
102
RTVSPost2010Prop51ColorRGB
 90
-16777216
102
RTVSPost2010PropOp51
 70
     0
102
RTVSPost2010Prop52
140
1.0
102
RTVSPost2010PropOp52
 70
     0
102
RTVSPost2010Prop53
 90
        2
102
RTVSPost2010PropOp53
 70
     1
102
RTVSPost2010Prop54
  1
strokes_ogs.tif
102
RTVSPost2010PropOp54
 70
     1
102
RTVSPost2010Prop55
280
     0
102
RTVSPost2010PropOp55
 70
     1
102
RTVSPost2010Prop56
140
1.0
102
RTVSPost2010PropOp56
 70
     1
102
RTVSPost2010Prop57
140
1.0
102
RTVSPost2010PropOp57
 70
     1
  0
XRECORD
  5
167
102
{ACAD_REACTORS
330
166
102
}
330
166
100
AcDbXrecord
280
     1
102
RTVSPost2010Prop28
280
     0
102
RTVSPost2010PropOp28
 70
     1
102
RTVSPost2010Prop29
280
     1
102
RTVSPost2010PropOp29
 70
     1
102
RTVSPost2010Prop30
280
     1
102
RTVSPost2010PropOp30
 70
     1
102
RTVSPost2010Prop31
280
     0
102
RTVSPost2010PropOp31
 70
     1
102
RTVSPost2010Prop32
280
     0
102
RTVSPost2010PropOp32
 70
     1
102
RTVSPost2010Prop33
280
     0
102
RTVSPost2010PropOp33
 70
     1
102
RTVSPost2010Prop34
280
     0
102
RTVSPost2010PropOp34
 70
     1
102
RTVSPost2010Prop35
280
     0
102
RTVSPost2010PropOp35
 70
     1
102
RTVSPost2010Prop36
280
     0
102
RTVSPost2010PropOp36
 70
     1
102
RTVSPost2010Prop37
 90
       50
102
RTVSPost2010PropOp37
 70
     1
102
RTVSPost2010Prop38
140
0.0
102
RTVSPost2010PropOp38
 70
     1
102
RTVSPost2010Prop39
140
1.0
102
RTVSPost2010PropOp39
 70
     1
102
RTVSPost2010Prop40
 90
        0
102
RTVSPost2010PropOp40
 70
     1
102
RTVSPost2010Prop41ColorIndex
 90
       18
102
RTVSPost2010Prop41ColorRGB
 90
        0
102
RTVSPost2010PropOp41
 70
     1
102
RTVSPost2010Prop42
 90
       50
102
RTVSPost2010PropOp42
 70
     1
102
RTVSPost2010Prop43
 90
        3
102
RTVSPost2010PropOp43
 70
     1
102
RTVSPost2010Prop44ColorIndex
 90
        5
102
RTVSPost2010Prop44ColorRGB
 90
      255
102
RTVSPost2010PropOp44
 70
     1
102
RTVSPost2010Prop45
280
     0
102
RTVSPost2010PropOp45
 70
     1
102
RTVSPost2010Prop46
 90
       50
102
RTVSPost2010PropOp46
 70
     1
102
RTVSPost2010Prop47
 90
       50
102
RTVSPost2010PropOp47
 70
     1
102
RTVSPost2010Prop48
 90
       50
102
RTVSPost2010PropOp48
 70
     1
102
RTVSPost2010Prop49
280
     0
102
RTVSPost2010PropOp49
 70
     1
102
RTVSPost2010Prop50
 90
       50
102
RTVSPost2010PropOp50
 70
     1
102
RTVSPost2010Prop51ColorIndex
 90
      256
102
RTVSPost2010Prop51ColorRGB
 90
-16777216
102
RTVSPost2010PropOp51
 70
     0
102
RTVSPost2010Prop52
140
1.0
102
RTVSPost2010PropOp52
 70
     0
102
RTVSPost2010Prop53
 90
        2
102
RTVSPost2010PropOp53
 70
     1
102
RTVSPost2010Prop54
  1
strokes_ogs.tif
102
RTVSPost2010PropOp54
 70
     1
102
RTVSPost2010Prop55
280
     0
102
RTVSPost2010PropOp55
 70
     1
102
RTVSPost2010Prop56
140
1.0
102
RTVSPost2010PropOp56
 70
     1
102
RTVSPost2010Prop57
140
1.0
102
RTVSPost2010PropOp57
 70
     1
  0
XRECORD
  5
15B
102
{ACAD_REACTORS
330
15A
102
}
330
15A
100
AcDbXrecord
280
     1
102
RTVSPost2010Prop28
280
     0
102
RTVSPost2010PropOp28
 70
     1
102
RTVSPost2010Prop29
280
     1
102
RTVSPost2010PropOp29
 70
     1
102
RTVSPost2010Prop30
280
     1
102
RTVSPost2010PropOp30
 70
     1
102
RTVSPost2010Prop31
280
     0
102
RTVSPost2010PropOp31
 70
     1
102
RTVSPost2010Prop32
280
     0
102
RTVSPost2010PropOp32
 70
     1
102
RTVSPost2010Prop33
280
     0
102
RTVSPost2010PropOp33
 70
     1
102
RTVSPost2010Prop34
280
     0
102
RTVSPost2010PropOp34
 70
     1
102
RTVSPost2010Prop35
280
     0
102
RTVSPost2010PropOp35
 70
     1
102
RTVSPost2010Prop36
280
     0
102
RTVSPost2010PropOp36
 70
     1
102
RTVSPost2010Prop37
 90
       50
102
RTVSPost2010PropOp37
 70
     1
102
RTVSPost2010Prop38
140
0.0
102
RTVSPost2010PropOp38
 70
     1
102
RTVSPost2010Prop39
140
1.0
102
RTVSPost2010PropOp39
 70
     1
102
RTVSPost2010Prop40
 90
        0
102
RTVSPost2010PropOp40
 70
     1
102
RTVSPost2010Prop41ColorIndex
 90
       18
102
RTVSPost2010Prop41ColorRGB
 90
        0
102
RTVSPost2010PropOp41
 70
     1
102
RTVSPost2010Prop42
 90
       50
102
RTVSPost2010PropOp42
 70
     1
102
RTVSPost2010Prop43
 90
        3
102
RTVSPost2010PropOp43
 70
     1
102
RTVSPost2010Prop44ColorIndex
 90
        5
102
RTVSPost2010Prop44ColorRGB
 90
      255
102
RTVSPost2010PropOp44
 70
     1
102
RTVSPost2010Prop45
280
     0
102
RTVSPost2010PropOp45
 70
     1
102
RTVSPost2010Prop46
 90
       50
102
RTVSPost2010PropOp46
 70
     1
102
RTVSPost2010Prop47
 90
       50
102
RTVSPost2010PropOp47
 70
     1
102
RTVSPost2010Prop48
 90
       50
102
RTVSPost2010PropOp48
 70
     1
102
RTVSPost2010Prop49
280
     0
102
RTVSPost2010PropOp49
 70
     1
102
RTVSPost2010Prop50
 90
       50
102
RTVSPost2010PropOp50
 70
     1
102
RTVSPost2010Prop51ColorIndex
 90
      256
102
RTVSPost2010Prop51ColorRGB
 90
-16777216
102
RTVSPost2010PropOp51
 70
     0
102
RTVSPost2010Prop52
140
1.0
102
RTVSPost2010PropOp52
 70
     0
102
RTVSPost2010Prop53
 90
        2
102
RTVSPost2010PropOp53
 70
     1
102
RTVSPost2010Prop54
  1
strokes_ogs.tif
102
RTVSPost2010PropOp54
 70
     1
102
RTVSPost2010Prop55
280
     0
102
RTVSPost2010PropOp55
 70
     1
102
RTVSPost2010Prop56
140
1.0
102
RTVSPost2010PropOp56
 70
     1
102
RTVSPost2010Prop57
140
1.0
102
RTVSPost2010PropOp57
 70
     1
  0
XRECORD
  5
173
102
{ACAD_REACTORS
330
172
102
}
330
172
100
AcDbXrecord
280
     1
102
RTVSPost2010Prop28
280
     0
102
RTVSPost2010PropOp28
 70
     1
102
RTVSPost2010Prop29
280
     1
102
RTVSPost2010PropOp29
 70
     1
102
RTVSPost2010Prop30
280
     1
102
RTVSPost2010PropOp30
 70
     1
102
RTVSPost2010Prop31
280
     0
102
RTVSPost2010PropOp31
 70
     1
102
RTVSPost2010Prop32
280
     0
102
RTVSPost2010PropOp32
 70
     1
102
RTVSPost2010Prop33
280
     0
102
RTVSPost2010PropOp33
 70
     1
102
RTVSPost2010Prop34
280
     0
102
RTVSPost2010PropOp34
 70
     1
102
RTVSPost2010Prop35
280
     0
102
RTVSPost2010PropOp35
 70
     1
102
RTVSPost2010Prop36
280
     0
102
RTVSPost2010PropOp36
 70
     1
102
RTVSPost2010Prop37
 90
       50
102
RTVSPost2010PropOp37
 70
     1
102
RTVSPost2010Prop38
140
0.0
102
RTVSPost2010PropOp38
 70
     1
102
RTVSPost2010Prop39
140
1.0
102
RTVSPost2010PropOp39
 70
     1
102
RTVSPost2010Prop40
 90
        0
102
RTVSPost2010PropOp40
 70
     1
102
RTVSPost2010Prop41ColorIndex
 90
       18
102
RTVSPost2010Prop41ColorRGB
 90
        0
102
RTVSPost2010PropOp41
 70
     1
102
RTVSPost2010Prop42
 90
       50
102
RTVSPost2010PropOp42
 70
     1
102
RTVSPost2010Prop43
 90
        3
102
RTVSPost2010PropOp43
 70
     1
102
RTVSPost2010Prop44ColorIndex
 90
        5
102
RTVSPost2010Prop44ColorRGB
 90
      255
102
RTVSPost2010PropOp44
 70
     1
102
RTVSPost2010Prop45
280
     0
102
RTVSPost2010PropOp45
 70
     1
102
RTVSPost2010Prop46
 90
       50
102
RTVSPost2010PropOp46
 70
     1
102
RTVSPost2010Prop47
 90
       50
102
RTVSPost2010PropOp47
 70
     1
102
RTVSPost2010Prop48
 90
       50
102
RTVSPost2010PropOp48
 70
     1
102
RTVSPost2010Prop49
280
     0
102
RTVSPost2010PropOp49
 70
     1
102
RTVSPost2010Prop50
 90
       50
102
RTVSPost2010PropOp50
 70
     1
102
RTVSPost2010Prop51ColorIndex
 90
      256
102
RTVSPost2010Prop51ColorRGB
 90
-16777216
102
RTVSPost2010PropOp51
 70
     0
102
RTVSPost2010Prop52
140
1.0
102
RTVSPost2010PropOp52
 70
     0
102
RTVSPost2010Prop53
 90
        2
102
RTVSPost2010PropOp53
 70
     1
102
RTVSPost2010Prop54
  1
strokes_ogs.tif
102
RTVSPost2010PropOp54
 70
     1
102
RTVSPost2010Prop55
280
     0
102
RTVSPost2010PropOp55
 70
     1
102
RTVSPost2010Prop56
140
1.0
102
RTVSPost2010PropOp56
 70
     1
102
RTVSPost2010Prop57
140
1.0
102
RTVSPost2010PropOp57
 70
     1
  0
ENDSEC
  0
EOF
