  0
SECTION
  2
HEADER
  9
$ACADVER
  1
AC1024
  9
$ACADMAINTVER
 70
   205
  9
$DWGCODEPAGE
  3
ANSI_1251
  9
$INSBASE
 10
0.0
 20
0.0
 30
0.0
  9
$EXTMIN
 10
1.000000000000000E+20
 20
1.000000000000000E+20
 30
1.000000000000000E+20
  9
$EXTMAX
 10
-1.000000000000000E+20
 20
-1.000000000000000E+20
 30
-1.000000000000000E+20
  9
$LIMMIN
 10
0.0
 20
0.0
  9
$LIMMAX
 10
12.0
 20
9.0
  9
$ORTHOMODE
 70
     0
  9
$REGENMODE
 70
     1
  9
$FILLMODE
 70
     1
  9
$QTEXTMODE
 70
     0
  9
$MIRRTEXT
 70
     1
  9
$LTSCALE
 40
1.0
  9
$ATTMODE
 70
     1
  9
$TEXTSIZE
 40
0.2
  9
$TRACEWID
 40
0.05
  9
$TEXTSTYLE
  7
Standard
  9
$CLAYER
  8
OracDecor_cornice_mouldings
  9
$CELTYPE
  6
ByLayer
  9
$CECOLOR
 62
   256
  9
$CELTSCALE
 40
1.0
  9
$DISPSILH
 70
     0
  9
$DIMSCALE
 40
1.0
  9
$DIMASZ
 40
0.18
  9
$DIMEXO
 40
0.0625
  9
$DIMDLI
 40
0.38
  9
$DIMRND
 40
0.0
  9
$DIMDLE
 40
0.0
  9
$DIMEXE
 40
0.18
  9
$DIMTP
 40
0.0
  9
$DIMTM
 40
0.0
  9
$DIMTXT
 40
0.18
  9
$DIMCEN
 40
0.09
  9
$DIMTSZ
 40
0.0
  9
$DIMTOL
 70
     0
  9
$DIMLIM
 70
     0
  9
$DIMTIH
 70
     1
  9
$DIMTOH
 70
     1
  9
$DIMSE1
 70
     0
  9
$DIMSE2
 70
     0
  9
$DIMTAD
 70
     0
  9
$DIMZIN
 70
     0
  9
$DIMBLK
  1

  9
$DIMASO
 70
     1
  9
$DIMSHO
 70
     1
  9
$DIMPOST
  1

  9
$DIMAPOST
  1

  9
$DIMALT
 70
     0
  9
$DIMALTD
 70
     2
  9
$DIMALTF
 40
25.4
  9
$DIMLFAC
 40
1.0
  9
$DIMTOFL
 70
     0
  9
$DIMTVP
 40
0.0
  9
$DIMTIX
 70
     0
  9
$DIMSOXD
 70
     0
  9
$DIMSAH
 70
     0
  9
$DIMBLK1
  1

  9
$DIMBLK2
  1

  9
$DIMSTYLE
  2
Standard
  9
$DIMCLRD
 70
     0
  9
$DIMCLRE
 70
     0
  9
$DIMCLRT
 70
     0
  9
$DIMTFAC
 40
1.0
  9
$DIMGAP
 40
0.09
  9
$DIMJUST
 70
     0
  9
$DIMSD1
 70
     0
  9
$DIMSD2
 70
     0
  9
$DIMTOLJ
 70
     1
  9
$DIMTZIN
 70
     0
  9
$DIMALTZ
 70
     0
  9
$DIMALTTZ
 70
     0
  9
$DIMUPT
 70
     0
  9
$DIMDEC
 70
     4
  9
$DIMTDEC
 70
     4
  9
$DIMALTU
 70
     2
  9
$DIMALTTD
 70
     2
  9
$DIMTXSTY
  7
Standard
  9
$DIMAUNIT
 70
     0
  9
$DIMADEC
 70
     0
  9
$DIMALTRND
 40
0.0
  9
$DIMAZIN
 70
     0
  9
$DIMDSEP
 70
    46
  9
$DIMATFIT
 70
     3
  9
$DIMFRAC
 70
     0
  9
$DIMLDRBLK
  1

  9
$DIMLUNIT
 70
     2
  9
$DIMLWD
 70
    -2
  9
$DIMLWE
 70
    -2
  9
$DIMTMOVE
 70
     0
  9
$DIMFXL
 40
1.0
  9
$DIMFXLON
 70
     0
  9
$DIMJOGANG
 40
0.7853981633974483
  9
$DIMTFILL
 70
     0
  9
$DIMTFILLCLR
 70
     0
  9
$DIMARCSYM
 70
     0
  9
$DIMLTYPE
  6

  9
$DIMLTEX1
  6

  9
$DIMLTEX2
  6

  9
$DIMTXTDIRECTION
 70
     0
  9
$LUNITS
 70
     2
  9
$LUPREC
 70
     4
  9
$SKETCHINC
 40
0.1
  9
$FILLETRAD
 40
0.5
  9
$AUNITS
 70
     0
  9
$AUPREC
 70
     0
  9
$MENU
  1
.
  9
$ELEVATION
 40
0.0
  9
$PELEVATION
 40
0.0
  9
$THICKNESS
 40
0.0
  9
$LIMCHECK
 70
     0
  9
$CHAMFERA
 40
0.5
  9
$CHAMFERB
 40
0.5
  9
$CHAMFERC
 40
1.0
  9
$CHAMFERD
 40
0.0
  9
$SKPOLY
 70
     0
  9
$TDCREATE
 40
2451380.930432396
  9
$TDUCREATE
 40
2451380.805432396
  9
$TDUPDATE
 40
2451380.966180555
  9
$TDUUPDATE
 40
2451380.841180556
  9
$TDINDWG
 40
0.0075637847
  9
$TDUSRTIMER
 40
0.0075547454
  9
$USRTIMER
 70
     1
  9
$ANGBASE
 50
0.0
  9
$ANGDIR
 70
     0
  9
$PDMODE
 70
     0
  9
$PDSIZE
 40
0.0
  9
$PLINEWID
 40
0.0
  9
$SPLFRAME
 70
     0
  9
$SPLINETYPE
 70
     6
  9
$SPLINESEGS
 70
     8
  9
$HANDSEED
  5
18B
  9
$SURFTAB1
 70
     6
  9
$SURFTAB2
 70
     6
  9
$SURFTYPE
 70
     6
  9
$SURFU
 70
     6
  9
$SURFV
 70
     6
  9
$UCSBASE
  2

  9
$UCSNAME
  2

  9
$UCSORG
 10
0.0
 20
0.0
 30
0.0
  9
$UCSXDIR
 10
1.0
 20
0.0
 30
0.0
  9
$UCSYDIR
 10
0.0
 20
1.0
 30
0.0
  9
$UCSORTHOREF
  2

  9
$UCSORTHOVIEW
 70
     0
  9
$UCSORGTOP
 10
0.0
 20
0.0
 30
0.0
  9
$UCSORGBOTTOM
 10
0.0
 20
0.0
 30
0.0
  9
$UCSORGLEFT
 10
0.0
 20
0.0
 30
0.0
  9
$UCSORGRIGHT
 10
0.0
 20
0.0
 30
0.0
  9
$UCSORGFRONT
 10
0.0
 20
0.0
 30
0.0
  9
$UCSORGBACK
 10
0.0
 20
0.0
 30
0.0
  9
$PUCSBASE
  2

  9
$PUCSNAME
  2

  9
$PUCSORG
 10
0.0
 20
0.0
 30
0.0
  9
$PUCSXDIR
 10
1.0
 20
0.0
 30
0.0
  9
$PUCSYDIR
 10
0.0
 20
1.0
 30
0.0
  9
$PUCSORTHOREF
  2

  9
$PUCSORTHOVIEW
 70
     0
  9
$PUCSORGTOP
 10
0.0
 20
0.0
 30
0.0
  9
$PUCSORGBOTTOM
 10
0.0
 20
0.0
 30
0.0
  9
$PUCSORGLEFT
 10
0.0
 20
0.0
 30
0.0
  9
$PUCSORGRIGHT
 10
0.0
 20
0.0
 30
0.0
  9
$PUCSORGFRONT
 10
0.0
 20
0.0
 30
0.0
  9
$PUCSORGBACK
 10
0.0
 20
0.0
 30
0.0
  9
$USERI1
 70
     0
  9
$USERI2
 70
     0
  9
$USERI3
 70
     0
  9
$USERI4
 70
     0
  9
$USERI5
 70
     0
  9
$USERR1
 40
0.0
  9
$USERR2
 40
0.0
  9
$USERR3
 40
0.0
  9
$USERR4
 40
0.0
  9
$USERR5
 40
0.0
  9
$WORLDVIEW
 70
     1
  9
$SHADEDGE
 70
     3
  9
$SHADEDIF
 70
    70
  9
$TILEMODE
 70
     1
  9
$MAXACTVP
 70
    64
  9
$PINSBASE
 10
0.0
 20
0.0
 30
0.0
  9
$PLIMCHECK
 70
     0
  9
$PEXTMIN
 10
1.000000000000000E+20
 20
1.000000000000000E+20
 30
1.000000000000000E+20
  9
$PEXTMAX
 10
-1.000000000000000E+20
 20
-1.000000000000000E+20
 30
-1.000000000000000E+20
  9
$PLIMMIN
 10
0.0
 20
0.0
  9
$PLIMMAX
 10
12.0
 20
9.0
  9
$UNITMODE
 70
     0
  9
$VISRETAIN
 70
     1
  9
$PLINEGEN
 70
     0
  9
$PSLTSCALE
 70
     1
  9
$TREEDEPTH
 70
  3020
  9
$CMLSTYLE
  2
Standard
  9
$CMLJUST
 70
     0
  9
$CMLSCALE
 40
1.0
  9
$PROXYGRAPHICS
 70
     1
  9
$MEASUREMENT
 70
     1
  9
$CELWEIGHT
370
    -1
  9
$ENDCAPS
280
     0
  9
$JOINSTYLE
280
     0
  9
$LWDISPLAY
290
     0
  9
$INSUNITS
 70
     4
  9
$HYPERLINKBASE
  1

  9
$STYLESHEET
  1

  9
$XEDIT
290
     1
  9
$CEPSNTYPE
380
     0
  9
$PSTYLEMODE
290
     1
  9
$FINGERPRINTGUID
  2
{12F50282-3ED8-11D3-A8B7-0060B0F84BC6}
  9
$VERSIONGUID
  2
{12F50293-3ED8-11D3-A8B7-0060B0F84BC6}
  9
$EXTNAMES
290
     1
  9
$PSVPSCALE
 40
0.0
  9
$OLESTARTUP
290
     0
  9
$SORTENTS
280
   127
  9
$INDEXCTL
280
     0
  9
$HIDETEXT
280
     0
  9
$XCLIPFRAME
280
     2
  9
$HALOGAP
280
     0
  9
$OBSCOLOR
 70
   257
  9
$OBSLTYPE
280
     0
  9
$INTERSECTIONDISPLAY
280
     0
  9
$INTERSECTIONCOLOR
 70
   257
  9
$DIMASSOC
280
     1
  9
$PROJECTNAME
  1

  9
$CAMERADISPLAY
290
     0
  9
$LENSLENGTH
 40
50.0
  9
$CAMERAHEIGHT
 40
0.0
  9
$STEPSPERSEC
 40
2.0
  9
$STEPSIZE
 40
6.0
  9
$3DDWFPREC
 40
2.0
  9
$PSOLWIDTH
 40
0.25
  9
$PSOLHEIGHT
 40
4.0
  9
$LOFTANG1
 40
1.570796326794896
  9
$LOFTANG2
 40
1.570796326794896
  9
$LOFTMAG1
 40
0.0
  9
$LOFTMAG2
 40
0.0
  9
$LOFTPARAM
 70
     7
  9
$LOFTNORMALS
280
     1
  9
$LATITUDE
 40
37.795
  9
$LONGITUDE
 40
-122.394
  9
$NORTHDIRECTION
 40
0.0
  9
$TIMEZONE
 70
 -8000
  9
$LIGHTGLYPHDISPLAY
280
     1
  9
$TILEMODELIGHTSYNCH
280
     1
  9
$CMATERIAL
347
AB
  9
$SOLIDHIST
280
     0
  9
$SHOWHIST
280
     1
  9
$DWFFRAME
280
     2
  9
$DGNFRAME
280
     0
  9
$REALWORLDSCALE
290
     1
  9
$INTERFERECOLOR
 62
     1
  9
$INTERFEREOBJVS
345
CD
  9
$INTERFEREVPVS
346
CA
  9
$CSHADOW
280
     0
  9
$SHADOWPLANELOCATION
 40
0.0
  0
ENDSEC
  0
SECTION
  2
CLASSES
  0
CLASS
  1
ACDBDICTIONARYWDFLT
  2
AcDbDictionaryWithDefault
  3
ObjectDBX Classes
 90
        0
 91
        1
280
     0
281
     0
  0
CLASS
  1
ACDBPLACEHOLDER
  2
AcDbPlaceHolder
  3
ObjectDBX Classes
 90
        0
 91
        2
280
     0
281
     0
  0
CLASS
  1
LAYOUT
  2
AcDbLayout
  3
ObjectDBX Classes
 90
        0
 91
        3
280
     0
281
     0
  0
CLASS
  1
MATERIAL
  2
AcDbMaterial
  3
ObjectDBX Classes
 90
     1153
 91
        3
280
     0
281
     0
  0
CLASS
  1
VISUALSTYLE
  2
AcDbVisualStyle
  3
ObjectDBX Classes
 90
     4095
 91
       24
280
     0
281
     0
  0
CLASS
  1
TABLESTYLE
  2
AcDbTableStyle
  3
ObjectDBX Classes
 90
     4095
 91
        1
280
     0
281
     0
  0
CLASS
  1
SCALE
  2
AcDbScale
  3
ObjectDBX Classes
 90
     1153
 91
       17
280
     0
281
     0
  0
CLASS
  1
MLEADERSTYLE
  2
AcDbMLeaderStyle
  3
ACDB_MLEADERSTYLE_CLASS
 90
     4095
 91
        1
280
     0
281
     0
  0
CLASS
  1
ACDBSECTIONVIEWSTYLE
  2
AcDbSectionViewStyle
  3
ObjectDBX Classes
 90
     1025
 91
        1
280
     0
281
     0
  0
CLASS
  1
ACDBDETAILVIEWSTYLE
  2
AcDbDetailViewStyle
  3
ObjectDBX Classes
 90
     1025
 91
        1
280
     0
281
     0
  0
CLASS
  1
MESH
  2
AcDbSubDMesh
  3
ObjectDBX Classes
 90
        0
 91
        1
280
     0
281
     1
  0
CLASS
  1
DICTIONARYVAR
  2
AcDbDictionaryVar
  3
ObjectDBX Classes
 90
        0
 91
        9
280
     0
281
     0
  0
CLASS
  1
CELLSTYLEMAP
  2
AcDbCellStyleMap
  3
ObjectDBX Classes
 90
     1152
 91
        1
280
     0
281
     0
  0
ENDSEC
  0
SECTION
  2
TABLES
  0
TABLE
  2
VPORT
  5
8
330
0
100
AcDbSymbolTable
 70
     1
  0
VPORT
  5
A8
330
8
100
AcDbSymbolTableRecord
100
AcDbViewportTableRecord
  2
*Active
 70
     0
 10
0.0
 20
0.0
 11
1.0
 21
1.0
 12
0.0000296713842545
 22
-18.37116622924805
 13
0.0
 23
0.0
 14
0.5
 24
0.5
 15
0.5
 25
0.5
 16
-1.0
 26
-1.0
 36
1.0
 17
0.0
 27
0.0
 37
0.0
 40
1085.999963503026
 41
1.660280735368561
 42
50.0
 43
0.0
 44
0.0
 50
0.0
 51
0.0
 71
     0
 72
   100
 73
     1
 74
     3
 75
     0
 76
     0
 77
     0
 78
     0
281
     0
 65
     1
110
0.0
120
0.0
130
0.0
111
1.0
121
0.0
131
0.0
112
0.0
122
1.0
132
0.0
 79
     0
146
0.0
348
C9
 60
     3
 61
     5
292
     1
282
     1
141
0.0
142
0.0
 63
   250
421
  3355443
  0
ENDTAB
  0
TABLE
  2
LTYPE
  5
5
330
0
100
AcDbSymbolTable
 70
     1
  0
LTYPE
  5
14
330
5
100
AcDbSymbolTableRecord
100
AcDbLinetypeTableRecord
  2
ByBlock
 70
     0
  3

 72
    65
 73
     0
 40
0.0
  0
LTYPE
  5
15
330
5
100
AcDbSymbolTableRecord
100
AcDbLinetypeTableRecord
  2
ByLayer
 70
     0
  3

 72
    65
 73
     0
 40
0.0
  0
LTYPE
  5
16
330
5
100
AcDbSymbolTableRecord
100
AcDbLinetypeTableRecord
  2
Continuous
 70
     0
  3
Solid line
 72
    65
 73
     0
 40
0.0
  0
ENDTAB
  0
TABLE
  2
LAYER
  5
2
330
0
100
AcDbSymbolTable
 70
     3
  0
LAYER
  5
10
330
2
100
AcDbSymbolTableRecord
100
AcDbLayerTableRecord
  2
0
 70
     0
 62
     7
  6
Continuous
370
    -3
390
F
347
BB
  0
LAYER
  5
2B
330
2
100
AcDbSymbolTableRecord
100
AcDbLayerTableRecord
  2
ASHADE
 70
     4
 62
     7
  6
Continuous
370
    -3
390
2D
347
BB
  0
LAYER
  5
F8
330
2
100
AcDbSymbolTableRecord
100
AcDbLayerTableRecord
  2
OracDecor_cornice_mouldings
 70
     0
 62
   191
420
 12098533
  6
Continuous
370
    -3
390
F
347
BB
  0
ENDTAB
  0
TABLE
  2
STYLE
  5
3
330
0
100
AcDbSymbolTable
 70
     2
  0
STYLE
  5
11
330
3
100
AcDbSymbolTableRecord
100
AcDbTextStyleTableRecord
  2
Standard
 70
     0
 40
0.0
 41
1.0
 50
0.0
 71
     0
 42
0.2
  3
txt
  4

  0
STYLE
  5
2C
330
3
100
AcDbSymbolTableRecord
100
AcDbTextStyleTableRecord
  2
ASHADE
 70
     0
 40
0.2
 41
1.0
 50
0.0
 71
     0
 42
0.2
  3
simplex
  4

  0
ENDTAB
  0
TABLE
  2
VIEW
  5
6
330
0
100
AcDbSymbolTable
 70
     0
  0
ENDTAB
  0
TABLE
  2
UCS
  5
7
330
0
100
AcDbSymbolTable
 70
     0
  0
ENDTAB
  0
TABLE
  2
APPID
  5
9
330
0
100
AcDbSymbolTable
 70
     6
  0
APPID
  5
12
330
9
100
AcDbSymbolTableRecord
100
AcDbRegAppTableRecord
  2
ACAD
 70
     0
  0
APPID
  5
8F
330
9
100
AcDbSymbolTableRecord
100
AcDbRegAppTableRecord
  2
AVE_RENDER
 70
     0
  0
APPID
  5
90
330
9
100
AcDbSymbolTableRecord
100
AcDbRegAppTableRecord
  2
AVE_ENTITY_MATERIAL
 70
     0
  0
APPID
  5
9C
330
9
100
AcDbSymbolTableRecord
100
AcDbRegAppTableRecord
  2
AVE_FINISH
 70
     0
  0
APPID
  5
9D
330
9
100
AcDbSymbolTableRecord
100
AcDbRegAppTableRecord
  2
AVE_MATERIAL
 70
     0
  0
APPID
  5
9E
330
9
100
AcDbSymbolTableRecord
100
AcDbRegAppTableRecord
  2
AVE_GLOBAL
 70
     0
  0
ENDTAB
  0
TABLE
  2
DIMSTYLE
  5
A
330
0
100
AcDbSymbolTable
 70
     1
100
AcDbDimStyleTable
 71
     0
  0
DIMSTYLE
105
27
330
A
100
AcDbSymbolTableRecord
100
AcDbDimStyleTableRecord
  2
Standard
 70
     0
340
11
  0
ENDTAB
  0
TABLE
  2
BLOCK_RECORD
  5
1
330
0
100
AcDbSymbolTable
 70
     6
  0
BLOCK_RECORD
  5
1F
330
1
100
AcDbSymbolTableRecord
100
AcDbBlockTableRecord
  2
*Model_Space
340
22
 70
     0
280
     1
281
     0
  0
BLOCK_RECORD
  5
1B
330
1
100
AcDbSymbolTableRecord
100
AcDbBlockTableRecord
  2
*Paper_Space
340
1E
 70
     0
280
     1
281
     0
  0
BLOCK_RECORD
  5
23
330
1
100
AcDbSymbolTableRecord
100
AcDbBlockTableRecord
  2
*Paper_Space0
340
26
 70
     0
280
     1
281
     0
  0
BLOCK_RECORD
  5
2E
330
1
100
AcDbSymbolTableRecord
100
AcDbBlockTableRecord
  2
direct
340
0
 70
     0
280
     1
281
     0
  0
BLOCK_RECORD
  5
42
330
1
100
AcDbSymbolTableRecord
100
AcDbBlockTableRecord
  2
overhead
340
0
 70
     0
280
     1
281
     0
  0
BLOCK_RECORD
  5
5F
330
1
100
AcDbSymbolTableRecord
100
AcDbBlockTableRecord
  2
sh_spot
340
0
 70
     0
280
     1
281
     0
  0
BLOCK_RECORD
  5
91
330
1
100
AcDbSymbolTableRecord
100
AcDbBlockTableRecord
  2
AVE_RENDER
340
0
102
{BLKREFS
331
94
331
95
331
96
331
97
331
98
331
99
331
9A
331
9B
102
}
 70
     0
280
     1
281
     0
  0
BLOCK_RECORD
  5
9F
330
1
100
AcDbSymbolTableRecord
100
AcDbBlockTableRecord
  2
AVE_GLOBAL
340
0
102
{BLKREFS
331
A2
102
}
 70
     0
280
     1
281
     0
  0
ENDTAB
  0
ENDSEC
  0
SECTION
  2
BLOCKS
  0
BLOCK
  5
20
330
1F
100
AcDbEntity
  8
0
100
AcDbBlockBegin
  2
*Model_Space
 70
     0
 10
0.0
 20
0.0
 30
0.0
  3
*Model_Space
  1

  0
ENDBLK
  5
21
330
1F
100
AcDbEntity
  8
0
100
AcDbBlockEnd
  0
BLOCK
  5
1C
330
1B
100
AcDbEntity
 67
     1
  8
0
100
AcDbBlockBegin
  2
*Paper_Space
 70
     0
 10
0.0
 20
0.0
 30
0.0
  3
*Paper_Space
  1

  0
ENDBLK
  5
1D
330
1B
100
AcDbEntity
 67
     1
  8
0
100
AcDbBlockEnd
  0
BLOCK
  5
24
330
23
100
AcDbEntity
 67
     1
  8
0
100
AcDbBlockBegin
  2
*Paper_Space0
 70
     0
 10
0.0
 20
0.0
 30
0.0
  3
*Paper_Space0
  1

  0
ENDBLK
  5
25
330
23
100
AcDbEntity
 67
     1
  8
0
100
AcDbBlockEnd
  0
BLOCK
  5
40
330
2E
100
AcDbEntity
  8
0
100
AcDbBlockBegin
  2
direct
 70
     2
 10
0.0
 20
0.0
 30
0.0
  3
direct
  1

  0
ATTDEF
  5
2F
330
2E
100
AcDbEntity
  8
ASHADE
  6
Continuous
 62
     1
100
AcDbText
 10
0.0
 20
-0.1
 30
0.0
 40
0.2
  1

  7
ASHADE
 72
     1
 11
0.0
 21
-0.1
 31
0.0
100
AcDbAttributeDefinition
280
     0
  3
Light Name
  2
SNAME
 70
     0
280
     0
  0
ARC
  5
30
330
2E
100
AcDbEntity
  8
ASHADE
  6
Continuous
 62
     7
100
AcDbCircle
 10
0.0
 20
0.0
 30
0.0
 40
0.3
100
AcDbArc
 50
205.6792886194569
 51
334.3207113805431
  0
ARC
  5
31
330
2E
100
AcDbEntity
  8
ASHADE
  6
Continuous
 62
     7
100
AcDbCircle
 10
0.0
 20
0.0
 30
0.0
 40
0.3
100
AcDbArc
 50
25.67928861945685
 51
154.3207113805431
  0
LINE
  5
32
330
2E
100
AcDbEntity
  8
ASHADE
  6
Continuous
 62
     7
100
AcDbLine
 10
-0.21
 20
0.2142428528562855
 30
0.0
 11
-0.21
 21
0.5
 31
0.0
  0
LINE
  5
33
330
2E
100
AcDbEntity
  8
ASHADE
  6
Continuous
 62
     7
100
AcDbLine
 10
-0.11
 20
0.2791057147390572
 30
0.0
 11
-0.11
 21
0.5
 31
0.0
  0
LINE
  5
34
330
2E
100
AcDbEntity
  8
ASHADE
  6
Continuous
 62
     7
100
AcDbLine
 10
0.21
 20
0.2142428528562855
 30
0.0
 11
0.21
 21
0.5
 31
0.0
  0
ATTDEF
  5
35
330
2E
100
AcDbEntity
  8
ASHADE
  6
Continuous
 62
     7
100
AcDbText
 10
0.0
 20
0.25
 30
0.0
 40
0.01
  1

100
AcDbAttributeDefinition
280
     0
  3
Look-at Y
  2
LAY
 70
     1
280
     0
  0
ATTDEF
  5
36
330
2E
100
AcDbEntity
  8
ASHADE
  6
Continuous
 62
     7
100
AcDbText
 10
0.0
 20
0.22
 30
0.0
 40
0.01
  1
1
100
AcDbAttributeDefinition
280
     0
  3
Light Intensity
  2
INTENSITY
 70
     1
280
     0
  0
ATTDEF
  5
37
330
2E
100
AcDbEntity
  8
ASHADE
  6
Continuous
 62
     7
100
AcDbText
 10
0.0
 20
0.16
 30
0.0
 40
0.01
  1
-1
100
AcDbAttributeDefinition
280
     0
  3
*not used*
  2
BEAMD
 70
     1
280
     0
  0
ATTDEF
  5
38
330
2E
100
AcDbEntity
  8
ASHADE
  6
Continuous
 62
     7
100
AcDbText
 10
0.0
 20
0.175
 30
0.0
 40
0.01
  1
-1
100
AcDbAttributeDefinition
280
     0
  3
*not used*
  2
CONED
 70
     1
280
     0
  0
ATTDEF
  5
39
330
2E
100
AcDbEntity
  8
ASHADE
  6
Continuous
 62
     7
100
AcDbText
 10
0.0
 20
0.19
 30
0.0
 40
0.01
  1
0
100
AcDbAttributeDefinition
280
     0
  3
Depth Map Size
  2
CONEA
 70
     1
280
     0
  0
ATTDEF
  5
3A
330
2E
100
AcDbEntity
  8
ASHADE
  6
Continuous
 62
     7
100
AcDbText
 10
0.0
 20
0.2050000000000001
 30
0.0
 40
0.01
  1
1,1,1
100
AcDbAttributeDefinition
280
     0
  3
Light Color (RGB)
  2
COLOR
 70
     1
280
     0
  0
ATTDEF
  5
3B
330
2E
100
AcDbEntity
  8
ASHADE
  6
Continuous
 62
     7
100
AcDbText
 10
0.0
 20
0.235
 30
0.0
 40
0.01
  1

100
AcDbAttributeDefinition
280
     0
  3
Look-at Z
  2
LAZ
 70
     1
280
     0
  0
LINE
  5
3C
330
2E
100
AcDbEntity
  8
ASHADE
  6
Continuous
 62
     7
100
AcDbLine
 10
0.0
 20
0.3
 30
0.0
 11
0.0
 21
0.5
 31
0.0
  0
LINE
  5
3D
330
2E
100
AcDbEntity
  8
ASHADE
  6
Continuous
 62
     7
100
AcDbLine
 10
0.11
 20
0.2791057147390572
 30
0.0
 11
0.11
 21
0.5
 31
0.0
  0
ATTDEF
  5
3E
330
2E
100
AcDbEntity
  8
ASHADE
  6
Continuous
 62
     7
100
AcDbText
 10
0.0
 20
0.265
 30
0.0
 40
0.01
  1

100
AcDbAttributeDefinition
280
     0
  3
Look-at X
  2
LAX
 70
     1
280
     0
  0
ATTDEF
  5
3F
330
2E
100
AcDbEntity
  8
ASHADE
  6
Continuous
 62
     7
100
AcDbText
 10
0.0
 20
0.28
 30
0.0
 40
0.01
  1

100
AcDbAttributeDefinition
280
     0
  3

  2
GNAME
 70
     1
280
     0
  0
ENDBLK
  5
41
330
2E
100
AcDbEntity
  8
0
100
AcDbBlockEnd
  0
BLOCK
  5
5D
330
42
100
AcDbEntity
  8
0
100
AcDbBlockBegin
  2
overhead
 70
     2
 10
0.0
 20
0.0
 30
0.0
  3
overhead
  1

  0
ATTDEF
  5
43
330
42
100
AcDbEntity
  8
ASHADE
  6
Continuous
 62
     1
100
AcDbText
 10
0.0
 20
-0.1
 30
0.0
 40
0.2
  1

  7
ASHADE
 72
     1
 11
0.0
 21
-0.1
 31
0.0
100
AcDbAttributeDefinition
280
     0
  3
Light Name
  2
SNAME
 70
     0
280
     0
  0
ARC
  5
44
330
42
100
AcDbEntity
  8
ASHADE
  6
Continuous
 62
     7
100
AcDbCircle
 10
0.0
 20
0.0
 30
0.0
 40
0.3
100
AcDbArc
 50
205.6792886194569
 51
334.3207113805431
  0
LINE
  5
45
330
42
100
AcDbEntity
  8
ASHADE
  6
Continuous
 62
     7
100
AcDbLine
 10
-0.2041413561583015
 20
-0.2198324514393848
 30
0.0
 11
-0.2721884748777353
 21
-0.2931099352525131
 31
0.0
  0
LINE
  5
46
330
42
100
AcDbEntity
  8
ASHADE
  6
Continuous
 62
     7
100
AcDbLine
 10
-0.1096591641591904
 20
-0.2792398032442862
 30
0.0
 11
-0.1279356915190555
 21
-0.3257797704516673
 31
0.0
  0
LINE
  5
47
330
42
100
AcDbEntity
  8
ASHADE
  6
Continuous
 62
     7
100
AcDbLine
 10
0.0
 20
-0.2999999999999999
 30
0.0
 11
0.0
 21
-0.4
 31
0.0
  0
LINE
  5
48
330
42
100
AcDbEntity
  8
ASHADE
  6
Continuous
 62
     7
100
AcDbLine
 10
0.1096591641591904
 20
-0.2792398032442862
 30
0.0
 11
0.1279356915190555
 21
-0.3257797704516673
 31
0.0
  0
LINE
  5
49
330
42
100
AcDbEntity
  8
ASHADE
  6
Continuous
 62
     7
100
AcDbLine
 10
0.2041413561583015
 20
-0.2198324514393848
 30
0.0
 11
0.2721884748777353
 21
-0.2931099352525131
 31
0.0
  0
ARC
  5
4A
330
42
100
AcDbEntity
  8
ASHADE
  6
Continuous
 62
     7
100
AcDbCircle
 10
0.0
 20
0.0
 30
0.0
 40
0.3
100
AcDbArc
 50
25.67928861945685
 51
154.3207113805431
  0
LINE
  5
4B
330
42
100
AcDbEntity
  8
ASHADE
  6
Continuous
 62
     7
100
AcDbLine
 10
-0.2703701166919155
 20
0.13
 30
0.0
 11
-0.3154318028072347
 21
0.1516666666666666
 31
0.0
  0
LINE
  5
4C
330
42
100
AcDbEntity
  8
ASHADE
  6
Continuous
 62
     7
100
AcDbLine
 10
-0.2703701166919155
 20
-0.13
 30
0.0
 11
-0.3154318028072347
 21
-0.1516666666666666
 31
0.0
  0
LINE
  5
4D
330
42
100
AcDbEntity
  8
ASHADE
  6
Continuous
 62
     7
100
AcDbLine
 10
-0.2041413561583015
 20
0.2198324514393849
 30
0.0
 11
-0.2721884748777353
 21
0.2931099352525131
 31
0.0
  0
LINE
  5
4E
330
42
100
AcDbEntity
  8
ASHADE
  6
Continuous
 62
     7
100
AcDbLine
 10
-0.1096591641591904
 20
0.2792398032442862
 30
0.0
 11
-0.1279356915190555
 21
0.3257797704516674
 31
0.0
  0
LINE
  5
4F
330
42
100
AcDbEntity
  8
ASHADE
  6
Continuous
 62
     7
100
AcDbLine
 10
0.2703701166919155
 20
-0.13
 30
0.0
 11
0.3154318028072347
 21
-0.1516666666666666
 31
0.0
  0
LINE
  5
50
330
42
100
AcDbEntity
  8
ASHADE
  6
Continuous
 62
     7
100
AcDbLine
 10
0.2703701166919155
 20
0.13
 30
0.0
 11
0.3154318028072347
 21
0.1516666666666666
 31
0.0
  0
LINE
  5
51
330
42
100
AcDbEntity
  8
ASHADE
  6
Continuous
 62
     7
100
AcDbLine
 10
0.0
 20
0.3
 30
0.0
 11
0.0
 21
0.4
 31
0.0
  0
ATTDEF
  5
52
330
42
100
AcDbEntity
  8
ASHADE
  6
Continuous
 62
     7
100
AcDbText
 10
0.0
 20
0.22
 30
0.0
 40
0.01
  1
1
100
AcDbAttributeDefinition
280
     0
  3
Light Intensity
  2
INTENSITY
 70
     1
280
     0
  0
ATTDEF
  5
53
330
42
100
AcDbEntity
  8
ASHADE
  6
Continuous
 62
     7
100
AcDbText
 10
0.0
 20
0.16
 30
0.0
 40
0.01
  1
-1
100
AcDbAttributeDefinition
280
     0
  3
*not used*
  2
BEAMD
 70
     1
280
     0
  0
ATTDEF
  5
54
330
42
100
AcDbEntity
  8
ASHADE
  6
Continuous
 62
     7
100
AcDbText
 10
0.0
 20
0.175
 30
0.0
 40
0.01
  1
-1
100
AcDbAttributeDefinition
280
     0
  3
*not used*
  2
CONED
 70
     1
280
     0
  0
ATTDEF
  5
55
330
42
100
AcDbEntity
  8
ASHADE
  6
Continuous
 62
     7
100
AcDbText
 10
0.0
 20
0.19
 30
0.0
 40
0.01
  1
0
100
AcDbAttributeDefinition
280
     0
  3
Depth Map Size
  2
CONEA
 70
     1
280
     0
  0
ATTDEF
  5
56
330
42
100
AcDbEntity
  8
ASHADE
  6
Continuous
 62
     7
100
AcDbText
 10
0.0
 20
0.2050000000000001
 30
0.0
 40
0.01
  1
1,1,1
100
AcDbAttributeDefinition
280
     0
  3
Light Color (RGB)
  2
COLOR
 70
     1
280
     0
  0
ATTDEF
  5
57
330
42
100
AcDbEntity
  8
ASHADE
  6
Continuous
 62
     7
100
AcDbText
 10
0.0
 20
0.235
 30
0.0
 40
0.01
  1

100
AcDbAttributeDefinition
280
     0
  3
Look-at Z
  2
LAZ
 70
     1
280
     0
  0
ATTDEF
  5
58
330
42
100
AcDbEntity
  8
ASHADE
  6
Continuous
 62
     7
100
AcDbText
 10
0.0
 20
0.25
 30
0.0
 40
0.01
  1

100
AcDbAttributeDefinition
280
     0
  3
Look-at Y
  2
LAY
 70
     1
280
     0
  0
ATTDEF
  5
59
330
42
100
AcDbEntity
  8
ASHADE
  6
Continuous
 62
     7
100
AcDbText
 10
0.0
 20
0.265
 30
0.0
 40
0.01
  1

100
AcDbAttributeDefinition
280
     0
  3
Look-at X
  2
LAX
 70
     1
280
     0
  0
ATTDEF
  5
5A
330
42
100
AcDbEntity
  8
ASHADE
  6
Continuous
 62
     7
100
AcDbText
 10
0.0
 20
0.28
 30
0.0
 40
0.01
  1

100
AcDbAttributeDefinition
280
     0
  3

  2
GNAME
 70
     1
280
     0
  0
LINE
  5
5B
330
42
100
AcDbEntity
  8
ASHADE
  6
Continuous
 62
     7
100
AcDbLine
 10
0.1096591641591904
 20
0.2792398032442862
 30
0.0
 11
0.1279356915190555
 21
0.3257797704516674
 31
0.0
  0
LINE
  5
5C
330
42
100
AcDbEntity
  8
ASHADE
  6
Continuous
 62
     7
100
AcDbLine
 10
0.2041413561583015
 20
0.2198324514393849
 30
0.0
 11
0.2721884748777353
 21
0.2931099352525131
 31
0.0
  0
ENDBLK
  5
5E
330
42
100
AcDbEntity
  8
0
100
AcDbBlockEnd
  0
BLOCK
  5
85
330
5F
100
AcDbEntity
  8
0
100
AcDbBlockBegin
  2
sh_spot
 70
     2
 10
0.0
 20
0.0
 30
0.0
  3
sh_spot
  1

  0
LINE
  5
60
330
5F
100
AcDbEntity
  8
ASHADE
  6
Continuous
 62
     7
100
AcDbLine
 10
0.25
 20
0.26
 30
0.0
 11
-0.25
 21
0.26
 31
0.0
  0
LINE
  5
61
330
5F
100
AcDbEntity
  8
ASHADE
  6
Continuous
 62
     7
100
AcDbLine
 10
-0.25
 20
-0.3399999999999999
 30
0.0
 11
0.25
 21
-0.3399999999999999
 31
0.0
  0
ATTDEF
  5
62
330
5F
100
AcDbEntity
  8
ASHADE
  6
Continuous
 62
     1
100
AcDbText
 10
0.0
 20
-0.1
 30
0.0
 40
0.2
  1

  7
ASHADE
 72
     1
 11
0.0
 21
-0.1
 31
0.0
100
AcDbAttributeDefinition
280
     0
  3
Light Name
  2
SNAME
 70
     0
280
     0
  0
LINE
  5
63
330
5F
100
AcDbEntity
  8
ASHADE
  6
Continuous
 62
     7
100
AcDbLine
 10
-0.25
 20
-0.13
 30
0.0
 11
-0.25
 21
-0.3399999999999999
 31
0.0
  0
LINE
  5
64
330
5F
100
AcDbEntity
  8
ASHADE
  6
Continuous
 62
     7
100
AcDbLine
 10
-0.25
 20
-0.18
 30
0.0
 11
-0.29
 21
-0.18
 31
0.0
  0
LINE
  5
65
330
5F
100
AcDbEntity
  8
ASHADE
  6
Continuous
 62
     7
100
AcDbLine
 10
-0.29
 20
-0.22
 30
0.0
 11
-0.25
 21
-0.22
 31
0.0
  0
LINE
  5
66
330
5F
100
AcDbEntity
  8
ASHADE
  6
Continuous
 62
     7
100
AcDbLine
 10
-0.29
 20
-0.18
 30
0.0
 11
-0.29
 21
-0.22
 31
0.0
  0
LINE
  5
67
330
5F
100
AcDbEntity
  8
ASHADE
  6
Continuous
 62
     7
100
AcDbLine
 10
-0.1045454545454545
 20
0.26
 30
0.0
 11
-0.15
 21
0.46
 31
0.0
  0
LINE
  5
68
330
5F
100
AcDbEntity
  8
ASHADE
  6
Continuous
 62
     7
100
AcDbLine
 10
-0.21
 20
0.26
 30
0.0
 11
-0.301304347826087
 21
0.46
 31
0.0
  0
LINE
  5
69
330
5F
100
AcDbEntity
  8
ASHADE
  6
Continuous
 62
     7
100
AcDbLine
 10
-0.25
 20
0.26
 30
0.0
 11
-0.25
 21
0.13
 31
0.0
  0
LINE
  5
6A
330
5F
100
AcDbEntity
  8
ASHADE
  6
Continuous
 62
     7
100
AcDbLine
 10
-0.25
 20
0.22
 30
0.0
 11
-0.29
 21
0.22
 31
0.0
  0
LINE
  5
6B
330
5F
100
AcDbEntity
  8
ASHADE
  6
Continuous
 62
     7
100
AcDbLine
 10
-0.29
 20
0.1799999999999999
 30
0.0
 11
-0.25
 21
0.1799999999999999
 31
0.0
  0
LINE
  5
6C
330
5F
100
AcDbEntity
  8
ASHADE
  6
Continuous
 62
     7
100
AcDbLine
 10
-0.29
 20
0.22
 30
0.0
 11
-0.29
 21
0.1799999999999999
 31
0.0
  0
ATTDEF
  5
6D
330
5F
100
AcDbEntity
  8
ASHADE
  6
Continuous
 62
     7
100
AcDbText
 10
0.0
 20
-0.24
 30
0.0
 40
0.01
  1
0
100
AcDbAttributeDefinition
280
     0
  3
Depth Map Size
  2
ZSIZE
 70
     1
280
     0
  0
ATTDEF
  5
6E
330
5F
100
AcDbEntity
  8
ASHADE
  6
Continuous
 62
     7
100
AcDbText
 10
0.0
 20
-0.3300000000000001
 30
0.0
 40
0.01
  1
0,0,0
100
AcDbAttributeDefinition
280
     0
  3
Look-from XYZ
  2
LFXYZ
 70
     1
280
     0
  0
ATTDEF
  5
6F
330
5F
100
AcDbEntity
  8
ASHADE
  6
Continuous
 62
     7
100
AcDbText
 10
0.0
 20
-0.315
 30
0.0
 40
0.01
  1
0.0
100
AcDbAttributeDefinition
280
     0
  3
Beam Distribution
  2
BEAMDI
 70
     1
280
     0
  0
ATTDEF
  5
70
330
5F
100
AcDbEntity
  8
ASHADE
  6
Continuous
 62
     7
100
AcDbText
 10
0.0
 20
-0.3
 30
0.0
 40
0.01
  1
0.0
100
AcDbAttributeDefinition
280
     0
  3
Cone Delta
  2
CONEDE
 70
     1
280
     0
  0
ATTDEF
  5
71
330
5F
100
AcDbEntity
  8
ASHADE
  6
Continuous
 62
     7
100
AcDbText
 10
0.0
 20
-0.2850000000000001
 30
0.0
 40
0.01
  1
10.0
100
AcDbAttributeDefinition
280
     0
  3
Cone Angle
  2
CONEAN
 70
     1
280
     0
  0
ATTDEF
  5
72
330
5F
100
AcDbEntity
  8
ASHADE
  6
Continuous
 62
     7
100
AcDbText
 10
0.0
 20
-0.27
 30
0.0
 40
0.01
  1
-1
100
AcDbAttributeDefinition
280
     0
  3
*not used*
  2
BIASMAX
 70
     1
280
     0
  0
ATTDEF
  5
73
330
5F
100
AcDbEntity
  8
ASHADE
  6
Continuous
 62
     7
100
AcDbText
 10
0.0
 20
-0.255
 30
0.0
 40
0.01
  1
-1
100
AcDbAttributeDefinition
280
     0
  3
*not used*
  2
BIASMIN
 70
     1
280
     0
  0
ATTDEF
  5
74
330
5F
100
AcDbEntity
  8
ASHADE
  6
Continuous
 62
     7
100
AcDbText
 10
0.0
 20
-0.225
 30
0.0
 40
0.01
  1
1,1,1
100
AcDbAttributeDefinition
280
     0
  3
Light Color (RGB)
  2
COLOR
 70
     1
280
     0
  0
ATTDEF
  5
75
330
5F
100
AcDbEntity
  8
ASHADE
  6
Continuous
 62
     7
100
AcDbText
 10
0.0
 20
-0.21
 30
0.0
 40
0.01
  1
1
100
AcDbAttributeDefinition
280
     0
  3
Light Intensity
  2
INTENSITY
 70
     1
280
     0
  0
ATTDEF
  5
76
330
5F
100
AcDbEntity
  8
ASHADE
  6
Continuous
 62
     7
100
AcDbText
 10
0.0
 20
-0.15
 30
0.0
 40
0.01
  1

100
AcDbAttributeDefinition
280
     0
  3

  2
GNAME
 70
     1
280
     0
  0
ATTDEF
  5
77
330
5F
100
AcDbEntity
  8
ASHADE
  6
Continuous
 62
     7
100
AcDbText
 10
0.0
 20
-0.195
 30
0.0
 40
0.01
  1

100
AcDbAttributeDefinition
280
     0
  3
Look-at Z
  2
LAZ
 70
     1
280
     0
  0
ATTDEF
  5
78
330
5F
100
AcDbEntity
  8
ASHADE
  6
Continuous
 62
     7
100
AcDbText
 10
0.0
 20
-0.18
 30
0.0
 40
0.01
  1

100
AcDbAttributeDefinition
280
     0
  3
Look-at Y
  2
LAY
 70
     1
280
     0
  0
ATTDEF
  5
79
330
5F
100
AcDbEntity
  8
ASHADE
  6
Continuous
 62
     7
100
AcDbText
 10
0.0
 20
-0.165
 30
0.0
 40
0.01
  1

100
AcDbAttributeDefinition
280
     0
  3
Look-at X
  2
LAX
 70
     1
280
     0
  0
LINE
  5
7A
330
5F
100
AcDbEntity
  8
ASHADE
  6
Continuous
 62
     7
100
AcDbLine
 10
0.25
 20
-0.3399999999999999
 30
0.0
 11
0.25
 21
-0.13
 31
0.0
  0
LINE
  5
7B
330
5F
100
AcDbEntity
  8
ASHADE
  6
Continuous
 62
     7
100
AcDbLine
 10
0.25
 20
-0.18
 30
0.0
 11
0.29
 21
-0.18
 31
0.0
  0
LINE
  5
7C
330
5F
100
AcDbEntity
  8
ASHADE
  6
Continuous
 62
     7
100
AcDbLine
 10
0.29
 20
-0.22
 30
0.0
 11
0.25
 21
-0.22
 31
0.0
  0
LINE
  5
7D
330
5F
100
AcDbEntity
  8
ASHADE
  6
Continuous
 62
     7
100
AcDbLine
 10
0.29
 20
-0.18
 30
0.0
 11
0.29
 21
-0.22
 31
0.0
  0
LINE
  5
7E
330
5F
100
AcDbEntity
  8
ASHADE
  6
Continuous
 62
     7
100
AcDbLine
 10
0.21
 20
0.26
 30
0.0
 11
0.301304347826087
 21
0.46
 31
0.0
  0
LINE
  5
7F
330
5F
100
AcDbEntity
  8
ASHADE
  6
Continuous
 62
     7
100
AcDbLine
 10
0.1045454545454545
 20
0.26
 30
0.0
 11
0.15
 21
0.46
 31
0.0
  0
LINE
  5
80
330
5F
100
AcDbEntity
  8
ASHADE
  6
Continuous
 62
     7
100
AcDbLine
 10
0.0
 20
0.26
 30
0.0
 11
0.0
 21
0.46
 31
0.0
  0
LINE
  5
81
330
5F
100
AcDbEntity
  8
ASHADE
  6
Continuous
 62
     7
100
AcDbLine
 10
0.25
 20
0.13
 30
0.0
 11
0.25
 21
0.26
 31
0.0
  0
LINE
  5
82
330
5F
100
AcDbEntity
  8
ASHADE
  6
Continuous
 62
     7
100
AcDbLine
 10
0.25
 20
0.22
 30
0.0
 11
0.29
 21
0.22
 31
0.0
  0
LINE
  5
83
330
5F
100
AcDbEntity
  8
ASHADE
  6
Continuous
 62
     7
100
AcDbLine
 10
0.29
 20
0.1799999999999999
 30
0.0
 11
0.25
 21
0.1799999999999999
 31
0.0
  0
LINE
  5
84
330
5F
100
AcDbEntity
  8
ASHADE
  6
Continuous
 62
     7
100
AcDbLine
 10
0.29
 20
0.22
 30
0.0
 11
0.29
 21
0.1799999999999999
 31
0.0
  0
ENDBLK
  5
86
330
5F
100
AcDbEntity
  8
0
100
AcDbBlockEnd
  0
BLOCK
  5
92
330
91
100
AcDbEntity
  8
ASHADE
100
AcDbBlockBegin
  2
AVE_RENDER
 70
     0
 10
0.0
 20
0.0
 30
0.0
  3
AVE_RENDER
  1
AVE_RENDER
  0
ENDBLK
  5
93
330
91
100
AcDbEntity
  8
0
100
AcDbBlockEnd
  0
BLOCK
  5
A0
330
9F
100
AcDbEntity
  8
ASHADE
100
AcDbBlockBegin
  2
AVE_GLOBAL
 70
     0
 10
0.0
 20
0.0
 30
0.0
  3
AVE_GLOBAL
  1
AVE_GLOBAL
  0
ENDBLK
  5
A1
330
9F
100
AcDbEntity
  8
0
100
AcDbBlockEnd
  0
ENDSEC
  0
SECTION
  2
ENTITIES
  0
INSERT
  5
94
330
1F
100
AcDbEntity
  8
ASHADE
 62
     1
100
AcDbBlockReference
  2
AVE_RENDER
 10
0.0
 20
0.0
 30
0.0
1001
AVE_RENDER
1002
{
1070
     7
1000
Pref
1070
    30
1070
    20
1070
     1
1070
     0
1000

1070
    10
1070
     1
1070
    10
1040
1.0
1070
     1
1040
0.3
1040
0.7
1040
0.0
1040
10.0
1010
-1.0
1020
-1.0
1030
-1.0
1040
0.3
1070
    49
1070
     0
1070
     0
1010
1.0
1020
1.0
1030
1.0
1040
45.0
1070
     1
1070
     0
1000
WCS
1040
0.0
1070
     0
1040
10.0
1002
}
  0
INSERT
  5
95
330
1F
100
AcDbEntity
  8
ASHADE
 62
     3
100
AcDbBlockReference
  2
AVE_RENDER
 10
0.0
 20
0.0
 30
0.0
1001
AVE_RENDER
1002
{
1070
     0
1000
Full Opt
1070
     0
1070
     1
1070
     1
1070
     1
1070
     0
1070
     0
1070
     0
1070
     1
1070
     1
1040
0.0001
1040
0.0001
1002
}
  0
INSERT
  5
96
330
1F
100
AcDbEntity
  8
ASHADE
 62
     4
100
AcDbBlockReference
  2
AVE_RENDER
 10
0.0
 20
0.0
 30
0.0
1001
AVE_RENDER
1002
{
1070
     0
1000
Quick Opt
1070
     0
1070
     1
1070
     1
1070
     1
1070
     0
1070
     0
1070
     1
1002
}
  0
INSERT
  5
97
330
1F
100
AcDbEntity
  8
ASHADE
 62
     5
100
AcDbBlockReference
  2
AVE_RENDER
 10
0.0
 20
0.0
 30
0.0
1001
AVE_RENDER
1002
{
1070
     1
1000
Scanl Opt
1070
     2
1070
     0
1070
     2
1040
2.0
1040
4.0
1070
     0
1070
     1
1070
     0
1040
0.03
1002
}
  0
INSERT
  5
98
330
1F
100
AcDbEntity
  8
ASHADE
 62
     6
100
AcDbBlockReference
  2
AVE_RENDER
 10
0.0
 20
0.0
 30
0.0
1001
AVE_RENDER
1002
{
1070
     2
1000
Raytr Opt
1070
     2
1070
     0
1070
     2
1040
2.0
1040
4.0
1070
     0
1070
     1
1070
     1
1040
0.03
1070
     3
1040
0.03
1002
}
  0
INSERT
  5
99
330
1F
100
AcDbEntity
  8
ASHADE
 62
     7
100
AcDbBlockReference
  2
AVE_RENDER
 10
0.0
 20
0.0
 30
0.0
1001
AVE_RENDER
1002
{
1070
     0
1000
RFile Opt
1070
     1
1070
   640
1070
   480
1070
 10000
1070
     1
1070
     8
1070
     8
1070
     0
1070
     0
1070
     0
1070
     0
1070
     0
1070
     0
1070
     0
1002
}
  0
INSERT
  5
9A
330
1F
100
AcDbEntity
  8
ASHADE
 62
     8
100
AcDbBlockReference
  2
AVE_RENDER
 10
0.0
 20
0.0
 30
0.0
1001
AVE_RENDER
1002
{
1070
     0
1000
Fog Opt
1070
     0
1070
     0
1040
0.0
1040
1.0
1040
0.0
1040
1.0
1010
0.5
1020
0.5
1030
0.5
1002
}
  0
INSERT
  5
9B
330
1F
100
AcDbEntity
  8
ASHADE
 62
     9
100
AcDbBlockReference
  2
AVE_RENDER
 10
0.0
 20
0.0
 30
0.0
1001
AVE_RENDER
1002
{
1070
     0
1000
BG Opt
1070
     0
1070
     1
1010
0.0
1020
0.0
1030
0.0
1010
1.0
1020
0.0
1030
0.0
1010
0.0
1020
1.0
1030
0.0
1010
0.0
1020
0.0
1030
1.0
1040
0.5
1040
0.33
1040
0.0
1000

1070
     1
1000

1070
     1
1070
     1
1040
1.0
1040
1.0
1040
0.0
1040
0.0
1070
     0
1002
}
  0
INSERT
  5
A2
330
1F
100
AcDbEntity
  8
ASHADE
 62
     1
100
AcDbBlockReference
  2
AVE_GLOBAL
 10
0.0
 20
0.0
 30
0.0
1001
AVE_MATERIAL
1002
{
1000
*GLOBAL*
1000
2
1000
Global finish.
1002
{
1002
}
1002
{
1070
    63
1002
{
1002
{
1010
-1.0
1020
-1.0
1030
-1.0
1002
}
1040
0.1000000014901161
1000

1040
0.0
1002
{
1002
}
1040
0.0
1002
{
1002
}
1040
0.0
1002
}
1002
{
1002
{
1010
-1.0
1020
-1.0
1030
-1.0
1002
}
1040
0.6999999880790711
1000

1040
0.0
1002
{
1002
}
1040
0.0
1002
{
1002
}
1040
0.0
1002
}
1002
{
1002
{
1010
-1.0
1020
-1.0
1030
-1.0
1002
}
1040
0.2000000029802322
1000

1040
0.0
1002
{
1002
}
1040
0.0
1002
{
1002
}
1040
0.0
1002
}
1002
{
1070
     0
1002
{
1070
     1
1002
{
1040
1.0
1040
1.0
1000

1040
0.0
1002
{
1002
}
1040
0.0
1002
{
1002
}
1040
0.0
1002
}
1002
}
1040
1.0
1040
0.0
1040
0.0
1002
}
1002
{
1040
1.0
1040
1.0
1000

1040
0.0
1002
{
1002
}
1040
0.0
1002
{
1002
}
1040
0.0
1002
}
1002
{
1040
0.5
1040
1.0
1000

1040
0.0
1002
{
1002
}
1040
0.0
1002
{
1002
}
1040
0.0
1002
}
1002
{
1070
     0
1040
0.0
1002
{
1002
}
1040
1.0
1002
{
1002
}
1040
0.0
1002
}
1002
{
1040
0.0
1002
{
1002
{
1010
0.0
1020
0.0
1030
0.0
1002
}
1040
1.0
1000

1040
0.0
1002
{
1002
}
1040
0.0
1002
{
1002
}
1040
0.0
1002
}
1002
}
1002
{
1002
{
1070
     1
1002
{
1040
0.0
1040
1.0
1000

1040
0.0
1002
{
1002
}
1040
0.0
1002
{
1002
}
1040
0.0
1002
}
1002
}
1040
0.0
1002
{
1002
}
1010
1.0
1020
0.0
1030
0.0
1010
0.0
1020
1.0
1030
0.0
1010
0.0
1020
0.0
1030
1.0
1070
     0
1002
}
1002
{
1002
{
1040
1.0
1040
1.0
1002
{
1070
     1
1002
{
1040
1.0
1040
1.0
1000

1040
0.0
1002
{
1002
}
1040
0.0
1002
{
1002
}
1040
0.0
1002
}
1002
}
1002
}
1070
     0
1040
0.0
1002
{
1002
}
1002
}
1002
{
1002
}
1002
}
1002
{
1071
        3
1070
     3
1070
     0
1002
{
1070
     2
1070
     0
1070
     0
1040
0.0
1002
}
1070
     0
1070
     2
1002
{
1002
}
1002
}
1002
{
1040
8030.0
1040
190.3000030517578
1040
0.3050000071525574
1040
228.0
1040
545.0
1040
14.0
1040
17.39999961853027
1040
0.4560000002384186
1002
}
1002
}
  0
MESH
  5
F9
330
1F
100
AcDbEntity
  8
OracDecor_cornice_mouldings
 62
    54
420
  9744667
160
             22616
310
58580000740200000C00000013000000020000003C00000006000000020000000000000000408F4000000000008044C000000080FFFF13C00000000000408F4000000000008044C0000000000000C03E0C000000130000000A0000003C0000000600000002000000000000E0FF3F8FC000000020FF7F44C0000000000000C0
310
3E0000000000408F4000000000008044C0000000000000C03E0C00000013000000120000003C0000000600000002000000000000E0FF3F8FC000000020FF7F44C0000000000000C03E000000E0FF3F8FC000000020FF7F44C000000080FFFF13C00C000000130000001A0000003C0000000600000002000000000000E0FF3F
310
8FC000000020FF7F44C000000080FFFF13C00000000000408F4000000000008044C000000080FFFF13C00C00000013000000220000003C00000006000000020000000000000000408F4000000000008044C0000000000000C03E0000000000408F400000006066AE41C0000000000000C03E0C000000130000002A0000003C
310
0000000600000002000000000000E0FF3F8FC00000008065AE41C0000000000000C03E0000000000408F400000006066AE41C0000000000000C03E0C00000013000000320000003C0000000600000002000000000000E0FF3F8FC00000008065AE41C0000000000000C03E000000E0FF3F8FC000000020FF7F44C000000000
310
0000C03E0C000000130000003A0000003C00000006000000020000000000000000408F400000006066AE41C0000000000000C03E0000000000408F4000000060718C41C0000000000072A1BF0C00000013000000420000003C0000000600000002000000000000E0FF3F8FC000000080708C41C0000000000072A1BF000000
310
0000408F4000000060718C41C0000000000072A1BF0C000000130000004A0000003C0000000600000002000000000000E0FF3F8FC00000008065AE41C0000000000000C03E000000E0FF3F8FC000000080708C41C0000000000072A1BF0C00000013000000520000003C00000006000000020000000000000000408F400000
310
0060718C41C0000000000072A1BF0000000000408F40000000C0CC6C41C0000000001026C1BF0C000000130000005A0000003C0000000600000002000000000000E0FF3F8FC0000000E0CB6C41C0000000001026C1BF0000000000408F40000000C0CC6C41C0000000001026C1BF0C00000013000000620000003C00000006
310
00000002000000000000E0FF3F8FC0000000E0CB6C41C0000000001026C1BF000000E0FF3F8FC000000080708C41C0000000000072A1BF0C000000130000006A0000003C00000006000000020000000000000000408F40000000C0CC6C41C0000000001026C1BF0000000000408F40000000C0CCC840C0000000009461EBBF
310
0C00000013000000720000003C0000000600000002000000000000E0FF3F8FC0000000E0CBC840C0000000009461EBBF0000000000408F40000000C0CCC840C0000000009461EBBF0C000000130000007A0000003C0000000600000002000000000000E0FF3F8FC0000000E0CB6C41C0000000001026C1BF000000E0FF3F8F
310
C0000000E0CBC840C0000000009461EBBF0C00000013000000820000003C00000006000000020000000000000000408F40000000C0CCC840C0000000009461EBBF0000000000408F400000000000A840C0000000005886EDBF0C000000130000008A0000003C0000000600000002000000000000E0FF3F8FC000000020FFA7
310
40C0000000005886EDBF0000000000408F400000000000A840C0000000005886EDBF0C00000013000000920000003C0000000600000002000000000000E0FF3F8FC0000000E0CBC840C0000000009461EBBF000000E0FF3F8FC000000020FFA740C0000000005886EDBF0C000000130000009A0000003C0000000600000002
310
0000000000000000408F400000000000A840C0000000005886EDBF0000000000408F4000000040338740C0000000009461EBBF0C00000013000000A20000003C0000000600000002000000000000E0FF3F8FC000000060328740C0000000009461EBBF0000000000408F4000000040338740C0000000009461EBBF0C000000
310
13000000AA0000003C0000000600000002000000000000E0FF3F8FC000000060328740C0000000009461EBBF000000E0FF3F8FC000000020FFA740C0000000005886EDBF0C00000013000000B20000003C00000006000000020000000000000000408F4000000040338740C0000000009461EBBF0000000000408F40000000
310
6066C63FC0000000001026C1BF0C00000013000000BA0000003C0000000600000002000000000000E0FF3F8FC00000008064C63FC0000000001026C1BF0000000000408F400000006066C63FC0000000001026C1BF0C00000013000000C20000003C0000000600000002000000000000E0FF3F8FC000000060328740C00000
310
00009461EBBF000000E0FF3F8FC00000008064C63FC0000000001026C1BF0C00000013000000CA0000003C00000006000000020000000000000000408F400000006066C63FC0000000001026C1BF0000000000408F40000000201D873FC0000000000072A1BF0C00000013000000D20000003C000000060000000200000000
310
0000E0FF3F8FC0000000401B873FC0000000000072A1BF0000000000408F40000000201D873FC0000000000072A1BF0C00000013000000DA0000003C0000000600000002000000000000E0FF3F8FC00000008064C63FC0000000001026C1BF000000E0FF3F8FC0000000401B873FC0000000000072A1BF0C00000013000000
310
E20000003C00000006000000020000000000000000408F400000004033433FC0000000000000C03E0000000000408F40000000201D873FC0000000000072A1BF0C00000013000000EA0000003C0000000600000002000000000000E0FF3F8FC00000006031433FC0000000000000C03E0000000000408F400000004033433F
310
C0000000000000C03E0C00000013000000F20000003C0000000600000002000000000000E0FF3F8FC00000006031433FC0000000000000C03E000000E0FF3F8FC0000000401B873FC0000000000072A1BF0C00000013000000FA0000003C00000006000000020000000000000000408F40000000A099293BC0000000000000
310
C03E0000000000408F400000004033433FC0000000000000C03E0C00000013000000020100003C0000000600000002000000000000E0FF3F8FC0000000C097293BC0000000000000C03E0000000000408F40000000A099293BC0000000000000C03E0C000000130000000A0100003C0000000600000002000000000000E0FF
310
3F8FC00000006031433FC0000000000000C03E000000E0FF3F8FC0000000C097293BC0000000000000C03E0C00000013000000120100003C00000006000000020000000000000000408F40000000A099293BC0000000000000C03E0000000000408F40000000C0CC643AC00000000010B9C9BF0C000000130000001A010000
310
3C0000000600000002000000000000E0FF3F8FC0000000E0CA643AC00000000010B9C9BF0000000000408F40000000C0CC643AC00000000010B9C9BF0C00000013000000220100003C0000000600000002000000000000E0FF3F8FC0000000C097293BC0000000000000C03E000000E0FF3F8FC0000000E0CA643AC0000000
310
0010B9C9BF0C000000130000002A0100003C00000006000000020000000000000000408F40000000C0CC643AC00000000010B9C9BF0000000000408F4000000080BBD439C000000000FCFFE7BF0C00000013000000320100003C0000000600000002000000000000E0FF3F8FC0000000A0B9D439C000000000FCFFE7BF0000
310
000000408F4000000080BBD439C000000000FCFFE7BF0C000000130000003A0100003C0000000600000002000000000000E0FF3F8FC0000000A0B9D439C000000000FCFFE7BF000000E0FF3F8FC0000000E0CA643AC00000000010B9C9BF0C00000013000000420100003C00000006000000020000000000000000408F4000
310
00000000A039C000000000FEFFF7BF0000000000408F4000000080BBD439C000000000FCFFE7BF0C000000130000004A0100003C0000000600000002000000000000E0FF3F8FC000000020FE9F39C000000000FEFFF7BF0000000000408F400000000000A039C000000000FEFFF7BF0C00000013000000520100003C000000
310
0600000002000000000000E0FF3F8FC000000020FE9F39C000000000FEFFF7BF000000E0FF3F8FC0000000A0B9D439C000000000FCFFE7BF0C000000130000005A0100003C00000006000000020000000000000000408F400000000000A039C000000000FEFFF7BF0000000000408F400000000000A039C0000000E0FFFF23
310
C00C00000013000000620100003C0000000600000002000000000000E0FF3F8FC000000020FE9F39C0000000E0FFFF23C00000000000408F400000000000A039C0000000E0FFFF23C00C000000130000006A0100003C0000000600000002000000000000E0FF3F8FC000000020FE9F39C000000000FEFFF7BF000000E0FF3F
310
8FC000000020FE9F39C0000000E0FFFF23C00C00000013000000720100003C00000006000000020000000000000000408F400000000000A039C0000000E0FFFF23C00000000000408F40000000C0C43039C000000000385429C00C000000130000007A0100003C0000000600000002000000000000E0FF3F8FC0000000E0C2
310
3039C000000000385429C00000000000408F40000000C0C43039C000000000385429C00C00000013000000820100003C0000000600000002000000000000E0FF3F8FC000000020FE9F39C0000000E0FFFF23C0000000E0FF3F8FC0000000E0C23039C000000000385429C00C000000130000008A0100003C00000006000000
310
020000000000000000408F40000000C0C43039C000000000385429C00000000000408F40000000400FEE37C0000000E0B9212EC00C00000013000000920100003C0000000600000002000000000000E0FF3F8FC0000000600DEE37C0000000E0B9212EC00000000000408F40000000400FEE37C0000000E0B9212EC00C0000
310
00130000009A0100003C0000000600000002000000000000E0FF3F8FC0000000E0C23039C000000000385429C0000000E0FF3F8FC0000000600DEE37C0000000E0B9212EC00C00000013000000A20100003C00000006000000020000000000000000408F40000000400FEE37C0000000E0B9212EC00000000000408F400000
310
00E0BCF735C00000000090F730C00C00000013000000AA0100003C0000000600000002000000000000E0FF3F8FC000000000BBF735C00000000090F730C00000000000408F40000000E0BCF735C00000000090F730C00C00000013000000B20100003C0000000600000002000000000000E0FF3F8FC0000000600DEE37C000
310
0000E0B9212EC0000000E0FF3F8FC000000000BBF735C00000000090F730C00C00000013000000BA0100003C00000006000000020000000000000000408F40000000E0BCF735C00000000090F730C00000000000408F4000000060667F33C0000000E0262E32C00C00000013000000C20100003C0000000600000002000000
310
000000E0FF3F8FC000000080647F33C0000000E0262E32C00000000000408F4000000060667F33C0000000E0262E32C00C00000013000000CA0100003C0000000600000002000000000000E0FF3F8FC000000080647F33C0000000E0262E32C0000000E0FF3F8FC000000000BBF735C00000000090F730C00C000000130000
310
00D20100003C00000006000000020000000000000000408F4000000060667F33C0000000E0262E32C00000000000408F400000008024442EC0000000E0FA2734C00C00000013000000DA0100003C0000000600000002000000000000E0FF3F8FC0000000E020442EC0000000E0FA2734C00000000000408F40000000802444
310
2EC0000000E0FA2734C00C00000013000000E20100003C0000000600000002000000000000E0FF3F8FC000000080647F33C0000000E0262E32C0000000E0FF3F8FC0000000E020442EC0000000E0FA2734C00C00000013000000EA0100003C00000006000000020000000000000000408F400000008024442EC0000000E0FA
310
2734C00000000000408F40000000C01DD226C000000060462137C00C00000013000000F20100003C0000000600000002000000000000E0FF3F8FC0000000201AD226C000000060462137C00000000000408F40000000C01DD226C000000060462137C00C00000013000000FA0100003C0000000600000002000000000000E0
310
FF3F8FC0000000E020442EC0000000E0FA2734C0000000E0FF3F8FC0000000201AD226C000000060462137C00C00000013000000020200003C00000006000000020000000000000000408F40000000C0AA2021C00000002021EA3AC00000000000408F40000000C01DD226C000000060462137C00C000000130000000A0200
310
003C0000000600000002000000000000E0FF3F8FC000000020A72021C00000002021EA3AC00000000000408F40000000C0AA2021C00000002021EA3AC00C00000013000000120200003C0000000600000002000000000000E0FF3F8FC0000000201AD226C000000060462137C0000000E0FF3F8FC000000020A72021C00000
310
002021EA3AC00C000000130000001A0200003C00000006000000020000000000000000408F40000000C009C51CC000000000CF8D3CC00000000000408F40000000C0AA2021C00000002021EA3AC00C00000013000000220200003C0000000600000002000000000000E0FF3F8FC00000008002C51CC000000000CF8D3CC000
310
00000000408F40000000C009C51CC000000000CF8D3CC00C000000130000002A0200003C0000000600000002000000000000E0FF3F8FC000000020A72021C00000002021EA3AC0000000E0FF3F8FC00000008002C51CC000000000CF8D3CC00C00000013000000320200003C00000006000000020000000000000000408F40
310
00000040D84A15C0000000407AA03DC00000000000408F40000000C009C51CC000000000CF8D3CC00C000000130000003A0200003C0000000600000002000000000000E0FF3F8FC000000000D14A15C0000000407AA03DC00000000000408F4000000040D84A15C0000000407AA03DC00C00000013000000420200003C0000
310
000600000002000000000000E0FF3F8FC00000008002C51CC000000000CF8D3CC0000000E0FF3F8FC000000000D14A15C0000000407AA03DC00C000000130000004A0200003C00000006000000020000000000000000408F4000000000508109C00000000000003EC00000000000408F4000000040D84A15C0000000407AA0
310
3DC00C00000013000000520200003C0000000600000002000000000000E0FF3F8FC000000000418109C00000000000003EC00000000000408F4000000000508109C00000000000003EC00C000000130000005A0200003C0000000600000002000000000000E0FF3F8FC000000000418109C00000000000003EC0000000E0FF
310
3F8FC000000000D14A15C0000000407AA03DC00C00000013000000620200003C00000006000000020000000000000000408F40000000009C99F8BF0000000000003EC00000000000408F4000000000508109C00000000000003EC00C000000130000006A0200003C0000000600000002000000000000E0FF3F8FC000000000
310
7E99F8BF0000000000003EC00000000000408F40000000009C99F8BF0000000000003EC00C00000013000000720200003C0000000600000002000000000000E0FF3F8FC000000000418109C00000000000003EC0000000E0FF3F8FC0000000007E99F8BF0000000000003EC00C000000130000007A0200003C000000060000
310
00020000000000000000408F4000000000A099E8BF0000004072333EC00000000000408F40000000009C99F8BF0000000000003EC00C00000013000000820200003C0000000600000002000000000000E0FF3F8FC0000000006499E8BF0000004072333EC00000000000408F4000000000A099E8BF0000004072333EC00C00
310
0000130000008A0200003C0000000600000002000000000000E0FF3F8FC0000000007E99F8BF0000000000003EC0000000E0FF3F8FC0000000006499E8BF0000004072333EC00C00000013000000920200003C00000006000000020000000000000000408F4000000000C05DCABF0000000000C03EC00000000000408F4000
310
000000A099E8BF0000004072333EC00C000000130000009A0200003C0000000600000002000000000000E0FF3F8FC000000000E05CCABF0000000000C03EC00000000000408F4000000000C05DCABF0000000000C03EC00C00000013000000A20200003C0000000600000002000000000000E0FF3F8FC000000000E05CCABF
310
0000000000C03EC0000000E0FF3F8FC0000000006499E8BF0000004072333EC00C00000013000000AA0200003C00000006000000020000000000000000408F4000000000000000000000000000803FC00000000000408F4000000000C05DCABF0000000000C03EC00C00000013000000B20200003C00000006000000020000
310
00000000E0FF3F8FC0000000000000FC3E0000000000803FC00000000000408F4000000000000000000000000000803FC00C00000013000000BA0200003C0000000600000002000000000000E0FF3F8FC0000000000000FC3E0000000000803FC0000000E0FF3F8FC000000000E05CCABF0000000000C03EC00C0000001300
310
0000C20200003C00000006000000020000000000000000408F4000000000000000000000000000C041C00000000000408F4000000000000000000000000000803FC00C00000013000000CA0200003C0000000600000002000000000000E0FF3F8FC0000000000000FC3E0000000000C041C00000000000408F400000000000
310
0000000000000000C041C00C00000013000000D20200003C0000000600000002000000000000E0FF3F8FC0000000000000FC3E0000000000C041C0000000E0FF3F8FC0000000000000FC3E0000000000803FC00C00000013000000DA0200003C00000006000000020000000000000000408F400000000000E2A1BF00000000
310
21E141C00000000000408F4000000000000000000000000000C041C00C00000013000000E20200003C0000000600000002000000000000E0FF3F8FC00000000080DEA1BF0000000021E141C00000000000408F400000000000E2A1BF0000000021E141C00C00000013000000EA0200003C0000000600000002000000000000
310
E0FF3F8FC0000000000000FC3E0000000000C041C0000000E0FF3F8FC00000000080DEA1BF0000000021E141C00C00000013000000F20200003C00000006000000020000000000000000408F400000000000E2A1BF0000000021E141C00000000000408F4000000000E093C1BF00000000000042C00C00000013000000FA02
310
00003C0000000600000002000000000000E0FF3F8FC0000000000093C1BF00000000000042C00000000000408F4000000000E093C1BF00000000000042C00C00000013000000020300003C0000000600000002000000000000E0FF3F8FC0000000000093C1BF00000000000042C0000000E0FF3F8FC00000000080DEA1BF00
310
00000021E141C00C000000130000000A0300003C00000006000000020000000000000000408F4000000000D810ECBF0000000000A042C00000000000408F4000000000E093C1BF00000000000042C00C00000013000000120300003C0000000600000002000000000000E0FF3F8FC0000000009C10ECBF0000000000A042C0
310
0000000000408F4000000000D810ECBF0000000000A042C00C000000130000001A0300003C0000000600000002000000000000E0FF3F8FC0000000000093C1BF00000000000042C0000000E0FF3F8FC0000000009C10ECBF0000000000A042C00C00000013000000220300003C00000006000000020000000000000000408F
310
40000000005043EEBF0000000000C042C00000000000408F4000000000D810ECBF0000000000A042C00C000000130000002A0300003C0000000600000002000000000000E0FF3F8FC0000000001843EEBF0000000000C042C00000000000408F40000000005043EEBF0000000000C042C00C00000013000000320300003C00
310
00000600000002000000000000E0FF3F8FC0000000009C10ECBF0000000000A042C0000000E0FF3F8FC0000000001843EEBF0000000000C042C00C000000130000003A0300003C00000006000000020000000000000000408F4000000000D810ECBF0000000000E042C00000000000408F40000000005043EEBF0000000000
310
C042C00C00000013000000420300003C0000000600000002000000000000E0FF3F8FC0000000009C10ECBF0000000000E042C00000000000408F4000000000D810ECBF0000000000E042C00C000000130000004A0300003C0000000600000002000000000000E0FF3F8FC0000000009C10ECBF0000000000E042C0000000E0
310
FF3F8FC0000000001843EEBF0000000000C042C00C00000013000000520300003C00000006000000020000000000000000408F4000000000E093C1BF00000000008043C00000000000408F4000000000D810ECBF0000000000E042C00C000000130000005A0300003C0000000600000002000000000000E0FF3F8FC0000000
310
000093C1BF00000000008043C00000000000408F4000000000E093C1BF00000000008043C00C00000013000000620300003C0000000600000002000000000000E0FF3F8FC0000000009C10ECBF0000000000E042C0000000E0FF3F8FC0000000000093C1BF00000000008043C00C000000130000006A0300003C0000000600
310
0000020000000000000000408F400000000000E2A1BF00000000DF9E43C00000000000408F4000000000E093C1BF00000000008043C00C00000013000000720300003C0000000600000002000000000000E0FF3F8FC00000000080DEA1BF00000000DF9E43C00000000000408F400000000000E2A1BF00000000DF9E43C00C
310
000000130000007A0300003C0000000600000002000000000000E0FF3F8FC0000000000093C1BF00000000008043C0000000E0FF3F8FC00000000080DEA1BF00000000DF9E43C00C00000013000000820300003C00000006000000020000000000000000408F4000000000000000000000000000C043C00000000000408F40
310
0000000000E2A1BF00000000DF9E43C00C000000130000008A0300003C0000000600000002000000000000E0FF3F8FC0000000000000FC3E0000000000C043C00000000000408F4000000000000000000000000000C043C00C00000013000000920300003C0000000600000002000000000000E0FF3F8FC0000000000000FC
310
3E0000000000C043C0000000E0FF3F8FC00000000080DEA1BF00000000DF9E43C00C000000130000009A0300003C00000006000000020000000000000000408F4000000000000000000000000000C043C00000000000408F40000000000000C0BE00000000008046C00C00000013000000A20300003C000000060000000200
310
0000000000E0FF3F8FC0000000000000FC3E00000000008046C00000000000408F40000000000000C0BE00000000008046C00C00000013000000AA0300003C0000000600000002000000000000E0FF3F8FC0000000000000FC3E00000000008046C0000000E0FF3F8FC0000000000000FC3E0000000000C043C00C00000013
310
000000B20300003C00000006000000020000000000000000408F40000000000000C0BE00000000008046C00000000000408F4000000080008014C000000000008046C00C00000013000000BA0300003C0000000600000002000000000000E0FF3F8FC000000040F97F14C000000000008046C00000000000408F4000000080
310
008014C000000000008046C00C00000013000000C20300003C0000000600000002000000000000E0FF3F8FC000000040F97F14C000000000008046C0000000E0FF3F8FC0000000000000FC3E00000000008046C00C00000013000000CA0300003C00000006000000020000000000000000408F4000000080008014C0000000
310
00008046C00000000000408F40000000C0E2BA15C0000000C0FE9E45C00C00000013000000D20300003C0000000600000002000000000000E0FF3F8FC000000080DBBA15C0000000C0FE9E45C00000000000408F40000000C0E2BA15C0000000C0FE9E45C00C00000013000000DA0300003C00000006000000020000000000
310
00E0FF3F8FC000000040F97F14C000000000008046C0000000E0FF3F8FC000000080DBBA15C0000000C0FE9E45C00C00000013000000E20300003C00000006000000020000000000000000408F40000000C0E2BA15C0000000C0FE9E45C00000000000408F4000000040D04719C00000008079D744C00C00000013000000EA
310
0300003C0000000600000002000000000000E0FF3F8FC000000000C94719C00000008079D744C00000000000408F4000000040D04719C00000008079D744C00C00000013000000F20300003C0000000600000002000000000000E0FF3F8FC000000080DBBA15C0000000C0FE9E45C0000000E0FF3F8FC000000000C94719C0
310
0000008079D744C00C00000013000000FA0300003C00000006000000020000000000000000408F4000000040D04719C00000008079D744C00000000000408F400000008000C01EC000000000004044C00C00000013000000020400003C0000000600000002000000000000E0FF3F8FC000000040F9BF1EC000000000004044
310
C00000000000408F400000008000C01EC000000000004044C00C000000130000000A0400003C0000000600000002000000000000E0FF3F8FC000000040F9BF1EC000000000004044C0000000E0FF3F8FC000000000C94719C00000008079D744C00C00000013000000120400003C0000000600000002000000000000000040
310
8F400000008000C01EC000000000004044C00000000000408F40000000601FE921C0000000C092B743C00C000000130000001A0400003C0000000600000002000000000000E0FF3F8FC0000000C01BE921C0000000C092B743C00000000000408F40000000601FE921C0000000C092B743C00C00000013000000220400003C
310
0000000600000002000000000000E0FF3F8FC000000040F9BF1EC000000000004044C0000000E0FF3F8FC0000000C01BE921C0000000C092B743C00C000000130000002A0400003C00000006000000020000000000000000408F40000000601FE921C0000000C092B743C00000000000408F40000000202AA923C0000000E0
310
6F0543C00C00000013000000320400003C0000000600000002000000000000E0FF3F8FC00000008026A923C0000000E06F0543C00000000000408F40000000202AA923C0000000E06F0543C00C000000130000003A0400003C0000000600000002000000000000E0FF3F8FC0000000C01BE921C0000000C092B743C0000000
310
E0FF3F8FC00000008026A923C0000000E06F0543C00C00000013000000420400003C00000006000000020000000000000000408F40000000202AA923C0000000E06F0543C00000000000408F4000000080A57524C0000000A07B3A42C00C000000130000004A0400003C0000000600000002000000000000E0FF3F8FC00000
310
00E0A17524C0000000A07B3A42C00000000000408F4000000080A57524C0000000A07B3A42C00C00000013000000520400003C0000000600000002000000000000E0FF3F8FC0000000E0A17524C0000000A07B3A42C0000000E0FF3F8FC00000008026A923C0000000E06F0543C00C000000130000005A0400003C00000006
310
000000020000000000000000408F4000000080A57524C0000000A07B3A42C00000000000408F4000000000BF9F24C000000080DD1C42C00C00000013000000620400003C0000000600000002000000000000E0FF3F8FC000000060BB9F24C000000080DD1C42C00000000000408F4000000000BF9F24C000000080DD1C42C0
310
0C000000130000006A0400003C0000000600000002000000000000E0FF3F8FC0000000E0A17524C0000000A07B3A42C0000000E0FF3F8FC000000060BB9F24C000000080DD1C42C00C00000013000000720400003C00000006000000020000000000000000408F4000000000BF9F24C000000080DD1C42C00000000000408F
310
400000000076FE24C000000040AD0742C00C000000130000007A0400003C0000000600000002000000000000E0FF3F8FC00000006072FE24C000000040AD0742C00000000000408F400000000076FE24C000000040AD0742C00C00000013000000820400003C0000000600000002000000000000E0FF3F8FC00000006072FE
310
24C000000040AD0742C0000000E0FF3F8FC000000060BB9F24C000000080DD1C42C00C000000130000008A0400003C00000006000000020000000000000000408F400000000076FE24C000000040AD0742C00000000000408F40000000C0117B25C000000000000042C00C00000013000000920400003C0000000600000002
310
000000000000E0FF3F8FC0000000200E7B25C000000000000042C00000000000408F40000000C0117B25C000000000000042C00C000000130000009A0400003C0000000600000002000000000000E0FF3F8FC0000000200E7B25C000000000000042C0000000E0FF3F8FC00000006072FE24C000000040AD0742C00C000000
310
13000000A20400003C00000006000000020000000000000000408F40000000C0117B25C000000000000042C00000000000408F40000000A066A62AC000000000000042C00C00000013000000AA0400003C0000000600000002000000000000E0FF3F8FC00000000063A62AC000000000000042C00000000000408F40000000
310
A066A62AC000000000000042C00C00000013000000B20400003C0000000600000002000000000000E0FF3F8FC00000000063A62AC000000000000042C0000000E0FF3F8FC0000000200E7B25C000000000000042C00C00000013000000BA0400003C00000006000000020000000000000000408F40000000A066A62AC00000
310
0000000042C00000000000408F400000008000892BC0000000A099A440C00C00000013000000C20400003C0000000600000002000000000000E0FF3F8FC0000000E0FC882BC0000000A099A440C00000000000408F400000008000892BC0000000A099A440C00C00000013000000CA0400003C000000060000000200000000
310
0000E0FF3F8FC00000000063A62AC000000000000042C0000000E0FF3F8FC0000000E0FC882BC0000000A099A440C00C00000013000000D20400003C00000006000000020000000000000000408F40000000C0F3B22CC0000000406C8B3FC00000000000408F400000006016682EC0000000400EEB3DC00C00000013000000
310
DA0400003C0000000600000002000000000000E0FF3F8FC0000000C012682EC0000000400EEB3DC00000000000408F400000006016682EC0000000400EEB3DC00C00000013000000E20400003C0000000600000002000000000000E0FF3F8FC0000000C012682EC0000000400EEB3DC0000000E0FF3F8FC000000020F0B22C
310
C0000000406C8B3FC00C00000013000000EA0400003C0000000600000002000000000000E0FF3F8FC000000020F0B22CC0000000406C8B3FC00000000000408F40000000C0F3B22CC0000000406C8B3FC00C00000013000000F20400003C00000006000000020000000000000000408F4000000000B04D30C0000000409672
310
3CC00000000000408F40000000C06DA431C00000004081263BC00C00000013000000FA0400003C0000000600000002000000000000E0FF3F8FC0000000E06BA431C00000004081263BC00000000000408F40000000C06DA431C00000004081263BC00C00000013000000020500003C0000000600000002000000000000E0FF
310
3F8FC0000000E06BA431C00000004081263BC0000000E0FF3F8FC000000020AE4D30C00000004096723CC00C000000130000000A0500003C0000000600000002000000000000E0FF3F8FC000000020AE4D30C00000004096723CC00000000000408F4000000000B04D30C00000004096723CC00C0000001300000012050000
310
3C00000006000000020000000000000000408F40000000E01B2533C000000020E0173AC00000000000408F4000000060A7D734C000000020704239C00C000000130000001A0500003C0000000600000002000000000000E0FF3F8FC000000080A5D734C000000020704239C00000000000408F4000000060A7D734C0000000
310
20704239C00C00000013000000220500003C0000000600000002000000000000E0FF3F8FC000000080A5D734C000000020704239C0000000E0FF3F8FC0000000001A2533C000000020E0173AC00C000000130000002A0500003C0000000600000002000000000000E0FF3F8FC0000000001A2533C000000020E0173AC00000
310
000000408F40000000E01B2533C000000020E0173AC00C00000013000000320500003C00000006000000020000000000000000408F40000000C039ED38C000000020D34437C00000000000408F4000000060718336C000000080557138C00C000000130000003A0500003C0000000600000002000000000000E0FF3F8FC000
310
0000E037ED38C000000020D34437C00000000000408F40000000C039ED38C000000020D34437C00C00000013000000420500003C0000000600000002000000000000E0FF3F8FC0000000E037ED38C000000020D34437C0000000E0FF3F8FC0000000806F8336C000000080557138C00C000000130000004A0500003C000000
310
0600000002000000000000E0FF3F8FC0000000806F8336C000000080557138C00000000000408F4000000060718336C000000080557138C00C00000013000000520500003C00000006000000020000000000000000408F40000000E0DCA83CC000000060BF4134C00000000000408F40000000A0A8F93AC000000040E9D935
310
C00C000000130000005A0500003C0000000600000002000000000000E0FF3F8FC000000000DBA83CC000000060BF4134C00000000000408F40000000E0DCA83CC000000060BF4134C00C00000013000000620500003C0000000600000002000000000000E0FF3F8FC000000000DBA83CC000000060BF4134C0000000E0FF3F
310
8FC0000000C0A6F93AC000000040E9D935C00C000000130000006A0500003C0000000600000002000000000000E0FF3F8FC0000000C0A6F93AC000000040E9D935C00000000000408F40000000A0A8F93AC000000040E9D935C00C00000013000000720500003C00000006000000020000000000000000408F4000000080AF
310
483FC000000020F64830C00000000000408F4000000060B92E3EC0000000C04E4932C00C000000130000007A0500003C0000000600000002000000000000E0FF3F8FC0000000A0AD483FC000000020F64830C00000000000408F4000000080AF483FC000000020F64830C00C00000013000000820500003C00000006000000
310
02000000000000E0FF3F8FC0000000A0AD483FC000000020F64830C0000000E0FF3F8FC000000080B72E3EC0000000C04E4932C00C000000130000008A0500003C0000000600000002000000000000E0FF3F8FC000000080B72E3EC0000000C04E4932C00000000000408F4000000060B92E3EC0000000C04E4932C00C0000
310
0013000000920500003C00000006000000020000000000000000408F4000000000811040C000000080E8E22BC00000000000408F4000000080696540C0000000C00AF824C00C000000130000009A0500003C0000000600000002000000000000E0FF3F8FC0000000A0686540C0000000C00AF824C00000000000408F400000
310
0080696540C0000000C00AF824C00C00000013000000A20500003C0000000600000002000000000000E0FF3F8FC0000000A0686540C0000000C00AF824C0000000E0FF3F8FC000000020801040C0000000A0E8E22BC00C00000013000000AA0500003C0000000600000002000000000000E0FF3F8FC000000020801040C000
310
0000A0E8E22BC00000000000408F4000000000811040C000000080E8E22BC00C00000013000000B20500003C00000006000000020000000000000000408F4000000060DC6E40C0000000206E7B24C00000000000408F4000000080696540C0000000C00AF824C00C00000013000000BA0500003C0000000600000002000000
310
000000E0FF3F8FC000000080DB6E40C0000000206E7B24C00000000000408F4000000060DC6E40C0000000206E7B24C00C00000013000000C20500003C0000000600000002000000000000E0FF3F8FC0000000A0686540C0000000C00AF824C0000000E0FF3F8FC000000080DB6E40C0000000206E7B24C00C000000130000
310
00CA0500003C00000006000000020000000000000000408F4000000020C58640C000000080FB2024C00000000000408F4000000060DC6E40C0000000206E7B24C00C00000013000000D20500003C0000000600000002000000000000E0FF3F8FC000000040C48640C000000080FB2024C00000000000408F4000000020C586
310
40C000000080FB2024C00C00000013000000DA0500003C0000000600000002000000000000E0FF3F8FC000000040C48640C000000080FB2024C0000000E0FF3F8FC000000080DB6E40C0000000206E7B24C00C00000013000000E20500003C00000006000000020000000000000000408F4000000020C58640C000000080FB
310
2024C00000000000408F40000000E0FAA640C0000000C0FFFF23C00C00000013000000EA0500003C0000000600000002000000000000E0FF3F8FC000000000FAA640C0000000C0FFFF23C00000000000408F40000000E0FAA640C0000000C0FFFF23C00C00000013000000F20500003C0000000600000002000000000000E0
310
FF3F8FC000000000FAA640C0000000C0FFFF23C0000000E0FF3F8FC000000040C48640C000000080FB2024C00C00000013000000FA0500003C00000006000000020000000000000000408F40000000E0FAA640C0000000C0FFFF23C00000000000408F400000000000F041C0000000C0FFFF23C00C00000013000000020600
310
003C0000000600000002000000000000E0FF3F8FC000000020FFEF41C0000000C0FFFF23C00000000000408F400000000000F041C0000000C0FFFF23C00C000000130000000A0600003C0000000600000002000000000000E0FF3F8FC000000020FFEF41C0000000C0FFFF23C0000000E0FF3F8FC000000000FAA640C00000
310
00C0FFFF23C00C00000013000000120600003C00000006000000020000000000000000408F40000000A0A21542C000000020A31D21C00000000000408F400000000000F041C0000000C0FFFF23C00C000000130000001A0600003C0000000600000002000000000000E0FF3F8FC0000000C0A11542C000000020A31D21C000
310
00000000408F40000000A0A21542C000000020A31D21C00C00000013000000220600003C0000000600000002000000000000E0FF3F8FC000000020FFEF41C0000000C0FFFF23C0000000E0FF3F8FC0000000C0A11542C000000020A31D21C00C000000130000002A0600003C00000006000000020000000000000000408F40
310
00000040598D42C000000000FC711BC00000000000408F4000000080B94442C00000008049C21EC00C00000013000000320600003C0000000600000002000000000000E0FF3F8FC000000060588D42C000000000FC711BC00000000000408F4000000040598D42C000000000FC711BC00C000000130000003A0600003C0000
310
000600000002000000000000E0FF3F8FC000000060588D42C000000000FC711BC0000000E0FF3F8FC0000000A0B84442C00000008049C21EC00C00000013000000420600003C0000000600000002000000000000E0FF3F8FC0000000A0B84442C00000008049C21EC00000000000408F4000000080B94442C00000008049C2
310
1EC00C000000130000004A0600003C00000006000000020000000000000000408F4000000000625143C000000000B69216C00000000000408F4000000000B7E342C000000080A2CE18C00C00000013000000520600003C0000000600000002000000000000E0FF3F8FC000000020615143C000000000B69216C00000000000
310
408F4000000000625143C000000000B69216C00C000000130000005A0600003C0000000600000002000000000000E0FF3F8FC000000020615143C000000000B69216C0000000E0FF3F8FC000000020B6E342C000000080A2CE18C00C00000013000000620600003C0000000600000002000000000000E0FF3F8FC000000020
310
B6E342C000000080A2CE18C00000000000408F4000000000B7E342C000000080A2CE18C00C000000130000006A0600003C00000006000000020000000000000000408F400000006066C143C000000080E62715C00000000000408F4000000000008044C000000080FFFF13C00C00000013000000720600003C000000060000
310
0002000000000000E0FF3F8FC000000020FF7F44C000000080FFFF13C0000000E0FF3F8FC00000008065C143C0000000C0E62715C00C000000130000007A0600003C0000000600000002000000000000E0FF3F8FC00000008065C143C0000000C0E62715C00000000000408F400000006066C143C000000080E62715C00C00
310
000013000000820600003C00000006000000020000000000000000408F4000000080B94442C00000008049C21EC00000000000408F40000000A0A21542C000000020A31D21C00C000000130000008A0600003C0000000600000002000000000000E0FF3F8FC0000000C0A11542C000000020A31D21C0000000E0FF3F8FC000
310
0000A0B84442C00000008049C21EC00C00000013000000920600003C00000006000000020000000000000000408F4000000000B7E342C000000080A2CE18C00000000000408F4000000040598D42C000000000FC711BC00C000000130000009A0600003C0000000600000002000000000000E0FF3F8FC000000060588D42C0
310
00000000FC711BC0000000E0FF3F8FC000000020B6E342C000000080A2CE18C00C00000013000000A20600003C00000006000000020000000000000000408F400000006066C143C000000080E62715C00000000000408F4000000000625143C000000000B69216C00C00000013000000AA0600003C00000006000000020000
310
00000000E0FF3F8FC000000020615143C000000000B69216C0000000E0FF3F8FC00000008065C143C0000000C0E62715C00C00000013000000B20600003C00000006000000020000000000000000408F40000000A0A8F93AC000000040E9D935C00000000000408F40000000C039ED38C000000020D34437C00C0000001300
310
0000BA0600003C0000000600000002000000000000E0FF3F8FC0000000E037ED38C000000020D34437C0000000E0FF3F8FC0000000C0A6F93AC000000040E9D935C00C00000013000000C20600003C00000006000000020000000000000000408F4000000060B92E3EC0000000C04E4932C00000000000408F40000000E0DC
310
A83CC000000060BF4134C00C00000013000000CA0600003C0000000600000002000000000000E0FF3F8FC000000000DBA83CC000000060BF4134C0000000E0FF3F8FC000000080B72E3EC0000000C04E4932C00C00000013000000D20600003C00000006000000020000000000000000408F4000000000811040C000000080
310
E8E22BC00000000000408F4000000080AF483FC000000020F64830C00C00000013000000DA0600003C0000000600000002000000000000E0FF3F8FC0000000A0AD483FC000000020F64830C0000000E0FF3F8FC000000020801040C0000000A0E8E22BC00C00000013000000E20600003C0000000600000002000000000000
310
0000408F400000008000892BC0000000A099A440C00000000000408F40000000C0F3B22CC0000000406C8B3FC00C00000013000000EA0600003C0000000600000002000000000000E0FF3F8FC0000000E0FC882BC0000000A099A440C0000000E0FF3F8FC000000020F0B22CC0000000406C8B3FC00C00000013000000F206
310
00003C00000006000000020000000000000000408F400000006016682EC0000000400EEB3DC00000000000408F4000000000B04D30C00000004096723CC00C00000013000000FA0600003C0000000600000002000000000000E0FF3F8FC0000000C012682EC0000000400EEB3DC0000000E0FF3F8FC000000020AE4D30C000
310
00004096723CC00C00000013000000020700003C00000006000000020000000000000000408F40000000E01B2533C000000020E0173AC00000000000408F40000000C06DA431C00000004081263BC00C000000130000000A0700003C0000000600000002000000000000E0FF3F8FC0000000E06BA431C00000004081263BC0
310
000000E0FF3F8FC0000000001A2533C000000020E0173AC00C00000013000000120700003C00000006000000020000000000000000408F4000000060718336C000000080557138C00000000000408F4000000060A7D734C000000020704239C00C000000130000001A0700003C0000000600000002000000000000E0FF3F8F
310
C000000080A5D734C000000020704239C0000000E0FF3F8FC0000000806F8336C000000080557138C00C00000013000000220700003C0000000600000002000000000000E0FF3F8FC0000000C097293BC0000000000000C03E000000E0FF3F8FC000000040C48640C000000080FB2024C00C000000130000002A0700003C00
310
00000600000002000000000000E0FF3F8FC00000006031433FC0000000000000C03E000000E0FF3F8FC000000000FAA640C0000000C0FFFF23C00C00000013000000320700003C0000000600000002000000000000E0FF3F8FC00000008065AE41C0000000000000C03E000000E0FF3F8FC00000008065C143C0000000C0E6
310
2715C00C000000130000003A0700003C0000000600000002000000000000E0FF3F8FC000000020615143C000000000B69216C0000000E0FF3F8FC000000080708C41C0000000000072A1BF0C00000013000000420700003C0000000600000002000000000000E0FF3F8FC0000000E0CB6C41C0000000001026C1BF000000E0
310
FF3F8FC000000020B6E342C000000080A2CE18C00C000000130000004A0700003C0000000600000002000000000000E0FF3F8FC000000060588D42C000000000FC711BC0000000E0FF3F8FC0000000E0CBC840C0000000009461EBBF0C00000013000000520700003C0000000600000002000000000000E0FF3F8FC0000000
310
20FFA740C0000000005886EDBF000000E0FF3F8FC0000000A0B84442C00000008049C21EC00C000000130000005A0700003C0000000600000002000000000000E0FF3F8FC0000000C0A11542C000000020A31D21C0000000E0FF3F8FC000000060328740C0000000009461EBBF0C00000013000000620700003C0000000600
310
000002000000000000E0FF3F8FC000000020FFEF41C0000000C0FFFF23C0000000E0FF3F8FC00000008064C63FC0000000001026C1BF0C000000130000006A0700003C0000000600000002000000000000E0FF3F8FC000000000FAA640C0000000C0FFFF23C0000000E0FF3F8FC0000000401B873FC0000000000072A1BF0C
310
00000013000000720700003C0000000600000002000000000000E0FF3F8FC000000080DB6E40C0000000206E7B24C0000000E0FF3F8FC0000000E0CA643AC00000000010B9C9BF0C000000130000007A0700003C0000000600000002000000000000E0FF3F8FC000000020FE9F39C0000000E0FFFF23C0000000E0FF3F8FC0
310
00000020801040C0000000A0E8E22BC00C00000013000000820700003C0000000600000002000000000000E0FF3F8FC0000000A0686540C0000000C00AF824C0000000E0FF3F8FC000000020FE9F39C000000000FEFFF7BF0C000000130000008A0700003C0000000600000002000000000000E0FF3F8FC000000080DB6E40
310
C0000000206E7B24C0000000E0FF3F8FC0000000A0B9D439C000000000FCFFE7BF0C00000013000000920700003C0000000600000002000000000000E0FF3F8FC000000080DBBA15C0000000C0FE9E45C0000000E0FF3F8FC0000000000000FC3E0000000000C043C00C000000130000009A0700003C000000060000000200
310
0000000000E0FF3F8FC000000000C94719C00000008079D744C0000000E0FF3F8FC00000000080DEA1BF00000000DF9E43C00C00000013000000A20700003C0000000600000002000000000000E0FF3F8FC000000040F9BF1EC000000000004044C0000000E0FF3F8FC0000000000093C1BF00000000008043C00C00000013
310
000000AA0700003C0000000600000002000000000000E0FF3F8FC0000000C01BE921C0000000C092B743C0000000E0FF3F8FC0000000009C10ECBF0000000000E042C00C00000013000000B20700003C0000000600000002000000000000E0FF3F8FC00000008026A923C0000000E06F0543C0000000E0FF3F8FC000000000
310
1843EEBF0000000000C042C00C00000013000000BA0700003C0000000600000002000000000000E0FF3F8FC0000000E0A17524C0000000A07B3A42C0000000E0FF3F8FC0000000009C10ECBF0000000000A042C00C00000013000000C20700003C0000000600000002000000000000E0FF3F8FC0000000E0A17524C0000000
310
A07B3A42C0000000E0FF3F8FC0000000000093C1BF00000000000042C00C00000013000000CA0700003C0000000600000002000000000000E0FF3F8FC0000000E0A17524C0000000A07B3A42C0000000E0FF3F8FC00000000080DEA1BF0000000021E141C00C00000013000000D20700003C00000006000000020000000000
310
00E0FF3F8FC0000000E0A17524C0000000A07B3A42C0000000E0FF3F8FC0000000000000FC3E0000000000C041C00C00000013000000DA0700003C0000000600000002000000000000E0FF3F8FC0000000000000FC3E0000000000803FC0000000E0FF3F8FC000000060BB9F24C000000080DD1C42C00C00000013000000E2
310
0700003C0000000600000002000000000000E0FF3F8FC000000060BB9F24C000000080DD1C42C0000000E0FF3F8FC000000000E05CCABF0000000000C03EC00C00000013000000EA0700003C0000000600000002000000000000E0FF3F8FC000000060BB9F24C000000080DD1C42C0000000E0FF3F8FC0000000006499E8BF
310
0000004072333EC00C00000013000000F20700003C0000000600000002000000000000E0FF3F8FC0000000007E99F8BF0000000000003EC0000000E0FF3F8FC000000060BB9F24C000000080DD1C42C00C00000013000000FA0700003C0000000600000002000000000000E0FF3F8FC000000000418109C00000000000003E
310
C0000000E0FF3F8FC00000006072FE24C000000040AD0742C00C00000013000000020800003C0000000600000002000000000000E0FF3F8FC0000000200E7B25C000000000000042C0000000E0FF3F8FC000000000D14A15C0000000407AA03DC00C000000130000000A0800003C0000000600000002000000000000E0FF3F
310
8FC00000000063A62AC000000000000042C0000000E0FF3F8FC00000008002C51CC000000000CF8D3CC00C00000013000000120800003C0000000600000002000000000000E0FF3F8FC0000000E0FC882BC0000000A099A440C0000000E0FF3F8FC000000020A72021C00000002021EA3AC00C000000130000001A0800003C
310
0000000600000002000000000000E0FF3F8FC000000020A72021C00000002021EA3AC0000000E0FF3F8FC000000020F0B22CC0000000406C8B3FC00C00000013000000220800003C0000000600000002000000000000E0FF3F8FC0000000C012682EC0000000400EEB3DC0000000E0FF3F8FC000000020A72021C000000020
310
21EA3AC00C000000130000002A0800003C0000000600000002000000000000E0FF3F8FC0000000A0AD483FC000000020F64830C0000000E0FF3F8FC0000000E0C23039C000000000385429C00C00000013000000320800003C0000000600000002000000000000E0FF3F8FC0000000600DEE37C0000000E0B9212EC0000000
310
E0FF3F8FC000000080B72E3EC0000000C04E4932C00C000000130000003A0800003C0000000600000002000000000000E0FF3F8FC000000000DBA83CC000000060BF4134C0000000E0FF3F8FC0000000600DEE37C0000000E0B9212EC00C00000013000000420800003C0000000600000002000000000000E0FF3F8FC00000
310
0000BBF735C00000000090F730C0000000E0FF3F8FC0000000C0A6F93AC000000040E9D935C00C000000130000004A0800003C0000000600000002000000000000E0FF3F8FC0000000E037ED38C000000020D34437C0000000E0FF3F8FC000000000BBF735C00000000090F730C00C00000013000000520800003C00000006
310
00000002000000000000E0FF3F8FC000000080647F33C0000000E0262E32C0000000E0FF3F8FC0000000806F8336C000000080557138C00C000000130000005A0800003C0000000600000002000000000000E0FF3F8FC0000000E020442EC0000000E0FA2734C0000000E0FF3F8FC0000000001A2533C000000020E0173AC0
310
0C00000013000000620800003C0000000600000002000000000000E0FF3F8FC000000080A5D734C000000020704239C0000000E0FF3F8FC000000080647F33C0000000E0262E32C00C000000130000006A0800003C0000000600000002000000000000E0FF3F8FC0000000201AD226C000000060462137C0000000E0FF3F8F
310
C000000020AE4D30C00000004096723CC00C00000013000000720800003C0000000600000002000000000000E0FF3F8FC0000000E06BA431C00000004081263BC0000000E0FF3F8FC0000000201AD226C000000060462137C00C000000130000007A0800003C00000006000000020000000000000000408F40000000E0FAA6
310
40C0000000C0FFFF23C00000000000408F400000004033433FC0000000000000C03E0C00000013000000820800003C00000006000000020000000000000000408F40000000A099293BC0000000000000C03E0000000000408F4000000020C58640C000000080FB2024C00C000000130000008A0800003C0000000600000002
310
0000000000000000408F400000006066C143C000000080E62715C00000000000408F400000006066AE41C0000000000000C03E0C00000013000000920800003C00000006000000020000000000000000408F4000000000625143C000000000B69216C00000000000408F4000000060718C41C0000000000072A1BF0C000000
310
130000009A0800003C00000006000000020000000000000000408F4000000000B7E342C000000080A2CE18C00000000000408F40000000C0CC6C41C0000000001026C1BF0C00000013000000A20800003C00000006000000020000000000000000408F4000000040598D42C000000000FC711BC00000000000408F40000000
310
C0CCC840C0000000009461EBBF0C00000013000000AA0800003C00000006000000020000000000000000408F4000000080B94442C00000008049C21EC00000000000408F400000000000A840C0000000005886EDBF0C00000013000000B20800003C00000006000000020000000000000000408F40000000A0A21542C00000
310
0020A31D21C00000000000408F4000000040338740C0000000009461EBBF0C00000013000000BA0800003C00000006000000020000000000000000408F400000000000F041C0000000C0FFFF23C00000000000408F400000006066C63FC0000000001026C1BF0C00000013000000C20800003C000000060000000200000000
310
00000000408F40000000E0FAA640C0000000C0FFFF23C00000000000408F40000000201D873FC0000000000072A1BF0C00000013000000CA0800003C00000006000000020000000000000000408F40000000C0CC643AC00000000010B9C9BF0000000000408F4000000060DC6E40C0000000206E7B24C00C00000013000000
310
D20800003C00000006000000020000000000000000408F400000000000A039C000000000FEFFF7BF0000000000408F4000000080696540C0000000C00AF824C00C00000013000000DA0800003C00000006000000020000000000000000408F400000000000A039C0000000E0FFFF23C00000000000408F4000000000811040
310
C000000080E8E22BC00C00000013000000E20800003C00000006000000020000000000000000408F4000000060DC6E40C0000000206E7B24C00000000000408F4000000080BBD439C000000000FCFFE7BF0C00000013000000EA0800003C00000006000000020000000000000000408F4000000000000000000000000000C0
310
43C00000000000408F40000000C0E2BA15C0000000C0FE9E45C00C00000013000000F20800003C00000006000000020000000000000000408F400000000000E2A1BF00000000DF9E43C00000000000408F4000000040D04719C00000008079D744C00C00000013000000FA0800003C00000006000000020000000000000000
310
408F4000000000E093C1BF00000000008043C00000000000408F400000008000C01EC000000000004044C00C00000013000000020900003C00000006000000020000000000000000408F4000000000D810ECBF0000000000E042C00000000000408F40000000601FE921C0000000C092B743C00C000000130000000A090000
310
3C00000006000000020000000000000000408F40000000005043EEBF0000000000C042C00000000000408F40000000202AA923C0000000E06F0543C00C00000013000000120900003C00000006000000020000000000000000408F4000000000D810ECBF0000000000A042C00000000000408F4000000080A57524C0000000
310
A07B3A42C00C000000130000001A0900003C00000006000000020000000000000000408F4000000080A57524C0000000A07B3A42C00000000000408F400000000000E2A1BF0000000021E141C00C00000013000000220900003C00000006000000020000000000000000408F4000000080A57524C0000000A07B3A42C00000
310
000000408F4000000000E093C1BF00000000000042C00C000000130000002A0900003C00000006000000020000000000000000408F4000000080A57524C0000000A07B3A42C00000000000408F4000000000000000000000000000C041C00C00000013000000320900003C00000006000000020000000000000000408F4000
310
000000000000000000000000803FC00000000000408F4000000000BF9F24C000000080DD1C42C00C000000130000003A0900003C00000006000000020000000000000000408F4000000000BF9F24C000000080DD1C42C00000000000408F4000000000C05DCABF0000000000C03EC00C00000013000000420900003C000000
310
06000000020000000000000000408F4000000000BF9F24C000000080DD1C42C00000000000408F4000000000A099E8BF0000004072333EC00C000000130000004A0900003C00000006000000020000000000000000408F4000000000BF9F24C000000080DD1C42C00000000000408F40000000009C99F8BF0000000000003E
310
C00C00000013000000520900003C00000006000000020000000000000000408F4000000000508109C00000000000003EC00000000000408F400000000076FE24C000000040AD0742C00C000000130000005A0900003C00000006000000020000000000000000408F4000000040D84A15C0000000407AA03DC0000000000040
310
8F40000000C0117B25C000000000000042C00C00000013000000620900003C00000006000000020000000000000000408F40000000C009C51CC000000000CF8D3CC00000000000408F40000000A066A62AC000000000000042C00C000000130000006A0900003C00000006000000020000000000000000408F40000000C0AA
310
2021C00000002021EA3AC00000000000408F400000008000892BC0000000A099A440C00C00000013000000720900003C00000006000000020000000000000000408F40000000C0AA2021C00000002021EA3AC00000000000408F40000000C0F3B22CC0000000406C8B3FC00C000000130000007A0900003C00000006000000
310
020000000000000000408F40000000C0AA2021C00000002021EA3AC00000000000408F400000006016682EC0000000400EEB3DC00C00000013000000820900003C00000006000000020000000000000000408F40000000C0C43039C000000000385429C00000000000408F4000000080AF483FC000000020F64830C00C0000
310
00130000008A0900003C00000006000000020000000000000000408F40000000400FEE37C0000000E0B9212EC00000000000408F4000000060B92E3EC0000000C04E4932C00C00000013000000920900003C00000006000000020000000000000000408F40000000400FEE37C0000000E0B9212EC00000000000408F400000
310
00E0DCA83CC000000060BF4134C00C000000130000009A0900003C00000006000000020000000000000000408F40000000E0BCF735C00000000090F730C00000000000408F40000000A0A8F93AC000000040E9D935C00C00000013000000A20900003C00000006000000020000000000000000408F40000000E0BCF735C000
310
00000090F730C00000000000408F40000000C039ED38C000000020D34437C00C00000013000000AA0900003C00000006000000020000000000000000408F4000000060667F33C0000000E0262E32C00000000000408F4000000060718336C000000080557138C00C00000013000000B20900003C0000000600000002000000
310
0000000000408F4000000060667F33C0000000E0262E32C00000000000408F4000000060A7D734C000000020704239C00C00000013000000BA0900003C00000006000000020000000000000000408F400000008024442EC0000000E0FA2734C00000000000408F40000000E01B2533C000000020E0173AC00C000000130000
310
00C20900003C00000006000000020000000000000000408F40000000C01DD226C000000060462137C00000000000408F4000000000B04D30C00000004096723CC00C00000013000000CA0900003C00000006000000020000000000000000408F40000000C01DD226C000000060462137C00000000000408F40000000C06DA4
310
31C00000004081263BC0
100
AcDbSubDMesh
 71
     2
 72
     0
 91
        0
 92
      152
 10
-999.9999389648436
 20
-31.26247215270996
 30
0.0000019073486328
 10
-999.9999389648436
 20
-27.16247177124023
 30
0.0000019073486328
 10
-999.9999389648436
 20
-35.36247253417969
 30
0.0000019073486328
 10
-999.9999389648436
 20
-40.99997329711913
 30
0.0000019073486328
 10
-999.9999389648436
 20
-40.99997329711913
 30
-4.999998092651367
 10
-999.9999389648436
 20
-35.87497329711914
 30
-9.999998092651367
 10
-999.9999389648436
 20
-36.16899871826172
 30
-8.55788516998291
 10
-999.9999389648436
 20
-37.1042594909668
 30
-6.861312866210937
 10
-999.9999389648436
 20
-38.63577651977539
 30
-5.643272399902343
 10
-999.9999389648436
 20
-33.30450439453125
 30
-9.999998092651367
 10
-999.9999389648436
 20
-32.79225540161133
 30
-10.48445701599121
 10
-999.9999389648436
 20
-20.84236907958985
 30
-25.25952339172363
 10
-999.9999389648436
 20
-24.92663383483887
 30
-23.26884651184082
 10
-999.9999389648436
 20
-28.65959167480469
 30
-20.25682640075684
 10
-999.9999389648436
 20
-31.28389930725098
 30
-16.28500556945801
 10
-999.9999389648436
 20
-13.32497406005859
 30
-36.0
 10
-999.9999389648436
 20
-13.76755428314209
 30
-33.28593826293945
 10
-999.9999389648436
 20
-15.20326805114746
 30
-29.91818618774414
 10
-999.9999389648436
 20
-17.64227104187012
 30
-27.15040969848633
 10
-999.9999389648436
 20
-10.74034214019775
 30
-36.0
 10
-999.9999389648436
 20
-10.22975063323974
 30
-36.45689773559571
 10
-999.9999389648436
 20
-7.687474250793457
 30
-40.49999999999999
 10
-999.9999389648436
 20
-8.955289840698242
 30
-39.43416595458984
 10
-999.9999389648436
 20
-9.830371856689453
 30
-38.04247665405274
 10
-999.9999389648436
 20
-5.124974250793457
 30
-45.0
 10
-999.9999389648436
 20
-5.432477951049804
 30
-43.24214935302734
 10
-999.9999389648436
 20
-6.32010269165039
 30
-41.68339538574218
 10
-999.9999389648436
 20
0.0000267028808594
 30
-45.0
 10
-999.9999389648436
 20
0.0000267028808594
 30
-35.5
 10
-999.9999389648436
 20
0.0000267028808594
 30
-31.5
 10
-999.9999389648436
 20
0.0000267028808594
 30
-39.5
 10
-999.9999389648436
 20
-34.84997177124024
 30
-0.1339740753173828
 10
-999.9999389648436
 20
-33.56872177124023
 30
-0.855661392211914
 10
-999.9999389648436
 20
-33.05622482299805
 30
-0.855661392211914
 10
-999.9999389648436
 20
-31.77497100830078
 30
-0.1339740753173828
 10
-999.9999389648436
 20
-25.62497138977051
 30
-1.499998092651367
 10
-999.9999389648436
 20
-25.62497138977051
 30
-9.999999046325683
 10
-999.9999389648436
 20
-19.49762725830078
 30
-18.1802806854248
 10
-999.9999389648436
 20
-25.19047355651856
 30
-12.66448974609375
 10
-999.9999389648436
 20
-23.92989158630371
 30
-15.06587123870849
 10
-999.9999389648436
 20
-21.96769714355469
 30
-16.967041015625
 10
-999.9999389648436
 20
-15.13306331634521
 30
-20.15617179870606
 10
-999.9999389648436
 20
-11.41035556793213
 30
-23.12998008728027
 10
-999.9999389648436
 20
-8.563775062561035
 30
-26.91456794738769
 10
-999.9999389648436
 20
-3.188112258911132
 30
-30.0
 10
-999.9999389648436
 20
-7.192392349243164
 30
-28.55393981933594
 10
-999.9999389648436
 20
-5.323062896728515
 30
-29.62686538696289
 10
-999.9999389648436
 20
-1.537473678588867
 30
-30.0
 10
-999.9999389648436
 20
-0.137298583984375
 30
-36.0
 10
-999.9999389648436
 20
-0.8770275115966796
 30
-37.25
 10
-999.9999389648436
 20
-0.8770275115966796
 30
-37.75
 10
-999.9999389648436
 20
-0.137298583984375
 30
-39.0
 10
-999.9999389648436
 20
-35.09718322753907
 30
-0.0340728759765625
 10
-999.9999389648436
 20
-33.05286407470703
 30
-10.06441879272461
 10
-999.9999389648436
 20
-32.86607360839844
 30
-10.24107456207275
 10
-999.9999389648436
 20
-10.49696636199951
 30
-36.05997467041016
 10
-999.9999389648436
 20
-10.31197643280029
 30
-36.22550964355469
 10
-999.9999389648436
 20
-0.0349006652832031
 30
-39.24118041992187
 10
-999.9999389648436
 20
-0.9456901550292968
 30
-37.5
 10
-999.9999389648436
 20
-0.0349006652832031
 30
-35.75881958007812
 10
-999.9999389648436
 20
-0.2059593200683594
 30
-30.75
 10
-999.9999389648436
 20
-0.7687244415283204
 30
-30.20096206665039
 10
-999.9999389648436
 20
-25.83095741271973
 30
-0.7499980926513672
 10
-999.9999389648436
 20
-26.39372062683106
 30
-0.2009601593017578
 10
-999.9999389648436
 20
-31.52775955200195
 30
-0.0340728759765625
 10
-999.9999389648436
 20
-33.31247329711914
 30
-0.9226493835449218
 10
-999.9999389648436
 20
-36.53688430786133
 30
-7.689733505249023
 10
-999.9999389648436
 20
-37.77899551391602
 30
-6.201791763305664
 10
-999.9999389648436
 20
-39.51091003417969
 30
-5.288966178894042
 10
-999.9999389648436
 20
-26.97520065307617
 30
-21.85121536254883
 10
-999.9999389648436
 20
-30.18248748779297
 30
-18.28635787963867
 10
-999.9999389648436
 20
-32.12891006469727
 30
-13.94318103790283
 10
-999.9999389648436
 20
-22.51342010498047
 30
-24.44271087646484
 10
-999.9999389648436
 20
-14.34948825836181
 30
-31.54462051391602
 10
-999.9999389648436
 20
-16.30343818664551
 30
-28.44760513305664
 10
-999.9999389648436
 20
-19.14492797851562
 30
-26.09326362609863
 10
1000.0
 20
-27.16250038146973
 30
0.0000019073486328
 10
1000.0
 20
-33.05289077758789
 30
-10.06441879272461
 10
1000.0
 20
-33.30453109741211
 30
-9.999998092651367
 10
1000.0
 20
-31.26250076293946
 30
0.0000019073486328
 10
1000.0
 20
-39.51093673706055
 30
-5.288965225219726
 10
1000.0
 20
-41.0
 30
-4.999998092651367
 10
1000.0
 20
-41.0
 30
0.0000019073486328
 10
1000.0
 20
-35.36249923706055
 30
0.0000019073486328
 10
1000.0
 20
-38.63580322265625
 30
-5.643272399902343
 10
1000.0
 20
-35.09720993041992
 30
-0.0340728759765625
 10
1000.0
 20
-37.77902221679688
 30
-6.201791763305664
 10
1000.0
 20
-34.84999847412109
 30
-0.1339740753173828
 10
1000.0
 20
-37.10428619384766
 30
-6.861312866210937
 10
1000.0
 20
-33.5687484741211
 30
-0.855661392211914
 10
1000.0
 20
-36.53691101074219
 30
-7.689733505249023
 10
1000.0
 20
-33.3125
 30
-0.9226493835449218
 10
1000.0
 20
-36.16902542114258
 30
-8.55788516998291
 10
1000.0
 20
-33.05625152587891
 30
-0.855661392211914
 10
1000.0
 20
-35.875
 30
-9.999998092651367
 10
1000.0
 20
-31.77499961853027
 30
-0.1339740753173828
 10
1000.0
 20
-31.52778816223145
 30
-0.0340728759765625
 10
1000.0
 20
-26.39374923706055
 30
-0.2009601593017578
 10
1000.0
 20
-32.8661003112793
 30
-10.24107456207275
 10
1000.0
 20
-25.625
 30
-1.499998092651367
 10
1000.0
 20
-25.625
 30
-9.999999046325683
 10
1000.0
 20
-32.12893676757813
 30
-13.94318008422851
 10
1000.0
 20
-32.79228210449219
 30
-10.48445701599121
 10
1000.0
 20
-25.83098602294922
 30
-0.7499980926513672
 10
1000.0
 20
0.0
 30
-39.5
 10
1000.0
 20
-0.0000019073486328
 30
-45.0
 10
1000.0
 20
-5.125001907348632
 30
-45.0
 10
1000.0
 20
-5.43250560760498
 30
-43.24214935302734
 10
1000.0
 20
-0.0349273681640625
 30
-39.24118041992187
 10
1000.0
 20
-6.320130348205566
 30
-41.68339538574218
 10
1000.0
 20
-0.1373252868652344
 30
-39.0
 10
1000.0
 20
-7.687501907348632
 30
-40.49999999999999
 10
1000.0
 20
-0.8770561218261718
 30
-37.75
 10
1000.0
 20
-8.955317497253417
 30
-39.43416595458984
 10
1000.0
 20
-0.9457168579101562
 30
-37.5
 10
1000.0
 20
-9.830399513244628
 30
-38.04247665405274
 10
1000.0
 20
-0.8770561218261718
 30
-37.25
 10
1000.0
 20
-10.22977828979492
 30
-36.45689773559571
 10
1000.0
 20
-0.0349273681640625
 30
-35.75881958007812
 10
1000.0
 20
-0.1373252868652344
 30
-36.0
 10
1000.0
 20
0.0
 30
-35.5
 10
1000.0
 20
0.0
 30
-31.5
 10
1000.0
 20
-10.31200408935547
 30
-36.22550964355469
 10
1000.0
 20
-0.2059860229492187
 30
-30.75
 10
1000.0
 20
-0.7687530517578125
 30
-30.20096206665039
 10
1000.0
 20
-1.537502288818359
 30
-30.0
 10
1000.0
 20
-3.188140869140625
 30
-30.0
 10
1000.0
 20
-10.49699401855469
 30
-36.05997467041016
 10
1000.0
 20
-5.323090553283691
 30
-29.62686538696289
 10
1000.0
 20
-10.74036979675293
 30
-36.0
 10
1000.0
 20
-7.192420005798339
 30
-28.55393981933594
 10
1000.0
 20
-13.32500171661377
 30
-36.0
 10
1000.0
 20
-8.56380271911621
 30
-26.91456794738769
 10
1000.0
 20
-13.76758193969726
 30
-33.28593826293945
 10
1000.0
 20
-14.34951591491699
 30
-31.54462051391602
 10
1000.0
 20
-15.20329570770264
 30
-29.91818618774414
 10
1000.0
 20
-25.19050216674805
 30
-12.66448974609375
 10
1000.0
 20
-31.28392791748047
 30
-16.28500556945801
 10
1000.0
 20
-23.9299201965332
 30
-15.06587123870849
 10
1000.0
 20
-30.18251609802246
 30
-18.28635787963867
 10
1000.0
 20
-28.65962028503418
 30
-20.25682640075684
 10
1000.0
 20
-21.96772575378418
 30
-16.967041015625
 10
1000.0
 20
-26.97522926330567
 30
-21.85121536254883
 10
1000.0
 20
-24.92666244506836
 30
-23.26884651184082
 10
1000.0
 20
-19.49765586853027
 30
-18.1802806854248
 10
1000.0
 20
-22.51344871520996
 30
-24.44271087646484
 10
1000.0
 20
-15.13309097290039
 30
-20.15617179870606
 10
1000.0
 20
-19.14495658874512
 30
-26.09326362609863
 10
1000.0
 20
-20.84239768981934
 30
-25.25952339172363
 10
1000.0
 20
-11.4103832244873
 30
-23.12998008728027
 10
1000.0
 20
-16.303466796875
 30
-28.44760513305664
 10
1000.0
 20
-17.64229965209961
 30
-27.15040969848633
 93
      792
 90
        4
 90
       81
 90
       82
 90
        3
 90
        4
 90
        4
 90
       82
 90
       83
 90
        2
 90
        3
 90
        4
 90
       83
 90
       85
 90
       52
 90
        2
 90
        4
 90
       85
 90
       87
 90
       31
 90
       52
 90
        4
 90
       87
 90
       89
 90
       32
 90
       31
 90
        4
 90
       89
 90
       91
 90
       65
 90
       32
 90
        4
 90
       91
 90
       93
 90
       33
 90
       65
 90
        4
 90
       93
 90
       95
 90
       34
 90
       33
 90
        4
 90
       95
 90
       96
 90
       64
 90
       34
 90
        4
 90
       96
 90
       79
 90
        0
 90
       64
 90
        4
 90
       79
 90
       76
 90
        1
 90
        0
 90
        4
 90
       76
 90
       97
 90
       63
 90
        1
 90
        4
 90
       97
 90
      103
 90
       62
 90
       63
 90
        4
 90
      103
 90
       99
 90
       35
 90
       62
 90
        4
 90
       99
 90
      100
 90
       36
 90
       35
 90
        4
 90
      100
 90
      136
 90
       38
 90
       36
 90
        4
 90
      136
 90
      138
 90
       39
 90
       38
 90
        4
 90
      138
 90
      141
 90
       40
 90
       39
 90
        4
 90
      141
 90
      144
 90
       37
 90
       40
 90
        4
 90
      144
 90
      146
 90
       41
 90
       37
 90
        4
 90
      146
 90
      149
 90
       42
 90
       41
 90
        4
 90
      149
 90
      132
 90
       43
 90
       42
 90
        4
 90
      132
 90
      130
 90
       45
 90
       43
 90
        4
 90
      130
 90
      128
 90
       46
 90
       45
 90
        4
 90
      128
 90
      126
 90
       44
 90
       46
 90
        4
 90
      126
 90
      125
 90
       47
 90
       44
 90
        4
 90
      125
 90
      124
 90
       61
 90
       47
 90
        4
 90
      124
 90
      123
 90
       60
 90
       61
 90
        4
 90
      123
 90
      121
 90
       29
 90
       60
 90
        4
 90
      121
 90
      120
 90
       28
 90
       29
 90
        4
 90
      120
 90
      118
 90
       59
 90
       28
 90
        4
 90
      118
 90
      119
 90
       48
 90
       59
 90
        4
 90
      119
 90
      116
 90
       49
 90
       48
 90
        4
 90
      116
 90
      114
 90
       58
 90
       49
 90
        4
 90
      114
 90
      112
 90
       50
 90
       58
 90
        4
 90
      112
 90
      110
 90
       51
 90
       50
 90
        4
 90
      110
 90
      108
 90
       57
 90
       51
 90
        4
 90
      108
 90
      104
 90
       30
 90
       57
 90
        4
 90
      104
 90
      105
 90
       27
 90
       30
 90
        4
 90
      105
 90
      106
 90
       24
 90
       27
 90
        4
 90
      106
 90
      107
 90
       25
 90
       24
 90
        4
 90
      107
 90
      109
 90
       26
 90
       25
 90
        4
 90
      109
 90
      111
 90
       21
 90
       26
 90
        4
 90
      111
 90
      113
 90
       22
 90
       21
 90
        4
 90
      113
 90
      115
 90
       23
 90
       22
 90
        4
 90
      115
 90
      117
 90
       20
 90
       23
 90
        4
 90
      117
 90
      122
 90
       56
 90
       20
 90
        4
 90
      122
 90
      127
 90
       55
 90
       56
 90
        4
 90
      127
 90
      129
 90
       19
 90
       55
 90
        4
 90
      129
 90
      131
 90
       15
 90
       19
 90
        4
 90
      131
 90
      133
 90
       16
 90
       15
 90
        4
 90
      134
 90
      135
 90
       17
 90
       73
 90
        4
 90
      150
 90
      151
 90
       18
 90
       74
 90
        4
 90
      147
 90
      148
 90
       11
 90
       75
 90
        4
 90
      145
 90
      143
 90
       12
 90
       72
 90
        4
 90
      142
 90
      140
 90
       13
 90
       69
 90
        4
 90
      139
 90
      137
 90
       14
 90
       70
 90
        4
 90
      101
 90
      102
 90
       10
 90
       71
 90
        4
 90
      102
 90
       98
 90
       54
 90
       10
 90
        4
 90
       98
 90
       77
 90
       53
 90
       54
 90
        4
 90
       77
 90
       78
 90
        9
 90
       53
 90
        4
 90
       78
 90
       94
 90
        5
 90
        9
 90
        4
 90
       94
 90
       92
 90
        6
 90
        5
 90
        4
 90
       90
 90
       88
 90
        7
 90
       66
 90
        4
 90
       86
 90
       84
 90
        8
 90
       67
 90
        4
 90
       80
 90
       81
 90
        4
 90
       68
 90
        4
 90
       92
 90
       90
 90
       66
 90
        6
 90
        4
 90
       88
 90
       86
 90
       67
 90
        7
 90
        4
 90
       84
 90
       80
 90
       68
 90
        8
 90
        4
 90
      143
 90
      142
 90
       69
 90
       12
 90
        4
 90
      140
 90
      139
 90
       70
 90
       13
 90
        4
 90
      137
 90
      101
 90
       71
 90
       14
 90
        4
 90
      133
 90
      134
 90
       73
 90
       16
 90
        4
 90
      135
 90
      150
 90
       74
 90
       17
 90
        4
 90
      151
 90
      147
 90
       75
 90
       18
 90
        4
 90
      148
 90
      145
 90
       72
 90
       11
 90
        4
 90
        1
 90
       53
 90
        9
 90
        0
 90
        4
 90
       68
 90
        4
 90
        3
 90
        2
 90
        4
 90
        8
 90
       68
 90
        2
 90
       52
 90
        4
 90
       67
 90
        8
 90
       52
 90
       31
 90
        4
 90
        7
 90
       67
 90
       31
 90
       32
 90
        4
 90
       66
 90
        7
 90
       32
 90
       65
 90
        4
 90
        6
 90
       66
 90
       65
 90
       33
 90
        4
 90
        5
 90
        6
 90
       33
 90
       34
 90
        4
 90
        9
 90
        5
 90
       34
 90
       64
 90
        3
 90
        9
 90
       64
 90
        0
 90
        4
 90
        1
 90
       63
 90
       54
 90
       53
 90
        4
 90
       35
 90
       36
 90
       71
 90
       10
 90
        3
 90
       63
 90
       62
 90
       54
 90
        4
 90
       62
 90
       35
 90
       10
 90
       54
 90
        4
 90
       30
 90
       27
 90
       24
 90
       25
 90
        4
 90
       57
 90
       30
 90
       25
 90
       26
 90
        4
 90
       51
 90
       57
 90
       26
 90
       21
 90
        4
 90
       50
 90
       51
 90
       21
 90
       22
 90
        4
 90
       58
 90
       50
 90
       22
 90
       23
 90
        4
 90
       49
 90
       58
 90
       23
 90
       20
 90
        3
 90
       59
 90
       48
 90
       20
 90
        3
 90
       48
 90
       49
 90
       20
 90
        3
 90
       28
 90
       59
 90
       20
 90
        4
 90
       29
 90
       28
 90
       20
 90
       56
 90
        3
 90
       60
 90
       29
 90
       56
 90
        3
 90
       61
 90
       60
 90
       56
 90
        3
 90
       47
 90
       61
 90
       56
 90
        4
 90
       44
 90
       47
 90
       56
 90
       55
 90
        4
 90
       46
 90
       44
 90
       55
 90
       19
 90
        4
 90
       45
 90
       46
 90
       19
 90
       15
 90
        4
 90
       43
 90
       45
 90
       15
 90
       16
 90
        3
 90
       43
 90
       16
 90
       73
 90
        3
 90
       43
 90
       73
 90
       17
 90
        4
 90
       36
 90
       38
 90
       14
 90
       71
 90
        4
 90
       38
 90
       39
 90
       70
 90
       14
 90
        3
 90
       39
 90
       13
 90
       70
 90
        4
 90
       39
 90
       40
 90
       69
 90
       13
 90
        3
 90
       40
 90
       12
 90
       69
 90
        4
 90
       40
 90
       37
 90
       72
 90
       12
 90
        4
 90
       37
 90
       41
 90
       75
 90
       11
 90
        3
 90
       37
 90
       11
 90
       72
 90
        4
 90
       42
 90
       43
 90
       17
 90
       74
 90
        3
 90
       42
 90
       74
 90
       18
 90
        4
 90
       41
 90
       42
 90
       18
 90
       75
 90
        4
 90
       76
 90
       79
 90
       78
 90
       77
 90
        4
 90
       80
 90
       83
 90
       82
 90
       81
 90
        4
 90
       84
 90
       85
 90
       83
 90
       80
 90
        4
 90
       86
 90
       87
 90
       85
 90
       84
 90
        4
 90
       88
 90
       89
 90
       87
 90
       86
 90
        4
 90
       90
 90
       91
 90
       89
 90
       88
 90
        4
 90
       92
 90
       93
 90
       91
 90
       90
 90
        4
 90
       94
 90
       95
 90
       93
 90
       92
 90
        4
 90
       78
 90
       96
 90
       95
 90
       94
 90
        3
 90
       78
 90
       79
 90
       96
 90
        4
 90
       76
 90
       77
 90
       98
 90
       97
 90
        4
 90
       99
 90
      102
 90
      101
 90
      100
 90
        3
 90
       97
 90
       98
 90
      103
 90
        4
 90
      103
 90
       98
 90
      102
 90
       99
 90
        4
 90
      104
 90
      107
 90
      106
 90
      105
 90
        4
 90
      108
 90
      109
 90
      107
 90
      104
 90
        4
 90
      110
 90
      111
 90
      109
 90
      108
 90
        4
 90
      112
 90
      113
 90
      111
 90
      110
 90
        4
 90
      114
 90
      115
 90
      113
 90
      112
 90
        4
 90
      116
 90
      117
 90
      115
 90
      114
 90
        3
 90
      118
 90
      117
 90
      119
 90
        3
 90
      119
 90
      117
 90
      116
 90
        3
 90
      120
 90
      117
 90
      118
 90
        4
 90
      121
 90
      122
 90
      117
 90
      120
 90
        3
 90
      123
 90
      122
 90
      121
 90
        3
 90
      124
 90
      122
 90
      123
 90
        3
 90
      125
 90
      122
 90
      124
 90
        4
 90
      126
 90
      127
 90
      122
 90
      125
 90
        4
 90
      128
 90
      129
 90
      127
 90
      126
 90
        4
 90
      130
 90
      131
 90
      129
 90
      128
 90
        4
 90
      132
 90
      133
 90
      131
 90
      130
 90
        3
 90
      132
 90
      134
 90
      133
 90
        3
 90
      132
 90
      135
 90
      134
 90
        4
 90
      100
 90
      101
 90
      137
 90
      136
 90
        4
 90
      136
 90
      137
 90
      139
 90
      138
 90
        3
 90
      138
 90
      139
 90
      140
 90
        4
 90
      138
 90
      140
 90
      142
 90
      141
 90
        3
 90
      141
 90
      142
 90
      143
 90
        4
 90
      141
 90
      143
 90
      145
 90
      144
 90
        4
 90
      144
 90
      148
 90
      147
 90
      146
 90
        3
 90
      144
 90
      145
 90
      148
 90
        4
 90
      149
 90
      150
 90
      135
 90
      132
 90
        3
 90
      149
 90
      151
 90
      150
 90
        4
 90
      146
 90
      147
 90
      151
 90
      149
 94
      314
 90
       81
 90
       82
 90
        3
 90
       82
 90
        3
 90
        4
 90
        4
 90
       81
 90
       82
 90
       83
 90
        2
 90
       83
 90
        2
 90
        3
 90
       83
 90
       85
 90
       52
 90
       85
 90
        2
 90
       52
 90
       85
 90
       87
 90
       31
 90
       87
 90
       31
 90
       52
 90
       87
 90
       89
 90
       32
 90
       89
 90
       31
 90
       32
 90
       89
 90
       91
 90
       65
 90
       91
 90
       32
 90
       65
 90
       91
 90
       93
 90
       33
 90
       93
 90
       33
 90
       65
 90
       93
 90
       95
 90
       34
 90
       95
 90
       33
 90
       34
 90
       95
 90
       96
 90
       64
 90
       96
 90
       34
 90
       64
 90
       79
 90
       96
 90
        0
 90
       79
 90
        0
 90
       64
 90
       76
 90
       79
 90
        1
 90
       76
 90
        0
 90
        1
 90
       76
 90
       97
 90
       63
 90
       97
 90
        1
 90
       63
 90
       97
 90
      103
 90
       62
 90
      103
 90
       62
 90
       63
 90
       99
 90
      103
 90
       35
 90
       99
 90
       35
 90
       62
 90
       99
 90
      100
 90
       36
 90
      100
 90
       35
 90
       36
 90
      100
 90
      136
 90
       38
 90
      136
 90
       36
 90
       38
 90
      136
 90
      138
 90
       39
 90
      138
 90
       38
 90
       39
 90
      138
 90
      141
 90
       40
 90
      141
 90
       39
 90
       40
 90
      141
 90
      144
 90
       37
 90
      144
 90
       37
 90
       40
 90
      144
 90
      146
 90
       41
 90
      146
 90
       37
 90
       41
 90
      146
 90
      149
 90
       42
 90
      149
 90
       41
 90
       42
 90
      132
 90
      149
 90
       43
 90
      132
 90
       42
 90
       43
 90
      130
 90
      132
 90
       45
 90
      130
 90
       43
 90
       45
 90
      128
 90
      130
 90
       46
 90
      128
 90
       45
 90
       46
 90
      126
 90
      128
 90
       44
 90
      126
 90
       44
 90
       46
 90
      125
 90
      126
 90
       47
 90
      125
 90
       44
 90
       47
 90
      124
 90
      125
 90
       61
 90
      124
 90
       47
 90
       61
 90
      123
 90
      124
 90
       60
 90
      123
 90
       60
 90
       61
 90
      121
 90
      123
 90
       29
 90
      121
 90
       29
 90
       60
 90
      120
 90
      121
 90
       28
 90
      120
 90
       28
 90
       29
 90
      118
 90
      120
 90
       59
 90
      118
 90
       28
 90
       59
 90
      118
 90
      119
 90
       48
 90
      119
 90
       48
 90
       59
 90
      116
 90
      119
 90
       49
 90
      116
 90
       48
 90
       49
 90
      114
 90
      116
 90
       58
 90
      114
 90
       49
 90
       58
 90
      112
 90
      114
 90
       50
 90
      112
 90
       50
 90
       58
 90
      110
 90
      112
 90
       51
 90
      110
 90
       50
 90
       51
 90
      108
 90
      110
 90
       57
 90
      108
 90
       51
 90
       57
 90
      104
 90
      108
 90
       30
 90
      104
 90
       30
 90
       57
 90
      104
 90
      105
 90
       27
 90
      105
 90
       27
 90
       30
 90
      105
 90
      106
 90
       24
 90
      106
 90
       24
 90
       27
 90
      106
 90
      107
 90
       25
 90
      107
 90
       24
 90
       25
 90
      107
 90
      109
 90
       26
 90
      109
 90
       25
 90
       26
 90
      109
 90
      111
 90
       21
 90
      111
 90
       21
 90
       26
 90
      111
 90
      113
 90
       22
 90
      113
 90
       21
 90
       22
 90
      113
 90
      115
 90
       23
 90
      115
 90
       22
 90
       23
 90
      115
 90
      117
 90
       20
 90
      117
 90
       20
 90
       23
 90
      117
 90
      122
 90
       56
 90
      122
 90
       20
 90
       56
 90
      122
 90
      127
 90
       55
 90
      127
 90
       55
 90
       56
 90
      127
 90
      129
 90
       19
 90
      129
 90
       19
 90
       55
 90
      129
 90
      131
 90
       15
 90
      131
 90
       15
 90
       19
 90
      131
 90
      133
 90
       16
 90
      133
 90
       15
 90
       16
 90
      134
 90
      135
 90
       17
 90
      135
 90
       17
 90
       73
 90
       73
 90
      134
 90
      150
 90
      151
 90
       18
 90
      151
 90
       18
 90
       74
 90
       74
 90
      150
 90
      147
 90
      148
 90
       11
 90
      148
 90
       11
 90
       75
 90
       75
 90
      147
 90
      143
 90
      145
 90
       12
 90
      143
 90
       12
 90
       72
 90
       72
 90
      145
 90
      140
 90
      142
 90
       13
 90
      140
 90
       13
 90
       69
 90
       69
 90
      142
 90
      137
 90
      139
 90
       14
 90
      137
 90
       14
 90
       70
 90
       70
 90
      139
 90
      101
 90
      102
 90
       10
 90
      102
 90
       10
 90
       71
 90
       71
 90
      101
 90
       98
 90
      102
 90
       54
 90
       98
 90
       10
 90
       54
 90
       77
 90
       98
 90
       53
 90
       77
 90
       53
 90
       54
 90
       77
 90
       78
 90
        9
 90
       78
 90
        9
 90
       53
 90
       78
 90
       94
 90
        5
 90
       94
 90
        5
 90
        9
 90
       92
 90
       94
 90
        6
 90
       92
 90
        5
 90
        6
 90
       88
 90
       90
 90
        7
 90
       88
 90
        7
 90
       66
 90
       66
 90
       90
 90
       84
 90
       86
 90
        8
 90
       84
 90
        8
 90
       67
 90
       67
 90
       86
 90
       80
 90
       81
 90
        4
 90
       68
 90
       68
 90
       80
 90
       90
 90
       92
 90
        6
 90
       66
 90
       86
 90
       88
 90
        7
 90
       67
 90
       80
 90
       84
 90
        8
 90
       68
 90
      142
 90
      143
 90
       12
 90
       69
 90
      139
 90
      140
 90
       13
 90
       70
 90
      101
 90
      137
 90
       14
 90
       71
 90
      133
 90
      134
 90
       16
 90
       73
 90
      135
 90
      150
 90
       17
 90
       74
 90
      147
 90
      151
 90
       18
 90
       75
 90
      145
 90
      148
 90
       11
 90
       72
 90
        1
 90
       53
 90
        0
 90
        9
 90
        2
 90
       68
 90
        8
 90
       52
 90
       31
 90
       67
 90
        7
 90
       32
 90
       65
 90
       66
 90
        6
 90
       33
 90
        5
 90
       34
 90
        9
 90
       64
 90
       54
 90
       63
 90
       36
 90
       71
 90
       10
 90
       35
 90
       54
 90
       62
 90
       25
 90
       30
 90
       26
 90
       57
 90
       21
 90
       51
 90
       22
 90
       50
 90
       23
 90
       58
 90
       20
 90
       49
 90
       20
 90
       48
 90
       20
 90
       59
 90
       20
 90
       28
 90
       29
 90
       56
 90
       56
 90
       60
 90
       56
 90
       61
 90
       47
 90
       56
 90
       44
 90
       55
 90
       19
 90
       46
 90
       15
 90
       45
 90
       16
 90
       43
 90
       43
 90
       73
 90
       17
 90
       43
 90
       14
 90
       38
 90
       39
 90
       70
 90
       13
 90
       39
 90
       40
 90
       69
 90
       12
 90
       40
 90
       37
 90
       72
 90
       41
 90
       75
 90
       11
 90
       37
 90
       42
 90
       74
 90
       18
 90
       42
 90
       78
 90
       79
 90
       76
 90
       77
 90
       80
 90
       83
 90
       84
 90
       85
 90
       86
 90
       87
 90
       88
 90
       89
 90
       90
 90
       91
 90
       92
 90
       93
 90
       94
 90
       95
 90
       78
 90
       96
 90
       97
 90
       98
 90
       99
 90
      102
 90
      100
 90
      101
 90
       98
 90
      103
 90
      104
 90
      107
 90
      108
 90
      109
 90
      110
 90
      111
 90
      112
 90
      113
 90
      114
 90
      115
 90
      116
 90
      117
 90
      117
 90
      118
 90
      117
 90
      119
 90
      117
 90
      120
 90
      121
 90
      122
 90
      122
 90
      123
 90
      122
 90
      124
 90
      122
 90
      125
 90
      126
 90
      127
 90
      128
 90
      129
 90
      130
 90
      131
 90
      132
 90
      133
 90
      132
 90
      134
 90
      132
 90
      135
 90
      136
 90
      137
 90
      138
 90
      139
 90
      138
 90
      140
 90
      141
 90
      142
 90
      141
 90
      143
 90
      144
 90
      145
 90
      144
 90
      148
 90
      146
 90
      147
 90
      149
 90
      150
 90
      149
 90
      151
 95
      314
140
0.0
140
0.0
140
0.0
140
0.0
140
0.0
140
0.0
140
0.0
140
0.0
140
0.0
140
0.0
140
0.0
140
0.0
140
0.0
140
0.0
140
0.0
140
0.0
140
0.0
140
0.0
140
0.0
140
0.0
140
0.0
140
0.0
140
0.0
140
0.0
140
0.0
140
0.0
140
0.0
140
0.0
140
0.0
140
0.0
140
0.0
140
0.0
140
0.0
140
0.0
140
0.0
140
0.0
140
0.0
140
0.0
140
0.0
140
0.0
140
0.0
140
0.0
140
0.0
140
0.0
140
0.0
140
0.0
140
0.0
140
0.0
140
0.0
140
0.0
140
0.0
140
0.0
140
0.0
140
0.0
140
0.0
140
0.0
140
0.0
140
0.0
140
0.0
140
0.0
140
0.0
140
0.0
140
0.0
140
0.0
140
0.0
140
0.0
140
0.0
140
0.0
140
0.0
140
0.0
140
0.0
140
0.0
140
0.0
140
0.0
140
0.0
140
0.0
140
0.0
140
0.0
140
0.0
140
0.0
140
0.0
140
0.0
140
0.0
140
0.0
140
0.0
140
0.0
140
0.0
140
0.0
140
0.0
140
0.0
140
0.0
140
0.0
140
0.0
140
0.0
140
0.0
140
0.0
140
0.0
140
0.0
140
0.0
140
0.0
140
0.0
140
0.0
140
0.0
140
0.0
140
0.0
140
0.0
140
0.0
140
0.0
140
0.0
140
0.0
140
0.0
140
0.0
140
0.0
140
0.0
140
0.0
140
0.0
140
0.0
140
0.0
140
0.0
140
0.0
140
0.0
140
0.0
140
0.0
140
0.0
140
0.0
140
0.0
140
0.0
140
0.0
140
0.0
140
0.0
140
0.0
140
0.0
140
0.0
140
0.0
140
0.0
140
0.0
140
0.0
140
0.0
140
0.0
140
0.0
140
0.0
140
0.0
140
0.0
140
0.0
140
0.0
140
0.0
140
0.0
140
0.0
140
0.0
140
0.0
140
0.0
140
0.0
140
0.0
140
0.0
140
0.0
140
0.0
140
0.0
140
0.0
140
0.0
140
0.0
140
0.0
140
0.0
140
0.0
140
0.0
140
0.0
140
0.0
140
0.0
140
0.0
140
0.0
140
0.0
140
0.0
140
0.0
140
0.0
140
0.0
140
0.0
140
0.0
140
0.0
140
0.0
140
0.0
140
0.0
140
0.0
140
0.0
140
0.0
140
0.0
140
0.0
140
0.0
140
0.0
140
0.0
140
0.0
140
0.0
140
0.0
140
0.0
140
0.0
140
0.0
140
0.0
140
0.0
140
0.0
140
0.0
140
0.0
140
0.0
140
0.0
140
0.0
140
0.0
140
0.0
140
0.0
140
0.0
140
0.0
140
0.0
140
0.0
140
0.0
140
0.0
140
0.0
140
0.0
140
0.0
140
0.0
140
0.0
140
0.0
140
0.0
140
0.0
140
0.0
140
0.0
140
0.0
140
0.0
140
0.0
140
0.0
140
0.0
140
0.0
140
0.0
140
0.0
140
0.0
140
0.0
140
0.0
140
0.0
140
0.0
140
0.0
140
0.0
140
0.0
140
0.0
140
0.0
140
0.0
140
0.0
140
0.0
140
0.0
140
0.0
140
0.0
140
0.0
140
0.0
140
0.0
140
0.0
140
0.0
140
0.0
140
0.0
140
0.0
140
0.0
140
0.0
140
0.0
140
0.0
140
0.0
140
0.0
140
0.0
140
0.0
140
0.0
140
0.0
140
0.0
140
0.0
140
0.0
140
0.0
140
0.0
140
0.0
140
0.0
140
0.0
140
0.0
140
0.0
140
0.0
140
0.0
140
0.0
140
0.0
140
0.0
140
0.0
140
0.0
140
0.0
140
0.0
140
0.0
140
0.0
140
0.0
140
0.0
140
0.0
140
0.0
140
0.0
140
0.0
140
0.0
140
0.0
140
0.0
140
0.0
140
0.0
140
0.0
140
0.0
140
0.0
140
0.0
140
0.0
140
0.0
140
0.0
140
0.0
140
0.0
140
0.0
140
0.0
140
0.0
140
0.0
140
0.0
140
0.0
140
0.0
140
0.0
140
0.0
140
0.0
 90
        0
  0
POLYLINE
  5
FA
330
1F
100
AcDbEntity
  8
OracDecor_cornice_mouldings
 62
   151
420
 10140133
100
AcDb3dPolyline
 66
     1
 10
0.0
 20
0.0
 30
0.0
 70
     9
  0
VERTEX
  5
FB
330
FA
100
AcDbEntity
  8
OracDecor_cornice_mouldings
 62
   151
420
 10140133
100
AcDbVertex
100
AcDb3dPolylineVertex
 10
-0.0000032040652513
 20
27.1624755859375
 30
0.0000042819669943
 70
    32
  0
VERTEX
  5
FC
330
FA
100
AcDbEntity
  8
OracDecor_cornice_mouldings
 62
   151
420
 10140133
100
AcDbVertex
100
AcDb3dPolylineVertex
 10
-0.0000025360905056
 20
31.26247596740723
 30
0.0000046404006753
 70
    32
  0
VERTEX
  5
FD
330
FA
100
AcDbEntity
  8
OracDecor_cornice_mouldings
 62
   151
420
 10140133
100
AcDbVertex
100
AcDb3dPolylineVertex
 10
-0.0000024913806556
 20
31.52776336669922
 30
-0.0340701192617417
 70
    32
  0
VERTEX
  5
FE
330
FA
100
AcDbEntity
  8
OracDecor_cornice_mouldings
 62
   151
420
 10140133
100
AcDbVertex
100
AcDb3dPolylineVertex
 10
-0.0000024467376534
 20
31.77497482299805
 30
-0.1339712888002396
 70
    32
  0
VERTEX
  5
FF
330
FA
100
AcDbEntity
  8
OracDecor_cornice_mouldings
 62
   151
420
 10140133
100
AcDbVertex
100
AcDb3dPolylineVertex
 10
-0.0000022064491532
 20
33.05622863769531
 30
-0.8556585311889648
 70
    32
  0
VERTEX
  5
100
330
FA
100
AcDbEntity
  8
OracDecor_cornice_mouldings
 62
   151
420
 10140133
100
AcDbVertex
100
AcDb3dPolylineVertex
 10
-0.0000021617729544
 20
33.31247711181641
 30
-0.9226465225219726
 70
    32
  0
VERTEX
  5
101
330
FA
100
AcDbEntity
  8
OracDecor_cornice_mouldings
 62
   151
420
 10140133
100
AcDbVertex
100
AcDb3dPolylineVertex
 10
-0.0000021229525373
 20
33.5687255859375
 30
-0.85565847158432
 70
    32
  0
VERTEX
  5
102
330
FA
100
AcDbEntity
  8
OracDecor_cornice_mouldings
 62
   151
420
 10140133
100
AcDbVertex
100
AcDb3dPolylineVertex
 10
-0.0000019457565941
 20
34.8499755859375
 30
-0.1339710205793381
 70
    32
  0
VERTEX
  5
103
330
FA
100
AcDbEntity
  8
OracDecor_cornice_mouldings
 62
   151
420
 10140133
100
AcDbVertex
100
AcDb3dPolylineVertex
 10
-0.0000019098474695
 20
35.09718704223633
 30
-0.0340698063373566
 70
    32
  0
VERTEX
  5
104
330
FA
100
AcDbEntity
  8
OracDecor_cornice_mouldings
 62
   151
420
 10140133
100
AcDbVertex
100
AcDb3dPolylineVertex
 10
-0.0000018681157599
 20
35.36247634887696
 30
0.0000049988343562
 70
    32
  0
VERTEX
  5
105
330
FA
100
AcDbEntity
  8
OracDecor_cornice_mouldings
 62
   151
420
 10140133
100
AcDbVertex
100
AcDb3dPolylineVertex
 10
-0.0000009496507118
 20
40.9999771118164
 30
0.0000054916804402
 70
    32
  0
VERTEX
  5
106
330
FA
100
AcDbEntity
  8
OracDecor_cornice_mouldings
 62
   151
420
 10140133
100
AcDbVertex
100
AcDb3dPolylineVertex
 10
-0.000000731093678
 20
40.9999771118164
 30
-4.999994277954101
 70
    32
  0
VERTEX
  5
107
330
FA
100
AcDbEntity
  8
OracDecor_cornice_mouldings
 62
   151
420
 10140133
100
AcDbVertex
100
AcDb3dPolylineVertex
 10
-0.0000009610612324
 20
39.51091384887695
 30
-5.288962364196777
 70
    32
  0
VERTEX
  5
108
330
FA
100
AcDbEntity
  8
OracDecor_cornice_mouldings
 62
   151
420
 10140133
100
AcDbVertex
100
AcDb3dPolylineVertex
 10
-0.0000010881517483
 20
38.63578033447266
 30
-5.643269062042236
 70
    32
  0
VERTEX
  5
109
330
FA
100
AcDbEntity
  8
OracDecor_cornice_mouldings
 62
   151
420
 10140133
100
AcDbVertex
100
AcDb3dPolylineVertex
 10
-0.0000012033251551
 20
37.77899932861328
 30
-6.201788425445556
 70
    32
  0
VERTEX
  5
10A
330
FA
100
AcDbEntity
  8
OracDecor_cornice_mouldings
 62
   151
420
 10140133
100
AcDbVertex
100
AcDb3dPolylineVertex
 10
-0.0000012844252524
 20
37.10426330566406
 30
-6.861309051513671
 70
    32
  0
VERTEX
  5
10B
330
FA
100
AcDbEntity
  8
OracDecor_cornice_mouldings
 62
   151
420
 10140133
100
AcDbVertex
100
AcDb3dPolylineVertex
 10
-0.0000013406511243
 20
36.5368881225586
 30
-7.689729690551757
 70
    32
  0
VERTEX
  5
10C
330
FA
100
AcDbEntity
  8
OracDecor_cornice_mouldings
 62
   151
420
 10140133
100
AcDbVertex
100
AcDb3dPolylineVertex
 10
-0.0000013626390682
 20
36.16900253295899
 30
-8.55788230895996
 70
    32
  0
VERTEX
  5
10D
330
FA
100
AcDbEntity
  8
OracDecor_cornice_mouldings
 62
   151
420
 10140133
100
AcDbVertex
100
AcDb3dPolylineVertex
 10
-0.0000013475050764
 20
35.87497711181641
 30
-9.999995231628417
 70
    32
  0
VERTEX
  5
10E
330
FA
100
AcDbEntity
  8
OracDecor_cornice_mouldings
 62
   151
420
 10140133
100
AcDbVertex
100
AcDb3dPolylineVertex
 10
-0.0000017662878236
 20
33.30450820922852
 30
-9.999995231628417
 70
    32
  0
VERTEX
  5
10F
330
FA
100
AcDbEntity
  8
OracDecor_cornice_mouldings
 62
   151
420
 10140133
100
AcDbVertex
100
AcDb3dPolylineVertex
 10
-0.0000018044693206
 20
33.0528678894043
 30
-10.06441593170166
 70
    32
  0
VERTEX
  5
110
330
FA
100
AcDbEntity
  8
OracDecor_cornice_mouldings
 62
   151
420
 10140133
100
AcDbVertex
100
AcDb3dPolylineVertex
 10
-0.0000018271794033
 20
32.8660774230957
 30
-10.2410717010498
 70
    32
  0
VERTEX
  5
111
330
FA
100
AcDbEntity
  8
OracDecor_cornice_mouldings
 62
   151
420
 10140133
100
AcDbVertex
100
AcDb3dPolylineVertex
 10
-0.0000018285672923
 20
32.79225921630859
 30
-10.48445415496826
 70
    32
  0
VERTEX
  5
112
330
FA
100
AcDbEntity
  8
OracDecor_cornice_mouldings
 62
   151
420
 10140133
100
AcDbVertex
100
AcDb3dPolylineVertex
 10
-0.0000017854540602
 20
32.12891387939453
 30
-13.94317817687988
 70
    32
  0
VERTEX
  5
113
330
FA
100
AcDbEntity
  8
OracDecor_cornice_mouldings
 62
   151
420
 10140133
100
AcDbVertex
100
AcDb3dPolylineVertex
 10
-0.0000018207592802
 20
31.28390502929688
 30
-16.28500366210937
 70
    32
  0
VERTEX
  5
114
330
FA
100
AcDbEntity
  8
OracDecor_cornice_mouldings
 62
   151
420
 10140133
100
AcDbVertex
100
AcDb3dPolylineVertex
 10
-0.0000019127201085
 20
30.18249320983887
 30
-18.28635597229004
 70
    32
  0
VERTEX
  5
115
330
FA
100
AcDbEntity
  8
OracDecor_cornice_mouldings
 62
   151
420
 10140133
100
AcDbVertex
100
AcDb3dPolylineVertex
 10
-0.0000020746992959
 20
28.65959739685059
 30
-20.2568244934082
 70
    32
  0
VERTEX
  5
116
330
FA
100
AcDbEntity
  8
OracDecor_cornice_mouldings
 62
   151
420
 10140133
100
AcDbVertex
100
AcDb3dPolylineVertex
 10
-0.000002279428827
 20
26.97520637512207
 30
-21.8512134552002
 70
    32
  0
VERTEX
  5
117
330
FA
100
AcDbEntity
  8
OracDecor_cornice_mouldings
 62
   151
420
 10140133
100
AcDbVertex
100
AcDb3dPolylineVertex
 10
0.0000012634814084
 20
24.92663955688477
 30
-23.26884460449219
 70
    32
  0
VERTEX
  5
118
330
FA
100
AcDbEntity
  8
OracDecor_cornice_mouldings
 62
   151
420
 10140133
100
AcDbVertex
100
AcDb3dPolylineVertex
 10
0.0000009216300896
 20
22.51342582702637
 30
-24.44270896911621
 70
    32
  0
VERTEX
  5
119
330
FA
100
AcDbEntity
  8
OracDecor_cornice_mouldings
 62
   151
420
 10140133
100
AcDbVertex
100
AcDb3dPolylineVertex
 10
0.0000006850855243
 20
20.84237480163574
 30
-25.259521484375
 70
    32
  0
VERTEX
  5
11A
330
FA
100
AcDbEntity
  8
OracDecor_cornice_mouldings
 62
   151
420
 10140133
100
AcDbVertex
100
AcDb3dPolylineVertex
 10
0.0000004449811968
 20
19.14493370056152
 30
-26.09326171875
 70
    32
  0
VERTEX
  5
11B
330
FA
100
AcDbEntity
  8
OracDecor_cornice_mouldings
 62
   151
420
 10140133
100
AcDbVertex
100
AcDb3dPolylineVertex
 10
0.0000002463766577
 20
17.64227676391601
 30
-27.1504077911377
 70
    32
  0
VERTEX
  5
11C
330
FA
100
AcDbEntity
  8
OracDecor_cornice_mouldings
 62
   151
420
 10140133
100
AcDbVertex
100
AcDb3dPolylineVertex
 10
0.0000000849549906
 20
16.3034439086914
 30
-28.44760322570801
 70
    32
  0
VERTEX
  5
11D
330
FA
100
AcDbEntity
  8
OracDecor_cornice_mouldings
 62
   151
420
 10140133
100
AcDbVertex
100
AcDb3dPolylineVertex
 10
-0.0000000300040028
 20
15.20327377319336
 30
-29.91818428039551
 70
    32
  0
VERTEX
  5
11E
330
FA
100
AcDbEntity
  8
OracDecor_cornice_mouldings
 62
   151
420
 10140133
100
AcDbVertex
100
AcDb3dPolylineVertex
 10
-0.0000000980089681
 20
14.34949398040771
 30
-31.54462051391602
 70
    32
  0
VERTEX
  5
11F
330
FA
100
AcDbEntity
  8
OracDecor_cornice_mouldings
 62
   151
420
 10140133
100
AcDbVertex
100
AcDb3dPolylineVertex
 10
-0.0000001167024948
 20
13.76756000518799
 30
-33.28593444824219
 70
    32
  0
VERTEX
  5
120
330
FA
100
AcDbEntity
  8
OracDecor_cornice_mouldings
 62
   151
420
 10140133
100
AcDbVertex
100
AcDb3dPolylineVertex
 10
-0.0000000701727458
 20
13.32497978210449
 30
-35.99999618530274
 70
    32
  0
VERTEX
  5
121
330
FA
100
AcDbEntity
  8
OracDecor_cornice_mouldings
 62
   151
420
 10140133
100
AcDbVertex
100
AcDb3dPolylineVertex
 10
-0.0000004912626537
 20
10.74034786224365
 30
-35.99999618530274
 70
    32
  0
VERTEX
  5
122
330
FA
100
AcDbEntity
  8
OracDecor_cornice_mouldings
 62
   151
420
 10140133
100
AcDbVertex
100
AcDb3dPolylineVertex
 10
-0.000000528291821
 20
10.49697208404541
 30
-36.05997085571289
 70
    32
  0
VERTEX
  5
123
330
FA
100
AcDbEntity
  8
OracDecor_cornice_mouldings
 62
   151
420
 10140133
100
AcDbVertex
100
AcDb3dPolylineVertex
 10
-0.0000005511949439
 20
10.31198215484619
 30
-36.22550582885742
 70
    32
  0
VERTEX
  5
124
330
FA
100
AcDbEntity
  8
OracDecor_cornice_mouldings
 62
   151
420
 10140133
100
AcDbVertex
100
AcDb3dPolylineVertex
 10
-0.0000005544768555
 20
10.22975635528564
 30
-36.45689392089844
 70
    32
  0
VERTEX
  5
125
330
FA
100
AcDbEntity
  8
OracDecor_cornice_mouldings
 62
   151
420
 10140133
100
AcDbVertex
100
AcDb3dPolylineVertex
 10
-0.0000005502361091
 20
9.830377578735351
 30
-38.04247283935547
 70
    32
  0
VERTEX
  5
126
330
FA
100
AcDbEntity
  8
OracDecor_cornice_mouldings
 62
   151
420
 10140133
100
AcDbVertex
100
AcDb3dPolylineVertex
 10
-0.000000631972398
 20
8.955296516418457
 30
-39.43416213989258
 70
    32
  0
VERTEX
  5
127
330
FA
100
AcDbEntity
  8
OracDecor_cornice_mouldings
 62
   151
420
 10140133
100
AcDbVertex
100
AcDb3dPolylineVertex
 10
-0.0000007919365999
 20
7.687480449676513
 30
-40.49999618530273
 70
    32
  0
VERTEX
  5
128
330
FA
100
AcDbEntity
  8
OracDecor_cornice_mouldings
 62
   151
420
 10140133
100
AcDbVertex
100
AcDb3dPolylineVertex
 10
-0.0000009629816304
 20
6.320109367370605
 30
-41.68339157104492
 70
    32
  0
VERTEX
  5
129
330
FA
100
AcDbEntity
  8
OracDecor_cornice_mouldings
 62
   151
420
 10140133
100
AcDbVertex
100
AcDb3dPolylineVertex
 10
-0.0000010394589935
 20
5.432484626770019
 30
-43.24214553833008
 70
    32
  0
VERTEX
  5
12A
330
FA
100
AcDbEntity
  8
OracDecor_cornice_mouldings
 62
   151
420
 10140133
100
AcDbVertex
100
AcDb3dPolylineVertex
 10
-0.0000048274168876
 20
5.124980926513671
 30
-44.99999618530273
 70
    32
  0
VERTEX
  5
12B
330
FA
100
AcDbEntity
  8
OracDecor_cornice_mouldings
 62
   151
420
 10140133
100
AcDbVertex
100
AcDb3dPolylineVertex
 10
-0.0000056623853197
 20
-0.0000196018972929
 30
-45.0
 70
    32
  0
VERTEX
  5
12C
330
FA
100
AcDbEntity
  8
OracDecor_cornice_mouldings
 62
   151
420
 10140133
100
AcDbVertex
100
AcDb3dPolylineVertex
 10
-0.0000020881007003
 20
-0.0000200827234949
 30
-39.5
 70
    32
  0
VERTEX
  5
12D
330
FA
100
AcDbEntity
  8
OracDecor_cornice_mouldings
 62
   151
420
 10140133
100
AcDbVertex
100
AcDb3dPolylineVertex
 10
-0.0000020937236513
 20
0.0349072627723217
 30
-39.24118041992187
 70
    32
  0
VERTEX
  5
12E
330
FA
100
AcDbEntity
  8
OracDecor_cornice_mouldings
 62
   151
420
 10140133
100
AcDbVertex
100
AcDb3dPolylineVertex
 10
-0.0000020875831979
 20
0.1373051553964615
 30
-39.0
 70
    32
  0
VERTEX
  5
12F
330
FA
100
AcDbEntity
  8
OracDecor_cornice_mouldings
 62
   151
420
 10140133
100
AcDbVertex
100
AcDb3dPolylineVertex
 10
-0.0000020217053134
 20
0.8770339488983154
 30
-37.75
 70
    32
  0
VERTEX
  5
130
330
FA
100
AcDbEntity
  8
OracDecor_cornice_mouldings
 62
   151
420
 10140133
100
AcDbVertex
100
AcDb3dPolylineVertex
 10
-0.0000020214465621
 20
0.9456965923309326
 30
-37.5
 70
    32
  0
VERTEX
  5
131
330
FA
100
AcDbEntity
  8
OracDecor_cornice_mouldings
 62
   151
420
 10140133
100
AcDbVertex
100
AcDb3dPolylineVertex
 10
-0.0000020435609258
 20
0.8770339488983154
 30
-37.25
 70
    32
  0
VERTEX
  5
132
330
FA
100
AcDbEntity
  8
OracDecor_cornice_mouldings
 62
   151
420
 10140133
100
AcDbVertex
100
AcDb3dPolylineVertex
 10
-0.0000022187173272
 20
0.13730488717556
 30
-36.0
 70
    32
  0
VERTEX
  5
133
330
FA
100
AcDbEntity
  8
OracDecor_cornice_mouldings
 62
   151
420
 10140133
100
AcDbVertex
100
AcDb3dPolylineVertex
 10
-0.0000022459425963
 20
0.0349069572985172
 30
-35.75881958007812
 70
    32
  0
VERTEX
  5
134
330
FA
100
AcDbEntity
  8
OracDecor_cornice_mouldings
 62
   151
420
 10140133
100
AcDbVertex
100
AcDb3dPolylineVertex
 10
-0.0000022629462819
 20
-0.0000204324151127
 30
-35.5
 70
    32
  0
VERTEX
  5
135
330
FA
100
AcDbEntity
  8
OracDecor_cornice_mouldings
 62
   151
420
 10140133
100
AcDbVertex
100
AcDb3dPolylineVertex
 10
-0.0000024377918635
 20
-0.0000207821067306
 30
-31.5
 70
    32
  0
VERTEX
  5
136
330
FA
100
AcDbEntity
  8
OracDecor_cornice_mouldings
 62
   151
420
 10140133
100
AcDbVertex
100
AcDb3dPolylineVertex
 10
-0.0000024370160645
 20
0.2059651613235474
 30
-30.75
 70
    32
  0
VERTEX
  5
137
330
FA
100
AcDbEntity
  8
OracDecor_cornice_mouldings
 62
   151
420
 10140133
100
AcDbVertex
100
AcDb3dPolylineVertex
 10
-0.0000023693291951
 20
0.7687302231788636
 30
-30.20096206665039
 70
    32
  0
VERTEX
  5
138
330
FA
100
AcDbEntity
  8
OracDecor_cornice_mouldings
 62
   151
420
 10140133
100
AcDbVertex
100
AcDb3dPolylineVertex
 10
-0.0000022528683985
 20
1.537479519844055
 30
-30.0
 70
    32
  0
VERTEX
  5
139
330
FA
100
AcDbEntity
  8
OracDecor_cornice_mouldings
 62
   151
420
 10140133
100
AcDbVertex
100
AcDb3dPolylineVertex
 10
-0.0000019839453671
 20
3.18811821937561
 30
-30.0
 70
    32
  0
VERTEX
  5
13A
330
FA
100
AcDbEntity
  8
OracDecor_cornice_mouldings
 62
   151
420
 10140133
100
AcDbVertex
100
AcDb3dPolylineVertex
 10
-0.0000016524279545
 20
5.323068141937255
 30
-29.62686538696289
 70
    32
  0
VERTEX
  5
13B
330
FA
100
AcDbEntity
  8
OracDecor_cornice_mouldings
 62
   151
420
 10140133
100
AcDbVertex
100
AcDb3dPolylineVertex
 10
-0.0000013947746993
 20
7.192397594451904
 30
-28.55393981933594
 70
    32
  0
VERTEX
  5
13C
330
FA
100
AcDbEntity
  8
OracDecor_cornice_mouldings
 62
   151
420
 10140133
100
AcDbVertex
100
AcDb3dPolylineVertex
 10
-0.0000012430073184
 20
8.563779830932617
 30
-26.91456794738769
 70
    32
  0
VERTEX
  5
13D
330
FA
100
AcDbEntity
  8
OracDecor_cornice_mouldings
 62
   151
420
 10140133
100
AcDbVertex
100
AcDb3dPolylineVertex
 10
-0.0000009446698641
 20
11.41036033630371
 30
-23.12998008728027
 70
    32
  0
VERTEX
  5
13E
330
FA
100
AcDbEntity
  8
OracDecor_cornice_mouldings
 62
   151
420
 10140133
100
AcDbVertex
100
AcDb3dPolylineVertex
 10
-0.0000004681533028
 20
15.1330680847168
 30
-20.15616989135742
 70
    32
  0
VERTEX
  5
13F
330
FA
100
AcDbEntity
  8
OracDecor_cornice_mouldings
 62
   151
420
 10140133
100
AcDbVertex
100
AcDb3dPolylineVertex
 10
0.0000001565558705
 20
19.49763298034668
 30
-18.18027877807617
 70
    32
  0
VERTEX
  5
140
330
FA
100
AcDbEntity
  8
OracDecor_cornice_mouldings
 62
   151
420
 10140133
100
AcDbVertex
100
AcDb3dPolylineVertex
 10
0.0000005059487194
 20
21.96770286560059
 30
-16.96703910827636
 70
    32
  0
VERTEX
  5
141
330
FA
100
AcDbEntity
  8
OracDecor_cornice_mouldings
 62
   151
420
 10140133
100
AcDbVertex
100
AcDb3dPolylineVertex
 10
0.0000007425283002
 20
23.92989730834961
 30
-15.06586933135986
 70
    32
  0
VERTEX
  5
142
330
FA
100
AcDbEntity
  8
OracDecor_cornice_mouldings
 62
   151
420
 10140133
100
AcDbVertex
100
AcDb3dPolylineVertex
 10
0.000000842935151
 20
25.19047927856445
 30
-12.66448783874511
 70
    32
  0
VERTEX
  5
143
330
FA
100
AcDbEntity
  8
OracDecor_cornice_mouldings
 62
   151
420
 10140133
100
AcDbVertex
100
AcDb3dPolylineVertex
 10
-0.0000030174423955
 20
25.62497520446778
 30
-9.99999713897705
 70
    32
  0
VERTEX
  5
144
330
FA
100
AcDbEntity
  8
OracDecor_cornice_mouldings
 62
   151
420
 10140133
100
AcDbVertex
100
AcDb3dPolylineVertex
 10
-0.0000033889891711
 20
25.62497520446778
 30
-1.499995827674865
 70
    32
  0
VERTEX
  5
145
330
FA
100
AcDbEntity
  8
OracDecor_cornice_mouldings
 62
   151
420
 10140133
100
AcDbVertex
100
AcDb3dPolylineVertex
 10
-0.0000033882133721
 20
25.83096122741699
 30
-0.7499958872795105
 70
    32
  0
VERTEX
  5
146
330
FA
100
AcDbEntity
  8
OracDecor_cornice_mouldings
 62
   151
420
 10140133
100
AcDbVertex
100
AcDb3dPolylineVertex
 10
-0.0000033205265026
 20
26.39372444152832
 30
-0.2009578496217728
 70
    32
  0
SEQEND
  5
147
330
FA
100
AcDbEntity
  8
OracDecor_cornice_mouldings
 62
   151
420
 10140133
  0
ENDSEC
  0
SECTION
  2
OBJECTS
  0
DICTIONARY
  5
C
330
0
100
AcDbDictionary
281
     1
  3
ACAD_COLOR
350
DC
  3
ACAD_DETAILVIEWSTYLE
350
F5
  3
ACAD_GROUP
350
D
  3
ACAD_LAYOUT
350
1A
  3
ACAD_MATERIAL
350
AA
  3
ACAD_MLEADERSTYLE
350
F1
  3
ACAD_MLINESTYLE
350
17
  3
ACAD_PLOTSETTINGS
350
19
  3
ACAD_PLOTSTYLENAME
350
E
  3
ACAD_SCALELIST
350
DF
  3
ACAD_SECTIONVIEWSTYLE
350
F3
  3
ACAD_TABLESTYLE
350
DD
  3
ACAD_VISUALSTYLE
350
C3
  3
ACDB_RECOMPOSE_DATA
350
154
  3
AcDbVariableDictionary
350
148
  0
DICTIONARY
  5
DC
102
{ACAD_REACTORS
330
C
102
}
330
C
100
AcDbDictionary
281
     1
  0
DICTIONARY
  5
F5
102
{ACAD_REACTORS
330
C
102
}
330
C
100
AcDbDictionary
281
     1
  3
Imperial24
350
F6
  0
DICTIONARY
  5
D
102
{ACAD_REACTORS
330
C
102
}
330
C
100
AcDbDictionary
281
     1
  0
DICTIONARY
  5
1A
102
{ACAD_REACTORS
330
C
102
}
330
C
100
AcDbDictionary
281
     1
  3
Layout1
350
1E
  3
Layout2
350
26
  3
Model
350
22
  0
DICTIONARY
  5
AA
102
{ACAD_REACTORS
330
C
102
}
330
C
100
AcDbDictionary
281
     1
  3
ByBlock
350
B3
  3
ByLayer
350
AB
  3
Global
350
BB
  0
DICTIONARY
  5
F1
102
{ACAD_REACTORS
330
C
102
}
330
C
100
AcDbDictionary
281
     1
  3
Standard
350
F2
  0
DICTIONARY
  5
17
102
{ACAD_REACTORS
330
C
102
}
330
C
100
AcDbDictionary
281
     1
  3
Standard
350
18
  0
DICTIONARY
  5
19
102
{ACAD_REACTORS
330
C
102
}
330
C
100
AcDbDictionary
281
     1
  0
ACDBDICTIONARYWDFLT
  5
E
102
{ACAD_REACTORS
330
C
102
}
330
C
100
AcDbDictionary
281
     1
  3
ByLayer
350
2D
  3
Normal
350
F
100
AcDbDictionaryWithDefault
340
F
  0
DICTIONARY
  5
DF
102
{ACAD_REACTORS
330
C
102
}
330
C
100
AcDbDictionary
281
     1
  3
A0
350
E0
  3
A1
350
E1
  3
A2
350
E2
  3
A3
350
E3
  3
A4
350
E4
  3
A5
350
E5
  3
A6
350
E6
  3
A7
350
E7
  3
A8
350
E8
  3
A9
350
E9
  3
B0
350
EA
  3
B1
350
EB
  3
B2
350
EC
  3
B3
350
ED
  3
B4
350
EE
  3
B5
350
EF
  3
B6
350
F0
  0
DICTIONARY
  5
F3
102
{ACAD_REACTORS
330
C
102
}
330
C
100
AcDbDictionary
281
     1
  3
Imperial24
350
F4
  0
DICTIONARY
  5
DD
102
{ACAD_REACTORS
330
C
102
}
330
C
100
AcDbDictionary
281
     1
  3
Standard
350
DE
  0
DICTIONARY
  5
C3
102
{ACAD_REACTORS
330
C
102
}
330
C
100
AcDbDictionary
281
     1
  3
2dWireframe
350
C9
  3
Basic
350
C8
  3
Brighten
350
CF
  3
ColorChange
350
D3
  3
Conceptual
350
CC
  3
Dim
350
CE
  3
EdgeColorOff
350
DB
  3
Facepattern
350
D2
  3
Flat
350
C4
  3
FlatWithEdges
350
C5
  3
Gouraud
350
C6
  3
GouraudWithEdges
350
C7
  3
Hidden
350
CB
  3
JitterOff
350
D9
  3
Linepattern
350
D1
  3
OverhangOff
350
DA
  3
Realistic
350
CD
  3
Shaded
350
D8
  3
Shaded with edges
350
D7
  3
Shades of Gray
350
D4
  3
Sketchy
350
D5
  3
Thicken
350
D0
  3
Wireframe
350
CA
  3
X-Ray
350
D6
  0
XRECORD
  5
154
102
{ACAD_REACTORS
330
C
102
}
330
C
100
AcDbXrecord
280
     1
 90
        1
330
DE
  0
DICTIONARY
  5
148
102
{ACAD_REACTORS
330
C
102
}
330
C
100
AcDbDictionary
281
     1
  3
CANNOSCALE
350
14E
  3
CMLEADERSTYLE
350
14A
  3
CTABLESTYLE
350
149
  3
CVIEWDETAILSTYLE
350
14B
  3
CVIEWSECTIONSTYLE
350
14C
  3
LAYEREVAL
350
150
  3
LAYERNOTIFY
350
151
  3
LIGHTINGUNITS
350
14F
  3
MSLTSCALE
350
14D
  0
ACDBDETAILVIEWSTYLE
  5
F6
102
{ACAD_XDICTIONARY
360
189
102
}
102
{ACAD_REACTORS
330
F5
102
}
330
F5
100
AcDbModelDocViewStyle
 70
     0
  3
Imperial24
290
     0
100
AcDbDetailViewStyle
 70
     0
 71
     0
 90
        3
 71
     1
340
11
 62
   256
 40
0.24
340
0
 62
   256
 40
0.24
300

 40
0.36
280
     3
 71
     2
340
16
 90
       25
 62
   256
 71
     3
340
11
 62
   256
 40
0.24
 90
        1
 40
0.75
 90
        1
300
%<\AcVar ViewType \f "%tc1">% %<\AcVar ViewDetailId>%\PSCALE %<\AcVar ViewScale \f "%sn">%
 71
     4
340
16
 90
       25
 62
   256
340
16
 90
       25
 62
   256
280
     0
  0
LAYOUT
  5
1E
102
{ACAD_REACTORS
330
1A
102
}
330
1A
100
AcDbPlotSettings
  1

  2
\\KTXNTBDC\CASF2PN1
  4

  6

 40
0.0
 41
0.0
 42
0.0
 43
0.0
 44
0.0
 45
0.0
 46
0.0
 47
0.0
 48
0.0
 49
0.0
140
0.0
141
0.0
142
1.0
143
1.0
 70
   688
 72
     0
 73
     0
 74
     5
  7

 75
    16
147
1.0
 76
     0
 77
     2
 78
   300
148
0.0
149
0.0
100
AcDbLayout
  1
Layout1
 70
     1
 71
     1
 10
0.0
 20
0.0
 11
12.0
 21
9.0
 12
0.0
 22
0.0
 32
0.0
 14
1.000000000000000E+20
 24
1.000000000000000E+20
 34
1.000000000000000E+20
 15
-1.000000000000000E+20
 25
-1.000000000000000E+20
 35
-1.000000000000000E+20
146
0.0
 13
0.0
 23
0.0
 33
0.0
 16
1.0
 26
0.0
 36
0.0
 17
0.0
 27
1.0
 37
0.0
 76
     0
330
1B
  0
LAYOUT
  5
26
102
{ACAD_REACTORS
330
1A
102
}
330
1A
100
AcDbPlotSettings
  1

  2
\\KTXNTBDC\CASF2PN1
  4

  6

 40
0.0
 41
0.0
 42
0.0
 43
0.0
 44
0.0
 45
0.0
 46
0.0
 47
0.0
 48
0.0
 49
0.0
140
0.0
141
0.0
142
1.0
143
1.0
 70
   688
 72
     0
 73
     0
 74
     5
  7

 75
    16
147
1.0
 76
     0
 77
     2
 78
   300
148
0.0
149
0.0
100
AcDbLayout
  1
Layout2
 70
     1
 71
     2
 10
0.0
 20
0.0
 11
12.0
 21
9.0
 12
0.0
 22
0.0
 32
0.0
 14
0.0
 24
0.0
 34
0.0
 15
0.0
 25
0.0
 35
0.0
146
0.0
 13
0.0
 23
0.0
 33
0.0
 16
1.0
 26
0.0
 36
0.0
 17
0.0
 27
1.0
 37
0.0
 76
     0
330
23
  0
LAYOUT
  5
22
102
{ACAD_REACTORS
330
1A
102
}
330
1A
100
AcDbPlotSettings
  1

  2
\\KTXNTBDC\CASF2PN1
  4

  6

 40
0.0
 41
0.0
 42
0.0
 43
0.0
 44
0.0
 45
0.0
 46
0.0
 47
0.0
 48
0.0
 49
0.0
140
0.0
141
0.0
142
1.0
143
1.0
 70
  1712
 72
     0
 73
     0
 74
     0
  7

 75
     0
147
1.0
 76
     0
 77
     2
 78
   300
148
0.0
149
0.0
100
AcDbLayout
  1
Model
 70
     1
 71
     0
 10
0.0
 20
0.0
 11
12.0
 21
9.0
 12
0.0
 22
0.0
 32
0.0
 14
0.0
 24
0.0
 34
0.0
 15
0.0
 25
0.0
 35
0.0
146
0.0
 13
0.0
 23
0.0
 33
0.0
 16
1.0
 26
0.0
 36
0.0
 17
0.0
 27
1.0
 37
0.0
 76
     0
330
1F
  0
MATERIAL
  5
B3
102
{ACAD_XDICTIONARY
360
B4
102
}
102
{ACAD_REACTORS
330
AA
102
}
330
AA
100
AcDbMaterial
  1
ByBlock
 72
     0
 43
0.0208333333333333
 43
0.0
 43
0.0
 43
0.0
 43
0.0
 43
0.0208333333333333
 43
0.0
 43
0.0
 43
0.0
 43
0.0
 43
1.0
 43
0.0
 43
0.0
 43
0.0
 43
0.0
 43
1.0
 77
     0
 47
0.0208333333333333
 47
0.0
 47
0.0
 47
0.0
 47
0.0
 47
0.0208333333333333
 47
0.0
 47
0.0
 47
0.0
 47
0.0
 47
1.0
 47
0.0
 47
0.0
 47
0.0
 47
0.0
 47
1.0
171
     0
 49
0.0208333333333333
 49
0.0
 49
0.0
 49
0.0
 49
0.0
 49
0.0208333333333333
 49
0.0
 49
0.0
 49
0.0
 49
0.0
 49
1.0
 49
0.0
 49
0.0
 49
0.0
 49
0.0
 49
1.0
175
     0
142
0.0208333333333333
142
0.0
142
0.0
142
0.0
142
0.0
142
0.0208333333333333
142
0.0
142
0.0
142
0.0
142
0.0
142
1.0
142
0.0
142
0.0
142
0.0
142
0.0
142
1.0
179
     0
144
0.0208333333333333
144
0.0
144
0.0
144
0.0
144
0.0
144
0.0208333333333333
144
0.0
144
0.0
144
0.0
144
0.0
144
1.0
144
0.0
144
0.0
144
0.0
144
0.0
144
1.0
147
0.0208333333333333
147
0.0
147
0.0
147
0.0
147
0.0
147
0.0208333333333333
147
0.0
147
0.0
147
0.0
147
0.0
147
1.0
147
0.0
147
0.0
147
0.0
147
0.0
147
1.0
  0
MATERIAL
  5
AB
102
{ACAD_XDICTIONARY
360
AC
102
}
102
{ACAD_REACTORS
330
AA
102
}
330
AA
100
AcDbMaterial
  1
ByLayer
 72
     0
 43
0.0208333333333333
 43
0.0
 43
0.0
 43
0.0
 43
0.0
 43
0.0208333333333333
 43
0.0
 43
0.0
 43
0.0
 43
0.0
 43
1.0
 43
0.0
 43
0.0
 43
0.0
 43
0.0
 43
1.0
 77
     0
 47
0.0208333333333333
 47
0.0
 47
0.0
 47
0.0
 47
0.0
 47
0.0208333333333333
 47
0.0
 47
0.0
 47
0.0
 47
0.0
 47
1.0
 47
0.0
 47
0.0
 47
0.0
 47
0.0
 47
1.0
171
     0
 49
0.0208333333333333
 49
0.0
 49
0.0
 49
0.0
 49
0.0
 49
0.0208333333333333
 49
0.0
 49
0.0
 49
0.0
 49
0.0
 49
1.0
 49
0.0
 49
0.0
 49
0.0
 49
0.0
 49
1.0
175
     0
142
0.0208333333333333
142
0.0
142
0.0
142
0.0
142
0.0
142
0.0208333333333333
142
0.0
142
0.0
142
0.0
142
0.0
142
1.0
142
0.0
142
0.0
142
0.0
142
0.0
142
1.0
179
     0
144
0.0208333333333333
144
0.0
144
0.0
144
0.0
144
0.0
144
0.0208333333333333
144
0.0
144
0.0
144
0.0
144
0.0
144
1.0
144
0.0
144
0.0
144
0.0
144
0.0
144
1.0
147
0.0208333333333333
147
0.0
147
0.0
147
0.0
147
0.0
147
0.0208333333333333
147
0.0
147
0.0
147
0.0
147
0.0
147
1.0
147
0.0
147
0.0
147
0.0
147
0.0
147
1.0
  0
MATERIAL
  5
BB
102
{ACAD_XDICTIONARY
360
BC
102
}
102
{ACAD_REACTORS
330
AA
102
}
330
AA
100
AcDbMaterial
  1
Global
 72
     0
 43
0.0208333333333333
 43
0.0
 43
0.0
 43
0.0
 43
0.0
 43
0.0208333333333333
 43
0.0
 43
0.0
 43
0.0
 43
0.0
 43
1.0
 43
0.0
 43
0.0
 43
0.0
 43
0.0
 43
1.0
 77
     0
 47
0.0208333333333333
 47
0.0
 47
0.0
 47
0.0
 47
0.0
 47
0.0208333333333333
 47
0.0
 47
0.0
 47
0.0
 47
0.0
 47
1.0
 47
0.0
 47
0.0
 47
0.0
 47
0.0
 47
1.0
171
     0
 49
0.0208333333333333
 49
0.0
 49
0.0
 49
0.0
 49
0.0
 49
0.0208333333333333
 49
0.0
 49
0.0
 49
0.0
 49
0.0
 49
1.0
 49
0.0
 49
0.0
 49
0.0
 49
0.0
 49
1.0
175
     0
142
0.0208333333333333
142
0.0
142
0.0
142
0.0
142
0.0
142
0.0208333333333333
142
0.0
142
0.0
142
0.0
142
0.0
142
1.0
142
0.0
142
0.0
142
0.0
142
0.0
142
1.0
179
     0
144
0.0208333333333333
144
0.0
144
0.0
144
0.0
144
0.0
144
0.0208333333333333
144
0.0
144
0.0
144
0.0
144
0.0
144
1.0
144
0.0
144
0.0
144
0.0
144
0.0
144
1.0
147
0.0208333333333333
147
0.0
147
0.0
147
0.0
147
0.0
147
0.0208333333333333
147
0.0
147
0.0
147
0.0
147
0.0
147
1.0
147
0.0
147
0.0
147
0.0
147
0.0
147
1.0
  0
MLEADERSTYLE
  5
F2
102
{ACAD_XDICTIONARY
360
185
102
}
102
{ACAD_REACTORS
330
F1
102
}
330
F1
100
AcDbMLeaderStyle
179
     2
170
     2
171
     1
172
     0
 90
        2
 40
0.0
 41
0.0
173
     1
 91
-1056964608
340
14
 92
       -2
290
     1
 42
0.09
291
     1
 43
0.36
  3
Standard
 44
0.18
300

342
11
174
     1
178
     6
175
     1
176
     0
 93
-1056964608
 45
0.18
292
     0
297
     0
 46
0.18
 94
-1056964608
 47
1.0
 49
1.0
140
1.0
293
     1
141
0.0
294
     1
177
     0
142
1.0
295
     0
296
     0
143
0.125
271
     0
272
     9
273
     9
  0
MLINESTYLE
  5
18
102
{ACAD_REACTORS
330
17
102
}
330
17
100
AcDbMlineStyle
  2
STANDARD
 70
     0
  3

 62
   256
 51
90.0
 52
90.0
 71
     2
 49
0.5
 62
   256
  6
BYLAYER
 49
-0.5
 62
   256
  6
BYLAYER
  0
ACDBPLACEHOLDER
  5
2D
102
{ACAD_REACTORS
330
E
102
}
330
E
  0
ACDBPLACEHOLDER
  5
F
102
{ACAD_REACTORS
330
E
102
}
330
E
  0
SCALE
  5
E0
102
{ACAD_REACTORS
330
DF
102
}
330
DF
100
AcDbScale
 70
     0
300
1:1
140
1.0
141
1.0
290
     1
  0
SCALE
  5
E1
102
{ACAD_REACTORS
330
DF
102
}
330
DF
100
AcDbScale
 70
     0
300
1/128" = 1'-0"
140
0.0078125
141
12.0
290
     0
  0
SCALE
  5
E2
102
{ACAD_REACTORS
330
DF
102
}
330
DF
100
AcDbScale
 70
     0
300
1/64" = 1'-0"
140
0.015625
141
12.0
290
     0
  0
SCALE
  5
E3
102
{ACAD_REACTORS
330
DF
102
}
330
DF
100
AcDbScale
 70
     0
300
1/32" = 1'-0"
140
0.03125
141
12.0
290
     0
  0
SCALE
  5
E4
102
{ACAD_REACTORS
330
DF
102
}
330
DF
100
AcDbScale
 70
     0
300
1/16" = 1'-0"
140
0.0625
141
12.0
290
     0
  0
SCALE
  5
E5
102
{ACAD_REACTORS
330
DF
102
}
330
DF
100
AcDbScale
 70
     0
300
3/32" = 1'-0"
140
0.09375
141
12.0
290
     0
  0
SCALE
  5
E6
102
{ACAD_REACTORS
330
DF
102
}
330
DF
100
AcDbScale
 70
     0
300
1/8" = 1'-0"
140
0.125
141
12.0
290
     0
  0
SCALE
  5
E7
102
{ACAD_REACTORS
330
DF
102
}
330
DF
100
AcDbScale
 70
     0
300
3/16" = 1'-0"
140
0.1875
141
12.0
290
     0
  0
SCALE
  5
E8
102
{ACAD_REACTORS
330
DF
102
}
330
DF
100
AcDbScale
 70
     0
300
1/4" = 1'-0"
140
0.25
141
12.0
290
     0
  0
SCALE
  5
E9
102
{ACAD_REACTORS
330
DF
102
}
330
DF
100
AcDbScale
 70
     0
300
3/8" = 1'-0"
140
0.375
141
12.0
290
     0
  0
SCALE
  5
EA
102
{ACAD_REACTORS
330
DF
102
}
330
DF
100
AcDbScale
 70
     0
300
1/2" = 1'-0"
140
0.5
141
12.0
290
     0
  0
SCALE
  5
EB
102
{ACAD_REACTORS
330
DF
102
}
330
DF
100
AcDbScale
 70
     0
300
3/4" = 1'-0"
140
0.75
141
12.0
290
     0
  0
SCALE
  5
EC
102
{ACAD_REACTORS
330
DF
102
}
330
DF
100
AcDbScale
 70
     0
300
1" = 1'-0"
140
1.0
141
12.0
290
     0
  0
SCALE
  5
ED
102
{ACAD_REACTORS
330
DF
102
}
330
DF
100
AcDbScale
 70
     0
300
1-1/2" = 1'-0"
140
1.5
141
12.0
290
     0
  0
SCALE
  5
EE
102
{ACAD_REACTORS
330
DF
102
}
330
DF
100
AcDbScale
 70
     0
300
3" = 1'-0"
140
3.0
141
12.0
290
     0
  0
SCALE
  5
EF
102
{ACAD_REACTORS
330
DF
102
}
330
DF
100
AcDbScale
 70
     0
300
6" = 1'-0"
140
6.0
141
12.0
290
     0
  0
SCALE
  5
F0
102
{ACAD_REACTORS
330
DF
102
}
330
DF
100
AcDbScale
 70
     0
300
1'-0" = 1'-0"
140
12.0
141
12.0
290
     0
  0
ACDBSECTIONVIEWSTYLE
  5
F4
102
{ACAD_XDICTIONARY
360
187
102
}
102
{ACAD_REACTORS
330
F3
102
}
330
F3
100
AcDbModelDocViewStyle
 70
     0
  3
Imperial24
290
     0
100
AcDbSectionViewStyle
 70
     0
 71
     0
 90
       78
 71
     1
340
11
 62
   256
 40
0.24
340
0
340
0
 62
   256
 40
0.24
300
I, O, Q, S, X, Z
 40
0.48
 90
        3
 40
0.18
 90
        1
 71
     2
340
16
 90
       25
 62
   256
340
16
 90
       50
 62
   256
 40
0.24
 40
0.0
 40
0.24
 71
     3
340
11
 62
   256
 40
0.24
 90
        1
 40
0.75
 90
        1
300
%<\AcVar ViewType \f "%tc1">% %<\AcVar ViewSectionStartId>%-%<\AcVar ViewSectionEndId>%\PSCALE %<\AcVar ViewScale \f "%sn">%
 71
     4
 62
   256
 62
   257
300
ANSI31
 40
1.0
 90
        0
290
     0
290
     0
 90
        6
 40
0.0
 40
1.570796326794896
 40
0.2617993877991494
 40
1.308996938995747
 40
-0.2617993877991494
 40
1.832595714594046
  0
TABLESTYLE
  5
DE
102
{ACAD_XDICTIONARY
360
152
102
}
102
{ACAD_REACTORS
330
DD
102
}
330
DD
100
AcDbTableStyle
280
     0
  3
Standard
 70
     0
 71
     0
 40
0.06
 41
0.06
280
     0
281
     0
  7
Standard
140
0.18
170
     2
 62
     0
 63
     7
283
     0
 90
      512
 91
        0
  1

274
    -2
284
     1
 64
     0
275
    -2
285
     1
 65
     0
276
    -2
286
     1
 66
     0
277
    -2
287
     1
 67
     0
278
    -2
288
     1
 68
     0
279
    -2
289
     1
 69
     0
  7
Standard
140
0.25
170
     5
 62
     0
 63
     7
283
     0
 90
      512
 91
        0
  1

274
    -2
284
     1
 64
     0
275
    -2
285
     1
 65
     0
276
    -2
286
     1
 66
     0
277
    -2
287
     1
 67
     0
278
    -2
288
     1
 68
     0
279
    -2
289
     1
 69
     0
  7
Standard
140
0.18
170
     5
 62
     0
 63
     7
283
     0
 90
      512
 91
        0
  1

274
    -2
284
     1
 64
     0
275
    -2
285
     1
 65
     0
276
    -2
286
     1
 66
     0
277
    -2
287
     1
 67
     0
278
    -2
288
     1
 68
     0
279
    -2
289
     1
 69
     0
  0
VISUALSTYLE
  5
C9
102
{ACAD_XDICTIONARY
360
15F
102
}
102
{ACAD_REACTORS
330
C3
102
}
330
C3
100
AcDbVisualStyle
  2
2dWireframe
 70
     4
177
     2
291
     0
 71
     0
176
     1
 72
     2
176
     1
 73
     0
176
     1
 90
        0
176
     1
 40
0.6
176
     1
 41
30.0
176
     1
 63
     7
421
 16777215
176
     1
 74
     1
176
     1
 91
        4
176
     1
 64
     7
176
     1
 65
   257
176
     1
 75
     1
176
     1
175
     1
176
     1
 42
1.0
176
     1
 92
        0
176
     1
 66
   257
176
     1
 43
1.0
176
     1
 76
     1
176
     1
 77
     6
176
     1
 78
     2
176
     1
 67
     7
176
     1
 79
     5
176
     1
170
     0
176
     1
171
     0
176
     1
290
     0
176
     1
 93
        1
176
     1
 44
0.0
176
     1
173
     0
176
     1
1001
ACAD
1000
AcDbSavedByObjectVersion
1070
     0
  0
VISUALSTYLE
  5
C8
102
{ACAD_XDICTIONARY
360
15D
102
}
102
{ACAD_REACTORS
330
C3
102
}
330
C3
100
AcDbVisualStyle
  2
Basic
 70
     7
177
     2
291
     1
 71
     1
176
     1
 72
     0
176
     1
 73
     1
176
     1
 90
        0
176
     1
 40
0.6
176
     1
 41
30.0
176
     1
 63
     7
421
 16777215
176
     1
 74
     0
176
     1
 91
        4
176
     1
 64
     7
176
     1
 65
   257
176
     1
 75
     1
176
     1
175
     1
176
     1
 42
1.0
176
     1
 92
        8
176
     1
 66
     7
176
     1
 43
1.0
176
     1
 76
     1
176
     1
 77
     6
176
     1
 78
     2
176
     1
 67
     7
176
     1
 79
     5
176
     1
170
     0
176
     1
171
     0
176
     1
290
     0
176
     1
 93
        1
176
     1
 44
0.0
176
     1
173
     0
176
     1
1001
ACAD
1000
AcDbSavedByObjectVersion
1070
     0
  0
VISUALSTYLE
  5
CF
102
{ACAD_XDICTIONARY
360
16B
102
}
102
{ACAD_REACTORS
330
C3
102
}
330
C3
100
AcDbVisualStyle
  2
Brighten
 70
    12
177
     2
291
     1
 71
     2
176
     1
 72
     2
176
     1
 73
     0
176
     1
 90
        0
176
     1
 40
0.6
176
     1
 41
30.0
176
     1
 63
     7
421
 16777215
176
     1
 74
     1
176
     1
 91
        4
176
     1
 64
     7
176
     1
 65
   257
176
     1
 75
     1
176
     1
175
     1
176
     1
 42
1.0
176
     1
 92
        8
176
     1
 66
     7
176
     1
 43
1.0
176
     1
 76
     1
176
     1
 77
     6
176
     1
 78
     2
176
     1
 67
     7
176
     1
 79
     5
176
     1
170
     0
176
     1
171
     0
176
     1
290
     0
176
     1
 93
        1
176
     1
 44
50.0
176
     1
173
     0
176
     1
1001
ACAD
1000
AcDbSavedByObjectVersion
1070
     0
  0
VISUALSTYLE
  5
D3
102
{ACAD_XDICTIONARY
360
173
102
}
102
{ACAD_REACTORS
330
C3
102
}
330
C3
100
AcDbVisualStyle
  2
ColorChange
 70
    16
177
     2
291
     1
 71
     2
176
     1
 72
     2
176
     1
 73
     3
176
     1
 90
        0
176
     1
 40
0.6
176
     1
 41
30.0
176
     1
 63
     8
421
  8421504
176
     1
 74
     1
176
     1
 91
        4
176
     1
 64
     7
176
     1
 65
   257
176
     1
 75
     1
176
     1
175
     1
176
     1
 42
1.0
176
     1
 92
        8
176
     1
 66
     8
424
  8421504
176
     1
 43
1.0
176
     1
 76
     1
176
     1
 77
     6
176
     1
 78
     2
176
     1
 67
     7
176
     1
 79
     5
176
     1
170
     0
176
     1
171
     0
176
     1
290
     0
176
     1
 93
        1
176
     1
 44
0.0
176
     1
173
     0
176
     1
1001
ACAD
1000
AcDbSavedByObjectVersion
1070
     0
  0
VISUALSTYLE
  5
CC
102
{ACAD_XDICTIONARY
360
165
102
}
102
{ACAD_REACTORS
330
C3
102
}
330
C3
100
AcDbVisualStyle
  2
Conceptual
 70
     9
177
     2
291
     0
 71
     3
176
     1
 72
     2
176
     1
 73
     0
176
     1
 90
        0
176
     1
 40
0.6
176
     1
 41
30.0
176
     1
 63
     7
421
 16777215
176
     1
 74
     2
176
     1
 91
        2
176
     1
 64
     7
176
     1
 65
   257
176
     1
 75
     1
176
     1
175
     1
176
     1
 42
179.0
176
     1
 92
        8
176
     1
 66
     7
176
     1
 43
1.0
176
     1
 76
     1
176
     1
 77
     6
176
     1
 78
     2
176
     1
 67
     7
176
     1
 79
     3
176
     1
170
     0
176
     1
171
     0
176
     1
290
     0
176
     1
 93
        1
176
     1
 44
0.0
176
     1
173
     0
176
     1
1001
ACAD
1000
AcDbSavedByObjectVersion
1070
     0
  0
VISUALSTYLE
  5
CE
102
{ACAD_XDICTIONARY
360
169
102
}
102
{ACAD_REACTORS
330
C3
102
}
330
C3
100
AcDbVisualStyle
  2
Dim
 70
    11
177
     2
291
     1
 71
     2
176
     1
 72
     2
176
     1
 73
     0
176
     1
 90
        0
176
     1
 40
0.6
176
     1
 41
30.0
176
     1
 63
     7
421
 16777215
176
     1
 74
     1
176
     1
 91
        4
176
     1
 64
     7
176
     1
 65
   257
176
     1
 75
     1
176
     1
175
     1
176
     1
 42
1.0
176
     1
 92
        8
176
     1
 66
     7
176
     1
 43
1.0
176
     1
 76
     1
176
     1
 77
     6
176
     1
 78
     2
176
     1
 67
     7
176
     1
 79
     5
176
     1
170
     0
176
     1
171
     0
176
     1
290
     0
176
     1
 93
        1
176
     1
 44
-50.0
176
     1
173
     0
176
     1
1001
ACAD
1000
AcDbSavedByObjectVersion
1070
     0
  0
VISUALSTYLE
  5
DB
102
{ACAD_XDICTIONARY
360
183
102
}
102
{ACAD_REACTORS
330
C3
102
}
330
C3
100
AcDbVisualStyle
  2
EdgeColorOff
 70
    22
177
     2
291
     1
 71
     2
176
     0
 72
     2
176
     0
 73
     0
176
     0
 90
        0
176
     0
 40
0.6
176
     0
 41
30.0
176
     0
 63
     7
421
 16777215
176
     0
 74
     1
176
     0
 91
        4
176
     0
 64
     7
176
     0
 65
   257
176
     0
 75
     1
176
     0
175
     1
176
     0
 42
1.0
176
     0
 92
        8
176
     2
 66
     7
176
     0
 43
1.0
176
     0
 76
     1
176
     0
 77
     6
176
     0
 78
     2
176
     0
 67
     7
176
     0
 79
     5
176
     0
170
     0
176
     0
171
     0
176
     0
290
     0
176
     0
 93
        1
176
     0
 44
0.0
176
     0
173
     0
176
     0
1001
ACAD
1000
AcDbSavedByObjectVersion
1070
     0
  0
VISUALSTYLE
  5
D2
102
{ACAD_XDICTIONARY
360
171
102
}
102
{ACAD_REACTORS
330
C3
102
}
330
C3
100
AcDbVisualStyle
  2
Facepattern
 70
    15
177
     2
291
     1
 71
     2
176
     1
 72
     2
176
     1
 73
     0
176
     1
 90
        0
176
     1
 40
0.6
176
     1
 41
30.0
176
     1
 63
     7
421
 16777215
176
     1
 74
     1
176
     1
 91
        4
176
     1
 64
     7
176
     1
 65
   257
176
     1
 75
     1
176
     1
175
     1
176
     1
 42
1.0
176
     1
 92
        8
176
     1
 66
     7
176
     1
 43
1.0
176
     1
 76
     1
176
     1
 77
     6
176
     1
 78
     2
176
     1
 67
     7
176
     1
 79
     5
176
     1
170
     0
176
     1
171
     0
176
     1
290
     0
176
     1
 93
        1
176
     1
 44
0.0
176
     1
173
     0
176
     1
1001
ACAD
1000
AcDbSavedByObjectVersion
1070
     0
  0
VISUALSTYLE
  5
C4
102
{ACAD_XDICTIONARY
360
155
102
}
102
{ACAD_REACTORS
330
C3
102
}
330
C3
100
AcDbVisualStyle
  2
Flat
 70
     0
177
     2
291
     1
 71
     2
176
     1
 72
     1
176
     1
 73
     1
176
     1
 90
        2
176
     1
 40
0.6
176
     1
 41
30.0
176
     1
 63
     7
421
 16777215
176
     1
 74
     0
176
     1
 91
        0
176
     1
 64
     7
176
     1
 65
   257
176
     1
 75
     1
176
     1
175
     1
176
     1
 42
1.0
176
     1
 92
        8
176
     1
 66
     7
176
     1
 43
1.0
176
     1
 76
     1
176
     1
 77
     6
176
     1
 78
     2
176
     1
 67
     7
176
     1
 79
     5
176
     1
170
     0
176
     1
171
     0
176
     1
290
     0
176
     1
 93
       13
176
     1
 44
0.0
176
     1
173
     0
176
     1
1001
ACAD
1000
AcDbSavedByObjectVersion
1070
     0
  0
VISUALSTYLE
  5
C5
102
{ACAD_XDICTIONARY
360
157
102
}
102
{ACAD_REACTORS
330
C3
102
}
330
C3
100
AcDbVisualStyle
  2
FlatWithEdges
 70
     1
177
     2
291
     1
 71
     2
176
     1
 72
     1
176
     1
 73
     1
176
     1
 90
        2
176
     1
 40
0.6
176
     1
 41
30.0
176
     1
 63
     7
421
 16777215
176
     1
 74
     1
176
     1
 91
        0
176
     1
 64
     7
176
     1
 65
   257
176
     1
 75
     1
176
     1
175
     1
176
     1
 42
1.0
176
     1
 92
        0
176
     1
 66
   257
176
     1
 43
1.0
176
     1
 76
     1
176
     1
 77
     6
176
     1
 78
     2
176
     1
 67
     7
176
     1
 79
     5
176
     1
170
     0
176
     1
171
     0
176
     1
290
     0
176
     1
 93
       13
176
     1
 44
0.0
176
     1
173
     0
176
     1
1001
ACAD
1000
AcDbSavedByObjectVersion
1070
     0
  0
VISUALSTYLE
  5
C6
102
{ACAD_XDICTIONARY
360
159
102
}
102
{ACAD_REACTORS
330
C3
102
}
330
C3
100
AcDbVisualStyle
  2
Gouraud
 70
     2
177
     2
291
     1
 71
     2
176
     1
 72
     2
176
     1
 73
     1
176
     1
 90
        2
176
     1
 40
0.6
176
     1
 41
30.0
176
     1
 63
     7
421
 16777215
176
     1
 74
     0
176
     1
 91
        0
176
     1
 64
     7
176
     1
 65
   257
176
     1
 75
     1
176
     1
175
     1
176
     1
 42
1.0
176
     1
 92
        0
176
     1
 66
     7
176
     1
 43
1.0
176
     1
 76
     1
176
     1
 77
     6
176
     1
 78
     2
176
     1
 67
     7
176
     1
 79
     5
176
     1
170
     0
176
     1
171
     0
176
     1
290
     0
176
     1
 93
       13
176
     1
 44
0.0
176
     1
173
     0
176
     1
1001
ACAD
1000
AcDbSavedByObjectVersion
1070
     0
  0
VISUALSTYLE
  5
C7
102
{ACAD_XDICTIONARY
360
15B
102
}
102
{ACAD_REACTORS
330
C3
102
}
330
C3
100
AcDbVisualStyle
  2
GouraudWithEdges
 70
     3
177
     2
291
     1
 71
     2
176
     1
 72
     2
176
     1
 73
     1
176
     1
 90
        2
176
     1
 40
0.6
176
     1
 41
30.0
176
     1
 63
     7
421
 16777215
176
     1
 74
     1
176
     1
 91
        0
176
     1
 64
     7
176
     1
 65
   257
176
     1
 75
     1
176
     1
175
     1
176
     1
 42
1.0
176
     1
 92
        0
176
     1
 66
   257
176
     1
 43
1.0
176
     1
 76
     1
176
     1
 77
     6
176
     1
 78
     2
176
     1
 67
     7
176
     1
 79
     5
176
     1
170
     0
176
     1
171
     0
176
     1
290
     0
176
     1
 93
       13
176
     1
 44
0.0
176
     1
173
     0
176
     1
1001
ACAD
1000
AcDbSavedByObjectVersion
1070
     0
  0
VISUALSTYLE
  5
CB
102
{ACAD_XDICTIONARY
360
163
102
}
102
{ACAD_REACTORS
330
C3
102
}
330
C3
100
AcDbVisualStyle
  2
Hidden
 70
     6
177
     2
291
     0
 71
     1
176
     1
 72
     2
176
     1
 73
     2
176
     1
 90
        0
176
     1
 40
0.6
176
     1
 41
30.0
176
     1
 63
     7
421
 16777215
176
     1
 74
     2
176
     1
 91
        2
176
     1
 64
     7
176
     1
 65
   257
176
     1
 75
     2
176
     1
175
     1
176
     1
 42
40.0
176
     1
 92
        0
176
     1
 66
   257
176
     1
 43
1.0
176
     1
 76
     1
176
     1
 77
     6
176
     1
 78
     2
176
     1
 67
     7
176
     1
 79
     3
176
     1
170
     0
176
     1
171
     0
176
     1
290
     0
176
     1
 93
        1
176
     1
 44
0.0
176
     1
173
     0
176
     1
1001
ACAD
1000
AcDbSavedByObjectVersion
1070
     0
  0
VISUALSTYLE
  5
D9
102
{ACAD_XDICTIONARY
360
17F
102
}
102
{ACAD_REACTORS
330
C3
102
}
330
C3
100
AcDbVisualStyle
  2
JitterOff
 70
    20
177
     2
291
     1
 71
     2
176
     0
 72
     2
176
     0
 73
     0
176
     0
 90
        0
176
     0
 40
0.6
176
     0
 41
30.0
176
     0
 63
     7
421
 16777215
176
     0
 74
     1
176
     0
 91
        4
176
     0
 64
     7
176
     0
 65
   257
176
     0
 75
     1
176
     0
175
     1
176
     0
 42
1.0
176
     0
 92
       10
176
     2
 66
     7
176
     0
 43
1.0
176
     0
 76
     1
176
     0
 77
     6
176
     0
 78
     2
176
     0
 67
     7
176
     0
 79
     5
176
     0
170
     0
176
     0
171
     0
176
     0
290
     0
176
     0
 93
        1
176
     0
 44
0.0
176
     0
173
     0
176
     0
1001
ACAD
1000
AcDbSavedByObjectVersion
1070
     0
  0
VISUALSTYLE
  5
D1
102
{ACAD_XDICTIONARY
360
16F
102
}
102
{ACAD_REACTORS
330
C3
102
}
330
C3
100
AcDbVisualStyle
  2
Linepattern
 70
    14
177
     2
291
     1
 71
     2
176
     1
 72
     2
176
     1
 73
     0
176
     1
 90
        0
176
     1
 40
0.6
176
     1
 41
30.0
176
     1
 63
     7
421
 16777215
176
     1
 74
     1
176
     1
 91
        4
176
     1
 64
     7
176
     1
 65
   257
176
     1
 75
     7
176
     1
175
     7
176
     1
 42
1.0
176
     1
 92
        8
176
     1
 66
     7
176
     1
 43
1.0
176
     1
 76
     1
176
     1
 77
     6
176
     1
 78
     2
176
     1
 67
     7
176
     1
 79
     5
176
     1
170
     0
176
     1
171
     0
176
     1
290
     0
176
     1
 93
        1
176
     1
 44
0.0
176
     1
173
     0
176
     1
1001
ACAD
1000
AcDbSavedByObjectVersion
1070
     0
  0
VISUALSTYLE
  5
DA
102
{ACAD_XDICTIONARY
360
181
102
}
102
{ACAD_REACTORS
330
C3
102
}
330
C3
100
AcDbVisualStyle
  2
OverhangOff
 70
    21
177
     2
291
     1
 71
     2
176
     0
 72
     2
176
     0
 73
     0
176
     0
 90
        0
176
     0
 40
0.6
176
     0
 41
30.0
176
     0
 63
     7
421
 16777215
176
     0
 74
     1
176
     0
 91
        4
176
     0
 64
     7
176
     0
 65
   257
176
     0
 75
     1
176
     0
175
     1
176
     0
 42
1.0
176
     0
 92
        9
176
     2
 66
     7
176
     0
 43
1.0
176
     0
 76
     1
176
     0
 77
     6
176
     0
 78
     2
176
     0
 67
     7
176
     0
 79
     5
176
     0
170
     0
176
     0
171
     0
176
     0
290
     0
176
     0
 93
        1
176
     0
 44
0.0
176
     0
173
     0
176
     0
1001
ACAD
1000
AcDbSavedByObjectVersion
1070
     0
  0
VISUALSTYLE
  5
CD
102
{ACAD_XDICTIONARY
360
167
102
}
102
{ACAD_REACTORS
330
C3
102
}
330
C3
100
AcDbVisualStyle
  2
Realistic
 70
     8
177
     2
291
     0
 71
     2
176
     1
 72
     3
176
     1
 73
     0
176
     1
 90
        2
176
     1
 40
0.6
176
     1
 41
30.0
176
     1
 63
     7
421
 16777215
176
     1
 74
     0
176
     1
 91
        0
176
     1
 64
     7
176
     1
 65
   257
176
     1
 75
     1
176
     1
175
     1
176
     1
 42
1.0
176
     1
 92
        8
176
     1
 66
   257
176
     1
 43
1.0
176
     1
 76
     1
176
     1
 77
     6
176
     1
 78
     2
176
     1
 67
     7
176
     1
 79
     3
176
     1
170
     0
176
     1
171
     0
176
     1
290
     0
176
     1
 93
       13
176
     1
 44
0.0
176
     1
173
     0
176
     1
1001
ACAD
1000
AcDbSavedByObjectVersion
1070
     0
  0
VISUALSTYLE
  5
D8
102
{ACAD_XDICTIONARY
360
17D
102
}
102
{ACAD_REACTORS
330
C3
102
}
330
C3
100
AcDbVisualStyle
  2
Shaded
 70
    27
177
     2
291
     0
 71
     2
176
     1
 72
     2
176
     1
 73
     1
176
     1
 90
        2
176
     1
 40
0.6
176
     1
 41
30.0
176
     1
 63
     7
421
 16777215
176
     1
 74
     0
176
     1
 91
        4
176
     1
 64
     7
176
     1
 65
   257
176
     1
 75
     1
176
     1
175
     1
176
     1
 42
1.0
176
     1
 92
        8
176
     1
 66
   257
176
     1
 43
1.0
176
     1
 76
     1
176
     1
 77
     6
176
     1
 78
     2
176
     1
 67
     8
425
  7895160
176
     1
 79
     3
176
     1
170
     0
176
     1
171
     0
176
     1
290
     0
176
     1
 93
        5
176
     1
 44
0.0
176
     1
173
     0
176
     1
1001
ACAD
1000
AcDbSavedByObjectVersion
1070
     0
  0
VISUALSTYLE
  5
D7
102
{ACAD_XDICTIONARY
360
17B
102
}
102
{ACAD_REACTORS
330
C3
102
}
330
C3
100
AcDbVisualStyle
  2
Shaded with edges
 70
    26
177
     2
291
     0
 71
     2
176
     1
 72
     2
176
     1
 73
     1
176
     1
 90
        2
176
     1
 40
0.6
176
     1
 41
30.0
176
     1
 63
     7
421
 16777215
176
     1
 74
     1
176
     1
 91
       10
176
     1
 64
     7
176
     1
 65
   257
176
     1
 75
     2
176
     1
175
     1
176
     1
 42
1.0
176
     1
 92
        8
176
     1
 66
   257
176
     1
 43
1.0
176
     1
 76
     1
176
     1
 77
     6
176
     1
 78
     2
176
     1
 67
     7
176
     1
 79
     3
176
     1
170
     0
176
     1
171
     0
176
     1
290
     0
176
     1
 93
        5
176
     1
 44
0.0
176
     1
173
     0
176
     1
1001
ACAD
1000
AcDbSavedByObjectVersion
1070
     0
  0
VISUALSTYLE
  5
D4
102
{ACAD_XDICTIONARY
360
175
102
}
102
{ACAD_REACTORS
330
C3
102
}
330
C3
100
AcDbVisualStyle
  2
Shades of Gray
 70
    23
177
     2
291
     0
 71
     2
176
     1
 72
     2
176
     1
 73
     3
176
     1
 90
        0
176
     1
 40
0.6
176
     1
 41
30.0
176
     1
 63
     7
421
 16777215
176
     1
 74
     2
176
     1
 91
        2
176
     1
 64
     7
176
     1
 65
     7
176
     1
 75
     1
176
     1
175
     1
176
     1
 42
40.0
176
     1
 92
        8
176
     1
 66
     7
176
     1
 43
1.0
176
     1
 76
     1
176
     1
 77
     6
176
     1
 78
     2
176
     1
 67
     7
176
     1
 79
     3
176
     1
170
     0
176
     1
171
     0
176
     1
290
     0
176
     1
 93
        1
176
     1
 44
0.0
176
     1
173
     0
176
     1
1001
ACAD
1000
AcDbSavedByObjectVersion
1070
     0
  0
VISUALSTYLE
  5
D5
102
{ACAD_XDICTIONARY
360
177
102
}
102
{ACAD_REACTORS
330
C3
102
}
330
C3
100
AcDbVisualStyle
  2
Sketchy
 70
    24
177
     2
291
     0
 71
     1
176
     1
 72
     2
176
     1
 73
     2
176
     1
 90
        0
176
     1
 40
0.6
176
     1
 41
30.0
176
     1
 63
     7
421
 16777215
176
     1
 74
     2
176
     1
 91
        2
176
     1
 64
     7
176
     1
 65
     7
176
     1
 75
     1
176
     1
175
     1
176
     1
 42
40.0
176
     1
 92
       11
176
     1
 66
     7
176
     1
 43
1.0
176
     1
 76
     1
176
     1
 77
     6
176
     1
 78
     2
176
     1
 67
     7
176
     1
 79
     6
176
     1
170
     0
176
     1
171
     0
176
     1
290
     0
176
     1
 93
        1
176
     1
 44
0.0
176
     1
173
     0
176
     1
1001
ACAD
1000
AcDbSavedByObjectVersion
1070
     0
  0
VISUALSTYLE
  5
D0
102
{ACAD_XDICTIONARY
360
16D
102
}
102
{ACAD_REACTORS
330
C3
102
}
330
C3
100
AcDbVisualStyle
  2
Thicken
 70
    13
177
     2
291
     1
 71
     2
176
     1
 72
     2
176
     1
 73
     0
176
     1
 90
        0
176
     1
 40
0.6
176
     1
 41
30.0
176
     1
 63
     7
421
 16777215
176
     1
 74
     1
176
     1
 91
        4
176
     1
 64
     7
176
     1
 65
   257
176
     1
 75
     1
176
     1
175
     1
176
     1
 42
1.0
176
     1
 92
       12
176
     1
 66
     7
176
     1
 43
1.0
176
     1
 76
     1
176
     1
 77
     6
176
     1
 78
     2
176
     1
 67
     7
176
     1
 79
     5
176
     1
170
     0
176
     1
171
     0
176
     1
290
     0
176
     1
 93
        1
176
     1
 44
0.0
176
     1
173
     0
176
     1
1001
ACAD
1000
AcDbSavedByObjectVersion
1070
     0
  0
VISUALSTYLE
  5
CA
102
{ACAD_XDICTIONARY
360
161
102
}
102
{ACAD_REACTORS
330
C3
102
}
330
C3
100
AcDbVisualStyle
  2
Wireframe
 70
     5
177
     2
291
     0
 71
     0
176
     1
 72
     2
176
     1
 73
     0
176
     1
 90
        0
176
     1
 40
0.6
176
     1
 41
30.0
176
     1
 63
     7
421
 16777215
176
     1
 74
     1
176
     1
 91
        4
176
     1
 64
     7
176
     1
 65
   257
176
     1
 75
     1
176
     1
175
     1
176
     1
 42
1.0
176
     1
 92
        0
176
     1
 66
   257
176
     1
 43
1.0
176
     1
 76
     1
176
     1
 77
     6
176
     1
 78
     2
176
     1
 67
     7
176
     1
 79
     3
176
     1
170
     0
176
     1
171
     0
176
     1
290
     0
176
     1
 93
        1
176
     1
 44
0.0
176
     1
173
     0
176
     1
1001
ACAD
1000
AcDbSavedByObjectVersion
1070
     0
  0
VISUALSTYLE
  5
D6
102
{ACAD_XDICTIONARY
360
179
102
}
102
{ACAD_REACTORS
330
C3
102
}
330
C3
100
AcDbVisualStyle
  2
X-Ray
 70
    25
177
     2
291
     0
 71
     2
176
     1
 72
     2
176
     1
 73
     1
176
     1
 90
        1
176
     1
 40
0.5
176
     1
 41
30.0
176
     1
 63
     7
421
 16777215
176
     1
 74
     1
176
     1
 91
        0
176
     1
 64
     7
176
     1
 65
   257
176
     1
 75
     1
176
     1
175
     1
176
     1
 42
1.0
176
     1
 92
        8
176
     1
 66
     7
176
     1
 43
1.0
176
     1
 76
     1
176
     1
 77
     6
176
     1
 78
     2
176
     1
 67
     7
176
     1
 79
     3
176
     1
170
     0
176
     1
171
     0
176
     1
290
     0
176
     1
 93
       13
176
     1
 44
0.0
176
     1
173
     0
176
     1
1001
ACAD
1000
AcDbSavedByObjectVersion
1070
     0
  0
DICTIONARYVAR
  5
14E
102
{ACAD_REACTORS
330
148
102
}
330
148
100
DictionaryVariables
280
     0
  1
1:1
  0
DICTIONARYVAR
  5
14A
102
{ACAD_REACTORS
330
148
102
}
330
148
100
DictionaryVariables
280
     0
  1
STANDARD
  0
DICTIONARYVAR
  5
149
102
{ACAD_REACTORS
330
148
102
}
330
148
100
DictionaryVariables
280
     0
  1
STANDARD
  0
DICTIONARYVAR
  5
14B
102
{ACAD_REACTORS
330
148
102
}
330
148
100
DictionaryVariables
280
     0
  1
Imperial24
  0
DICTIONARYVAR
  5
14C
102
{ACAD_REACTORS
330
148
102
}
330
148
100
DictionaryVariables
280
     0
  1
Imperial24
  0
DICTIONARYVAR
  5
150
102
{ACAD_REACTORS
330
148
102
}
330
148
100
DictionaryVariables
280
     0
  1
1
  0
DICTIONARYVAR
  5
151
102
{ACAD_REACTORS
330
148
102
}
330
148
100
DictionaryVariables
280
     0
  1
15
  0
DICTIONARYVAR
  5
14F
102
{ACAD_REACTORS
330
148
102
}
330
148
100
DictionaryVariables
280
     0
  1
0
  0
DICTIONARYVAR
  5
14D
102
{ACAD_REACTORS
330
148
102
}
330
148
100
DictionaryVariables
280
     0
  1
0
  0
DICTIONARY
  5
189
330
F6
100
AcDbDictionary
280
     1
281
     1
  3
ACAD_XREC_ROUNDTRIP
360
18A
  0
DICTIONARY
  5
B4
330
B3
100
AcDbDictionary
280
     1
281
     1
  3
BUMPTILE
360
B6
  3
DIFFUSETILE
360
B5
  3
OPACITYTILE
360
B9
  3
REFLECTIONTILE
360
B8
  3
REFRACTIONTILE
360
BA
  3
SPECULARTILE
360
B7
  0
DICTIONARY
  5
AC
330
AB
100
AcDbDictionary
280
     1
281
     1
  3
BUMPTILE
360
AE
  3
DIFFUSETILE
360
AD
  3
OPACITYTILE
360
B1
  3
REFLECTIONTILE
360
B0
  3
REFRACTIONTILE
360
B2
  3
SPECULARTILE
360
AF
  0
DICTIONARY
  5
BC
330
BB
100
AcDbDictionary
280
     1
281
     1
  3
BUMPTILE
360
BE
  3
DIFFUSETILE
360
BD
  3
OPACITYTILE
360
C1
  3
REFLECTIONTILE
360
C0
  3
REFRACTIONTILE
360
C2
  3
SPECULARTILE
360
BF
  0
DICTIONARY
  5
185
330
F2
100
AcDbDictionary
280
     1
281
     1
  3
ACAD_XREC_ROUNDTRIP
360
186
  0
DICTIONARY
  5
187
330
F4
100
AcDbDictionary
280
     1
281
     1
  3
ACAD_XREC_ROUNDTRIP
360
188
  0
DICTIONARY
  5
152
330
DE
100
AcDbDictionary
280
     1
281
     1
  3
ACAD_ROUNDTRIP_2008_TABLESTYLE_CELLSTYLEMAP
360
153
  0
DICTIONARY
  5
15F
330
C9
100
AcDbDictionary
280
     1
281
     1
  3
ACAD_XREC_ROUNDTRIP
360
160
  0
DICTIONARY
  5
15D
330
C8
100
AcDbDictionary
280
     1
281
     1
  3
ACAD_XREC_ROUNDTRIP
360
15E
  0
DICTIONARY
  5
16B
330
CF
100
AcDbDictionary
280
     1
281
     1
  3
ACAD_XREC_ROUNDTRIP
360
16C
  0
DICTIONARY
  5
173
330
D3
100
AcDbDictionary
280
     1
281
     1
  3
ACAD_XREC_ROUNDTRIP
360
174
  0
DICTIONARY
  5
165
330
CC
100
AcDbDictionary
280
     1
281
     1
  3
ACAD_XREC_ROUNDTRIP
360
166
  0
DICTIONARY
  5
169
330
CE
100
AcDbDictionary
280
     1
281
     1
  3
ACAD_XREC_ROUNDTRIP
360
16A
  0
DICTIONARY
  5
183
330
DB
100
AcDbDictionary
280
     1
281
     1
  3
ACAD_XREC_ROUNDTRIP
360
184
  0
DICTIONARY
  5
171
330
D2
100
AcDbDictionary
280
     1
281
     1
  3
ACAD_XREC_ROUNDTRIP
360
172
  0
DICTIONARY
  5
155
330
C4
100
AcDbDictionary
280
     1
281
     1
  3
ACAD_XREC_ROUNDTRIP
360
156
  0
DICTIONARY
  5
157
330
C5
100
AcDbDictionary
280
     1
281
     1
  3
ACAD_XREC_ROUNDTRIP
360
158
  0
DICTIONARY
  5
159
330
C6
100
AcDbDictionary
280
     1
281
     1
  3
ACAD_XREC_ROUNDTRIP
360
15A
  0
DICTIONARY
  5
15B
330
C7
100
AcDbDictionary
280
     1
281
     1
  3
ACAD_XREC_ROUNDTRIP
360
15C
  0
DICTIONARY
  5
163
330
CB
100
AcDbDictionary
280
     1
281
     1
  3
ACAD_XREC_ROUNDTRIP
360
164
  0
DICTIONARY
  5
17F
330
D9
100
AcDbDictionary
280
     1
281
     1
  3
ACAD_XREC_ROUNDTRIP
360
180
  0
DICTIONARY
  5
16F
330
D1
100
AcDbDictionary
280
     1
281
     1
  3
ACAD_XREC_ROUNDTRIP
360
170
  0
DICTIONARY
  5
181
330
DA
100
AcDbDictionary
280
     1
281
     1
  3
ACAD_XREC_ROUNDTRIP
360
182
  0
DICTIONARY
  5
167
330
CD
100
AcDbDictionary
280
     1
281
     1
  3
ACAD_XREC_ROUNDTRIP
360
168
  0
DICTIONARY
  5
17D
330
D8
100
AcDbDictionary
280
     1
281
     1
  3
ACAD_XREC_ROUNDTRIP
360
17E
  0
DICTIONARY
  5
17B
330
D7
100
AcDbDictionary
280
     1
281
     1
  3
ACAD_XREC_ROUNDTRIP
360
17C
  0
DICTIONARY
  5
175
330
D4
100
AcDbDictionary
280
     1
281
     1
  3
ACAD_XREC_ROUNDTRIP
360
176
  0
DICTIONARY
  5
177
330
D5
100
AcDbDictionary
280
     1
281
     1
  3
ACAD_XREC_ROUNDTRIP
360
178
  0
DICTIONARY
  5
16D
330
D0
100
AcDbDictionary
280
     1
281
     1
  3
ACAD_XREC_ROUNDTRIP
360
16E
  0
DICTIONARY
  5
161
330
CA
100
AcDbDictionary
280
     1
281
     1
  3
ACAD_XREC_ROUNDTRIP
360
162
  0
DICTIONARY
  5
179
330
D6
100
AcDbDictionary
280
     1
281
     1
  3
ACAD_XREC_ROUNDTRIP
360
17A
  0
XRECORD
  5
18A
102
{ACAD_REACTORS
330
189
102
}
330
189
100
AcDbXrecord
280
     1
102
DISPLAYNAME
  1
Imperial24
102
FLAGS
 90
        0
  0
XRECORD
  5
B6
102
{ACAD_REACTORS
330
B4
102
}
330
B4
100
AcDbXrecord
280
     1
270
     1
271
     1
  0
XRECORD
  5
B5
102
{ACAD_REACTORS
330
B4
102
}
330
B4
100
AcDbXrecord
280
     1
270
     1
271
     1
  0
XRECORD
  5
B9
102
{ACAD_REACTORS
330
B4
102
}
330
B4
100
AcDbXrecord
280
     1
270
     1
271
     1
  0
XRECORD
  5
B8
102
{ACAD_REACTORS
330
B4
102
}
330
B4
100
AcDbXrecord
280
     1
270
     1
271
     1
  0
XRECORD
  5
BA
102
{ACAD_REACTORS
330
B4
102
}
330
B4
100
AcDbXrecord
280
     1
270
     1
271
     1
  0
XRECORD
  5
B7
102
{ACAD_REACTORS
330
B4
102
}
330
B4
100
AcDbXrecord
280
     1
270
     1
271
     1
  0
XRECORD
  5
AE
102
{ACAD_REACTORS
330
AC
102
}
330
AC
100
AcDbXrecord
280
     1
270
     1
271
     1
  0
XRECORD
  5
AD
102
{ACAD_REACTORS
330
AC
102
}
330
AC
100
AcDbXrecord
280
     1
270
     1
271
     1
  0
XRECORD
  5
B1
102
{ACAD_REACTORS
330
AC
102
}
330
AC
100
AcDbXrecord
280
     1
270
     1
271
     1
  0
XRECORD
  5
B0
102
{ACAD_REACTORS
330
AC
102
}
330
AC
100
AcDbXrecord
280
     1
270
     1
271
     1
  0
XRECORD
  5
B2
102
{ACAD_REACTORS
330
AC
102
}
330
AC
100
AcDbXrecord
280
     1
270
     1
271
     1
  0
XRECORD
  5
AF
102
{ACAD_REACTORS
330
AC
102
}
330
AC
100
AcDbXrecord
280
     1
270
     1
271
     1
  0
XRECORD
  5
BE
102
{ACAD_REACTORS
330
BC
102
}
330
BC
100
AcDbXrecord
280
     1
270
     1
271
     1
  0
XRECORD
  5
BD
102
{ACAD_REACTORS
330
BC
102
}
330
BC
100
AcDbXrecord
280
     1
270
     1
271
     1
  0
XRECORD
  5
C1
102
{ACAD_REACTORS
330
BC
102
}
330
BC
100
AcDbXrecord
280
     1
270
     1
271
     1
  0
XRECORD
  5
C0
102
{ACAD_REACTORS
330
BC
102
}
330
BC
100
AcDbXrecord
280
     1
270
     1
271
     1
  0
XRECORD
  5
C2
102
{ACAD_REACTORS
330
BC
102
}
330
BC
100
AcDbXrecord
280
     1
270
     1
271
     1
  0
XRECORD
  5
BF
102
{ACAD_REACTORS
330
BC
102
}
330
BC
100
AcDbXrecord
280
     1
270
     1
271
     1
  0
XRECORD
  5
186
102
{ACAD_REACTORS
330
185
102
}
330
185
100
AcDbXrecord
280
     1
102
ACAD_ROUNDTRIP_2012_MLEADER_STYLE
298
     1
  0
XRECORD
  5
188
102
{ACAD_REACTORS
330
187
102
}
330
187
100
AcDbXrecord
280
     1
102
DISPLAYNAME
  1
Imperial24
102
FLAGS
 90
        0
  0
CELLSTYLEMAP
  5
153
102
{ACAD_REACTORS
330
152
102
}
330
152
100
AcDbCellStyleMap
 90
        3
300
CELLSTYLE
  1
TABLEFORMAT_BEGIN
 90
        5
170
     1
 91
        0
 92
    32768
 62
   257
 93
        1
300
CONTENTFORMAT
  1
CONTENTFORMAT_BEGIN
 90
        0
 91
        0
 92
      512
 93
        0
300

 40
0.0
140
1.0
 94
        5
 62
     0
340
11
144
0.25
309
CONTENTFORMAT_END
171
     0
 94
        0
309
TABLEFORMAT_END
  1
CELLSTYLE_BEGIN
 90
        1
 91
        1
300
_TITLE
309
CELLSTYLE_END
300
CELLSTYLE
  1
TABLEFORMAT_BEGIN
 90
        5
170
     1
 91
        0
 92
        0
 62
   257
 93
        1
300
CONTENTFORMAT
  1
CONTENTFORMAT_BEGIN
 90
        0
 91
        0
 92
      512
 93
        0
300

 40
0.0
140
1.0
 94
        5
 62
     0
340
11
144
0.18
309
CONTENTFORMAT_END
171
     0
 94
        0
309
TABLEFORMAT_END
  1
CELLSTYLE_BEGIN
 90
        2
 91
        1
300
_HEADER
309
CELLSTYLE_END
300
CELLSTYLE
  1
TABLEFORMAT_BEGIN
 90
        5
170
     1
 91
        0
 92
        0
 62
   257
 93
        1
300
CONTENTFORMAT
  1
CONTENTFORMAT_BEGIN
 90
        0
 91
        0
 92
      512
 93
        0
300

 40
0.0
140
1.0
 94
        2
 62
     0
340
11
144
0.18
309
CONTENTFORMAT_END
171
     0
 94
        0
309
TABLEFORMAT_END
  1
CELLSTYLE_BEGIN
 90
        3
 91
        2
300
_DATA
309
CELLSTYLE_END
  0
XRECORD
  5
160
102
{ACAD_REACTORS
330
15F
102
}
330
15F
100
AcDbXrecord
280
     1
102
RTVSPost2010Prop28
280
     1
102
RTVSPost2010PropOp28
 70
     1
102
RTVSPost2010Prop29
280
     1
102
RTVSPost2010PropOp29
 70
     1
102
RTVSPost2010Prop30
280
     0
102
RTVSPost2010PropOp30
 70
     1
102
RTVSPost2010Prop31
280
     0
102
RTVSPost2010PropOp31
 70
     1
102
RTVSPost2010Prop32
280
     0
102
RTVSPost2010PropOp32
 70
     1
102
RTVSPost2010Prop33
280
     0
102
RTVSPost2010PropOp33
 70
     1
102
RTVSPost2010Prop34
280
     0
102
RTVSPost2010PropOp34
 70
     1
102
RTVSPost2010Prop35
280
     0
102
RTVSPost2010PropOp35
 70
     1
102
RTVSPost2010Prop36
280
     0
102
RTVSPost2010PropOp36
 70
     1
102
RTVSPost2010Prop37
 90
       50
102
RTVSPost2010PropOp37
 70
     1
102
RTVSPost2010Prop38
140
0.0
102
RTVSPost2010PropOp38
 70
     1
102
RTVSPost2010Prop39
140
1.0
102
RTVSPost2010PropOp39
 70
     1
102
RTVSPost2010Prop40
 90
        0
102
RTVSPost2010PropOp40
 70
     1
102
RTVSPost2010Prop41ColorIndex
 90
       18
102
RTVSPost2010Prop41ColorRGB
 90
        0
102
RTVSPost2010PropOp41
 70
     1
102
RTVSPost2010Prop42
 90
       50
102
RTVSPost2010PropOp42
 70
     1
102
RTVSPost2010Prop43
 90
        3
102
RTVSPost2010PropOp43
 70
     1
102
RTVSPost2010Prop44ColorIndex
 90
        5
102
RTVSPost2010Prop44ColorRGB
 90
      255
102
RTVSPost2010PropOp44
 70
     1
102
RTVSPost2010Prop45
280
     0
102
RTVSPost2010PropOp45
 70
     1
102
RTVSPost2010Prop46
 90
       50
102
RTVSPost2010PropOp46
 70
     1
102
RTVSPost2010Prop47
 90
       50
102
RTVSPost2010PropOp47
 70
     1
102
RTVSPost2010Prop48
 90
       50
102
RTVSPost2010PropOp48
 70
     1
102
RTVSPost2010Prop49
280
     0
102
RTVSPost2010PropOp49
 70
     1
102
RTVSPost2010Prop50
 90
       50
102
RTVSPost2010PropOp50
 70
     1
102
RTVSPost2010Prop51ColorIndex
 90
      256
102
RTVSPost2010Prop51ColorRGB
 90
-16777216
102
RTVSPost2010PropOp51
 70
     0
102
RTVSPost2010Prop52
140
1.0
102
RTVSPost2010PropOp52
 70
     0
102
RTVSPost2010Prop53
 90
        2
102
RTVSPost2010PropOp53
 70
     1
102
RTVSPost2010Prop54
  1
strokes_ogs.tif
102
RTVSPost2010PropOp54
 70
     1
102
RTVSPost2010Prop55
280
     0
102
RTVSPost2010PropOp55
 70
     1
102
RTVSPost2010Prop56
140
1.0
102
RTVSPost2010PropOp56
 70
     1
102
RTVSPost2010Prop57
140
1.0
102
RTVSPost2010PropOp57
 70
     1
  0
XRECORD
  5
15E
102
{ACAD_REACTORS
330
15D
102
}
330
15D
100
AcDbXrecord
280
     1
102
RTVSPost2010Prop28
280
     0
102
RTVSPost2010PropOp28
 70
     1
102
RTVSPost2010Prop29
280
     1
102
RTVSPost2010PropOp29
 70
     1
102
RTVSPost2010Prop30
280
     1
102
RTVSPost2010PropOp30
 70
     1
102
RTVSPost2010Prop31
280
     0
102
RTVSPost2010PropOp31
 70
     1
102
RTVSPost2010Prop32
280
     0
102
RTVSPost2010PropOp32
 70
     1
102
RTVSPost2010Prop33
280
     0
102
RTVSPost2010PropOp33
 70
     1
102
RTVSPost2010Prop34
280
     0
102
RTVSPost2010PropOp34
 70
     1
102
RTVSPost2010Prop35
280
     0
102
RTVSPost2010PropOp35
 70
     1
102
RTVSPost2010Prop36
280
     0
102
RTVSPost2010PropOp36
 70
     1
102
RTVSPost2010Prop37
 90
       50
102
RTVSPost2010PropOp37
 70
     1
102
RTVSPost2010Prop38
140
0.0
102
RTVSPost2010PropOp38
 70
     1
102
RTVSPost2010Prop39
140
1.0
102
RTVSPost2010PropOp39
 70
     1
102
RTVSPost2010Prop40
 90
        0
102
RTVSPost2010PropOp40
 70
     1
102
RTVSPost2010Prop41ColorIndex
 90
       18
102
RTVSPost2010Prop41ColorRGB
 90
        0
102
RTVSPost2010PropOp41
 70
     1
102
RTVSPost2010Prop42
 90
       50
102
RTVSPost2010PropOp42
 70
     1
102
RTVSPost2010Prop43
 90
        3
102
RTVSPost2010PropOp43
 70
     1
102
RTVSPost2010Prop44ColorIndex
 90
        5
102
RTVSPost2010Prop44ColorRGB
 90
      255
102
RTVSPost2010PropOp44
 70
     1
102
RTVSPost2010Prop45
280
     0
102
RTVSPost2010PropOp45
 70
     1
102
RTVSPost2010Prop46
 90
       50
102
RTVSPost2010PropOp46
 70
     1
102
RTVSPost2010Prop47
 90
       50
102
RTVSPost2010PropOp47
 70
     1
102
RTVSPost2010Prop48
 90
       50
102
RTVSPost2010PropOp48
 70
     1
102
RTVSPost2010Prop49
280
     0
102
RTVSPost2010PropOp49
 70
     1
102
RTVSPost2010Prop50
 90
       50
102
RTVSPost2010PropOp50
 70
     1
102
RTVSPost2010Prop51ColorIndex
 90
      256
102
RTVSPost2010Prop51ColorRGB
 90
-16777216
102
RTVSPost2010PropOp51
 70
     0
102
RTVSPost2010Prop52
140
1.0
102
RTVSPost2010PropOp52
 70
     0
102
RTVSPost2010Prop53
 90
        2
102
RTVSPost2010PropOp53
 70
     1
102
RTVSPost2010Prop54
  1
strokes_ogs.tif
102
RTVSPost2010PropOp54
 70
     1
102
RTVSPost2010Prop55
280
     0
102
RTVSPost2010PropOp55
 70
     1
102
RTVSPost2010Prop56
140
1.0
102
RTVSPost2010PropOp56
 70
     1
102
RTVSPost2010Prop57
140
1.0
102
RTVSPost2010PropOp57
 70
     1
  0
XRECORD
  5
16C
102
{ACAD_REACTORS
330
16B
102
}
330
16B
100
AcDbXrecord
280
     1
102
RTVSPost2010Prop28
280
     0
102
RTVSPost2010PropOp28
 70
     1
102
RTVSPost2010Prop29
280
     1
102
RTVSPost2010PropOp29
 70
     1
102
RTVSPost2010Prop30
280
     1
102
RTVSPost2010PropOp30
 70
     1
102
RTVSPost2010Prop31
280
     0
102
RTVSPost2010PropOp31
 70
     1
102
RTVSPost2010Prop32
280
     0
102
RTVSPost2010PropOp32
 70
     1
102
RTVSPost2010Prop33
280
     0
102
RTVSPost2010PropOp33
 70
     1
102
RTVSPost2010Prop34
280
     0
102
RTVSPost2010PropOp34
 70
     1
102
RTVSPost2010Prop35
280
     0
102
RTVSPost2010PropOp35
 70
     1
102
RTVSPost2010Prop36
280
     0
102
RTVSPost2010PropOp36
 70
     1
102
RTVSPost2010Prop37
 90
       50
102
RTVSPost2010PropOp37
 70
     1
102
RTVSPost2010Prop38
140
0.0
102
RTVSPost2010PropOp38
 70
     1
102
RTVSPost2010Prop39
140
1.0
102
RTVSPost2010PropOp39
 70
     1
102
RTVSPost2010Prop40
 90
        0
102
RTVSPost2010PropOp40
 70
     1
102
RTVSPost2010Prop41ColorIndex
 90
       18
102
RTVSPost2010Prop41ColorRGB
 90
        0
102
RTVSPost2010PropOp41
 70
     1
102
RTVSPost2010Prop42
 90
       50
102
RTVSPost2010PropOp42
 70
     1
102
RTVSPost2010Prop43
 90
        3
102
RTVSPost2010PropOp43
 70
     1
102
RTVSPost2010Prop44ColorIndex
 90
        5
102
RTVSPost2010Prop44ColorRGB
 90
      255
102
RTVSPost2010PropOp44
 70
     1
102
RTVSPost2010Prop45
280
     0
102
RTVSPost2010PropOp45
 70
     1
102
RTVSPost2010Prop46
 90
       50
102
RTVSPost2010PropOp46
 70
     1
102
RTVSPost2010Prop47
 90
       50
102
RTVSPost2010PropOp47
 70
     1
102
RTVSPost2010Prop48
 90
       50
102
RTVSPost2010PropOp48
 70
     1
102
RTVSPost2010Prop49
280
     0
102
RTVSPost2010PropOp49
 70
     1
102
RTVSPost2010Prop50
 90
       50
102
RTVSPost2010PropOp50
 70
     1
102
RTVSPost2010Prop51ColorIndex
 90
      256
102
RTVSPost2010Prop51ColorRGB
 90
-16777216
102
RTVSPost2010PropOp51
 70
     0
102
RTVSPost2010Prop52
140
1.0
102
RTVSPost2010PropOp52
 70
     0
102
RTVSPost2010Prop53
 90
        2
102
RTVSPost2010PropOp53
 70
     1
102
RTVSPost2010Prop54
  1
strokes_ogs.tif
102
RTVSPost2010PropOp54
 70
     1
102
RTVSPost2010Prop55
280
     0
102
RTVSPost2010PropOp55
 70
     1
102
RTVSPost2010Prop56
140
1.0
102
RTVSPost2010PropOp56
 70
     1
102
RTVSPost2010Prop57
140
1.0
102
RTVSPost2010PropOp57
 70
     1
  0
XRECORD
  5
174
102
{ACAD_REACTORS
330
173
102
}
330
173
100
AcDbXrecord
280
     1
102
RTVSPost2010Prop28
280
     0
102
RTVSPost2010PropOp28
 70
     1
102
RTVSPost2010Prop29
280
     1
102
RTVSPost2010PropOp29
 70
     1
102
RTVSPost2010Prop30
280
     1
102
RTVSPost2010PropOp30
 70
     1
102
RTVSPost2010Prop31
280
     0
102
RTVSPost2010PropOp31
 70
     1
102
RTVSPost2010Prop32
280
     0
102
RTVSPost2010PropOp32
 70
     1
102
RTVSPost2010Prop33
280
     0
102
RTVSPost2010PropOp33
 70
     1
102
RTVSPost2010Prop34
280
     0
102
RTVSPost2010PropOp34
 70
     1
102
RTVSPost2010Prop35
280
     0
102
RTVSPost2010PropOp35
 70
     1
102
RTVSPost2010Prop36
280
     0
102
RTVSPost2010PropOp36
 70
     1
102
RTVSPost2010Prop37
 90
       50
102
RTVSPost2010PropOp37
 70
     1
102
RTVSPost2010Prop38
140
0.0
102
RTVSPost2010PropOp38
 70
     1
102
RTVSPost2010Prop39
140
1.0
102
RTVSPost2010PropOp39
 70
     1
102
RTVSPost2010Prop40
 90
        0
102
RTVSPost2010PropOp40
 70
     1
102
RTVSPost2010Prop41ColorIndex
 90
       18
102
RTVSPost2010Prop41ColorRGB
 90
        0
102
RTVSPost2010PropOp41
 70
     1
102
RTVSPost2010Prop42
 90
       50
102
RTVSPost2010PropOp42
 70
     1
102
RTVSPost2010Prop43
 90
        3
102
RTVSPost2010PropOp43
 70
     1
102
RTVSPost2010Prop44ColorIndex
 90
        5
102
RTVSPost2010Prop44ColorRGB
 90
      255
102
RTVSPost2010PropOp44
 70
     1
102
RTVSPost2010Prop45
280
     0
102
RTVSPost2010PropOp45
 70
     1
102
RTVSPost2010Prop46
 90
       50
102
RTVSPost2010PropOp46
 70
     1
102
RTVSPost2010Prop47
 90
       50
102
RTVSPost2010PropOp47
 70
     1
102
RTVSPost2010Prop48
 90
       50
102
RTVSPost2010PropOp48
 70
     1
102
RTVSPost2010Prop49
280
     0
102
RTVSPost2010PropOp49
 70
     1
102
RTVSPost2010Prop50
 90
       50
102
RTVSPost2010PropOp50
 70
     1
102
RTVSPost2010Prop51ColorIndex
 90
      256
102
RTVSPost2010Prop51ColorRGB
 90
-16777216
102
RTVSPost2010PropOp51
 70
     0
102
RTVSPost2010Prop52
140
1.0
102
RTVSPost2010PropOp52
 70
     0
102
RTVSPost2010Prop53
 90
        2
102
RTVSPost2010PropOp53
 70
     1
102
RTVSPost2010Prop54
  1
strokes_ogs.tif
102
RTVSPost2010PropOp54
 70
     1
102
RTVSPost2010Prop55
280
     0
102
RTVSPost2010PropOp55
 70
     1
102
RTVSPost2010Prop56
140
1.0
102
RTVSPost2010PropOp56
 70
     1
102
RTVSPost2010Prop57
140
1.0
102
RTVSPost2010PropOp57
 70
     1
  0
XRECORD
  5
166
102
{ACAD_REACTORS
330
165
102
}
330
165
100
AcDbXrecord
280
     1
102
RTVSPost2010Prop28
280
     0
102
RTVSPost2010PropOp28
 70
     1
102
RTVSPost2010Prop29
280
     1
102
RTVSPost2010PropOp29
 70
     1
102
RTVSPost2010Prop30
280
     1
102
RTVSPost2010PropOp30
 70
     1
102
RTVSPost2010Prop31
280
     0
102
RTVSPost2010PropOp31
 70
     1
102
RTVSPost2010Prop32
280
     0
102
RTVSPost2010PropOp32
 70
     1
102
RTVSPost2010Prop33
280
     0
102
RTVSPost2010PropOp33
 70
     1
102
RTVSPost2010Prop34
280
     0
102
RTVSPost2010PropOp34
 70
     1
102
RTVSPost2010Prop35
280
     0
102
RTVSPost2010PropOp35
 70
     1
102
RTVSPost2010Prop36
280
     0
102
RTVSPost2010PropOp36
 70
     1
102
RTVSPost2010Prop37
 90
       50
102
RTVSPost2010PropOp37
 70
     1
102
RTVSPost2010Prop38
140
0.0
102
RTVSPost2010PropOp38
 70
     1
102
RTVSPost2010Prop39
140
1.0
102
RTVSPost2010PropOp39
 70
     1
102
RTVSPost2010Prop40
 90
        0
102
RTVSPost2010PropOp40
 70
     1
102
RTVSPost2010Prop41ColorIndex
 90
       18
102
RTVSPost2010Prop41ColorRGB
 90
        0
102
RTVSPost2010PropOp41
 70
     1
102
RTVSPost2010Prop42
 90
       50
102
RTVSPost2010PropOp42
 70
     1
102
RTVSPost2010Prop43
 90
        3
102
RTVSPost2010PropOp43
 70
     1
102
RTVSPost2010Prop44ColorIndex
 90
        5
102
RTVSPost2010Prop44ColorRGB
 90
      255
102
RTVSPost2010PropOp44
 70
     1
102
RTVSPost2010Prop45
280
     0
102
RTVSPost2010PropOp45
 70
     1
102
RTVSPost2010Prop46
 90
       50
102
RTVSPost2010PropOp46
 70
     1
102
RTVSPost2010Prop47
 90
       50
102
RTVSPost2010PropOp47
 70
     1
102
RTVSPost2010Prop48
 90
       50
102
RTVSPost2010PropOp48
 70
     1
102
RTVSPost2010Prop49
280
     0
102
RTVSPost2010PropOp49
 70
     1
102
RTVSPost2010Prop50
 90
       50
102
RTVSPost2010PropOp50
 70
     1
102
RTVSPost2010Prop51ColorIndex
 90
      256
102
RTVSPost2010Prop51ColorRGB
 90
-16777216
102
RTVSPost2010PropOp51
 70
     0
102
RTVSPost2010Prop52
140
1.0
102
RTVSPost2010PropOp52
 70
     0
102
RTVSPost2010Prop53
 90
        2
102
RTVSPost2010PropOp53
 70
     1
102
RTVSPost2010Prop54
  1
strokes_ogs.tif
102
RTVSPost2010PropOp54
 70
     1
102
RTVSPost2010Prop55
280
     0
102
RTVSPost2010PropOp55
 70
     1
102
RTVSPost2010Prop56
140
1.0
102
RTVSPost2010PropOp56
 70
     1
102
RTVSPost2010Prop57
140
1.0
102
RTVSPost2010PropOp57
 70
     1
  0
XRECORD
  5
16A
102
{ACAD_REACTORS
330
169
102
}
330
169
100
AcDbXrecord
280
     1
102
RTVSPost2010Prop28
280
     0
102
RTVSPost2010PropOp28
 70
     1
102
RTVSPost2010Prop29
280
     1
102
RTVSPost2010PropOp29
 70
     1
102
RTVSPost2010Prop30
280
     1
102
RTVSPost2010PropOp30
 70
     1
102
RTVSPost2010Prop31
280
     0
102
RTVSPost2010PropOp31
 70
     1
102
RTVSPost2010Prop32
280
     0
102
RTVSPost2010PropOp32
 70
     1
102
RTVSPost2010Prop33
280
     0
102
RTVSPost2010PropOp33
 70
     1
102
RTVSPost2010Prop34
280
     0
102
RTVSPost2010PropOp34
 70
     1
102
RTVSPost2010Prop35
280
     0
102
RTVSPost2010PropOp35
 70
     1
102
RTVSPost2010Prop36
280
     0
102
RTVSPost2010PropOp36
 70
     1
102
RTVSPost2010Prop37
 90
       50
102
RTVSPost2010PropOp37
 70
     1
102
RTVSPost2010Prop38
140
0.0
102
RTVSPost2010PropOp38
 70
     1
102
RTVSPost2010Prop39
140
1.0
102
RTVSPost2010PropOp39
 70
     1
102
RTVSPost2010Prop40
 90
        0
102
RTVSPost2010PropOp40
 70
     1
102
RTVSPost2010Prop41ColorIndex
 90
       18
102
RTVSPost2010Prop41ColorRGB
 90
        0
102
RTVSPost2010PropOp41
 70
     1
102
RTVSPost2010Prop42
 90
       50
102
RTVSPost2010PropOp42
 70
     1
102
RTVSPost2010Prop43
 90
        3
102
RTVSPost2010PropOp43
 70
     1
102
RTVSPost2010Prop44ColorIndex
 90
        5
102
RTVSPost2010Prop44ColorRGB
 90
      255
102
RTVSPost2010PropOp44
 70
     1
102
RTVSPost2010Prop45
280
     0
102
RTVSPost2010PropOp45
 70
     1
102
RTVSPost2010Prop46
 90
       50
102
RTVSPost2010PropOp46
 70
     1
102
RTVSPost2010Prop47
 90
       50
102
RTVSPost2010PropOp47
 70
     1
102
RTVSPost2010Prop48
 90
       50
102
RTVSPost2010PropOp48
 70
     1
102
RTVSPost2010Prop49
280
     0
102
RTVSPost2010PropOp49
 70
     1
102
RTVSPost2010Prop50
 90
       50
102
RTVSPost2010PropOp50
 70
     1
102
RTVSPost2010Prop51ColorIndex
 90
      256
102
RTVSPost2010Prop51ColorRGB
 90
-16777216
102
RTVSPost2010PropOp51
 70
     0
102
RTVSPost2010Prop52
140
1.0
102
RTVSPost2010PropOp52
 70
     0
102
RTVSPost2010Prop53
 90
        2
102
RTVSPost2010PropOp53
 70
     1
102
RTVSPost2010Prop54
  1
strokes_ogs.tif
102
RTVSPost2010PropOp54
 70
     1
102
RTVSPost2010Prop55
280
     0
102
RTVSPost2010PropOp55
 70
     1
102
RTVSPost2010Prop56
140
1.0
102
RTVSPost2010PropOp56
 70
     1
102
RTVSPost2010Prop57
140
1.0
102
RTVSPost2010PropOp57
 70
     1
  0
XRECORD
  5
184
102
{ACAD_REACTORS
330
183
102
}
330
183
100
AcDbXrecord
280
     1
102
RTVSPost2010Prop28
280
     0
102
RTVSPost2010PropOp28
 70
     0
102
RTVSPost2010Prop29
280
     1
102
RTVSPost2010PropOp29
 70
     0
102
RTVSPost2010Prop30
280
     1
102
RTVSPost2010PropOp30
 70
     0
102
RTVSPost2010Prop31
280
     0
102
RTVSPost2010PropOp31
 70
     0
102
RTVSPost2010Prop32
280
     0
102
RTVSPost2010PropOp32
 70
     0
102
RTVSPost2010Prop33
280
     0
102
RTVSPost2010PropOp33
 70
     0
102
RTVSPost2010Prop34
280
     0
102
RTVSPost2010PropOp34
 70
     0
102
RTVSPost2010Prop35
280
     0
102
RTVSPost2010PropOp35
 70
     0
102
RTVSPost2010Prop36
280
     0
102
RTVSPost2010PropOp36
 70
     0
102
RTVSPost2010Prop37
 90
       50
102
RTVSPost2010PropOp37
 70
     0
102
RTVSPost2010Prop38
140
0.0
102
RTVSPost2010PropOp38
 70
     0
102
RTVSPost2010Prop39
140
1.0
102
RTVSPost2010PropOp39
 70
     0
102
RTVSPost2010Prop40
 90
        0
102
RTVSPost2010PropOp40
 70
     0
102
RTVSPost2010Prop41ColorIndex
 90
       18
102
RTVSPost2010Prop41ColorRGB
 90
        0
102
RTVSPost2010PropOp41
 70
     0
102
RTVSPost2010Prop42
 90
       50
102
RTVSPost2010PropOp42
 70
     0
102
RTVSPost2010Prop43
 90
        3
102
RTVSPost2010PropOp43
 70
     0
102
RTVSPost2010Prop44ColorIndex
 90
        5
102
RTVSPost2010Prop44ColorRGB
 90
      255
102
RTVSPost2010PropOp44
 70
     0
102
RTVSPost2010Prop45
280
     0
102
RTVSPost2010PropOp45
 70
     0
102
RTVSPost2010Prop46
 90
       50
102
RTVSPost2010PropOp46
 70
     0
102
RTVSPost2010Prop47
 90
       50
102
RTVSPost2010PropOp47
 70
     0
102
RTVSPost2010Prop48
 90
       50
102
RTVSPost2010PropOp48
 70
     0
102
RTVSPost2010Prop49
280
     0
102
RTVSPost2010PropOp49
 70
     0
102
RTVSPost2010Prop50
 90
       50
102
RTVSPost2010PropOp50
 70
     0
102
RTVSPost2010Prop51ColorIndex
 90
      256
102
RTVSPost2010Prop51ColorRGB
 90
-16777216
102
RTVSPost2010PropOp51
 70
     0
102
RTVSPost2010Prop52
140
1.0
102
RTVSPost2010PropOp52
 70
     0
102
RTVSPost2010Prop53
 90
        2
102
RTVSPost2010PropOp53
 70
     0
102
RTVSPost2010Prop54
  1
strokes_ogs.tif
102
RTVSPost2010PropOp54
 70
     0
102
RTVSPost2010Prop55
280
     0
102
RTVSPost2010PropOp55
 70
     0
102
RTVSPost2010Prop56
140
1.0
102
RTVSPost2010PropOp56
 70
     0
102
RTVSPost2010Prop57
140
1.0
102
RTVSPost2010PropOp57
 70
     0
  0
XRECORD
  5
172
102
{ACAD_REACTORS
330
171
102
}
330
171
100
AcDbXrecord
280
     1
102
RTVSPost2010Prop28
280
     0
102
RTVSPost2010PropOp28
 70
     1
102
RTVSPost2010Prop29
280
     1
102
RTVSPost2010PropOp29
 70
     1
102
RTVSPost2010Prop30
280
     1
102
RTVSPost2010PropOp30
 70
     1
102
RTVSPost2010Prop31
280
     0
102
RTVSPost2010PropOp31
 70
     1
102
RTVSPost2010Prop32
280
     0
102
RTVSPost2010PropOp32
 70
     1
102
RTVSPost2010Prop33
280
     0
102
RTVSPost2010PropOp33
 70
     1
102
RTVSPost2010Prop34
280
     0
102
RTVSPost2010PropOp34
 70
     1
102
RTVSPost2010Prop35
280
     0
102
RTVSPost2010PropOp35
 70
     1
102
RTVSPost2010Prop36
280
     0
102
RTVSPost2010PropOp36
 70
     1
102
RTVSPost2010Prop37
 90
       50
102
RTVSPost2010PropOp37
 70
     1
102
RTVSPost2010Prop38
140
0.0
102
RTVSPost2010PropOp38
 70
     1
102
RTVSPost2010Prop39
140
1.0
102
RTVSPost2010PropOp39
 70
     1
102
RTVSPost2010Prop40
 90
        0
102
RTVSPost2010PropOp40
 70
     1
102
RTVSPost2010Prop41ColorIndex
 90
       18
102
RTVSPost2010Prop41ColorRGB
 90
        0
102
RTVSPost2010PropOp41
 70
     1
102
RTVSPost2010Prop42
 90
       50
102
RTVSPost2010PropOp42
 70
     1
102
RTVSPost2010Prop43
 90
        3
102
RTVSPost2010PropOp43
 70
     1
102
RTVSPost2010Prop44ColorIndex
 90
        5
102
RTVSPost2010Prop44ColorRGB
 90
      255
102
RTVSPost2010PropOp44
 70
     1
102
RTVSPost2010Prop45
280
     0
102
RTVSPost2010PropOp45
 70
     1
102
RTVSPost2010Prop46
 90
       50
102
RTVSPost2010PropOp46
 70
     1
102
RTVSPost2010Prop47
 90
       50
102
RTVSPost2010PropOp47
 70
     1
102
RTVSPost2010Prop48
 90
       50
102
RTVSPost2010PropOp48
 70
     1
102
RTVSPost2010Prop49
280
     0
102
RTVSPost2010PropOp49
 70
     1
102
RTVSPost2010Prop50
 90
       50
102
RTVSPost2010PropOp50
 70
     1
102
RTVSPost2010Prop51ColorIndex
 90
      256
102
RTVSPost2010Prop51ColorRGB
 90
-16777216
102
RTVSPost2010PropOp51
 70
     0
102
RTVSPost2010Prop52
140
1.0
102
RTVSPost2010PropOp52
 70
     0
102
RTVSPost2010Prop53
 90
        2
102
RTVSPost2010PropOp53
 70
     1
102
RTVSPost2010Prop54
  1
strokes_ogs.tif
102
RTVSPost2010PropOp54
 70
     1
102
RTVSPost2010Prop55
280
     0
102
RTVSPost2010PropOp55
 70
     1
102
RTVSPost2010Prop56
140
1.0
102
RTVSPost2010PropOp56
 70
     1
102
RTVSPost2010Prop57
140
1.0
102
RTVSPost2010PropOp57
 70
     1
  0
XRECORD
  5
156
102
{ACAD_REACTORS
330
155
102
}
330
155
100
AcDbXrecord
280
     1
102
RTVSPost2010Prop28
280
     0
102
RTVSPost2010PropOp28
 70
     1
102
RTVSPost2010Prop29
280
     1
102
RTVSPost2010PropOp29
 70
     1
102
RTVSPost2010Prop30
280
     1
102
RTVSPost2010PropOp30
 70
     1
102
RTVSPost2010Prop31
280
     0
102
RTVSPost2010PropOp31
 70
     1
102
RTVSPost2010Prop32
280
     0
102
RTVSPost2010PropOp32
 70
     1
102
RTVSPost2010Prop33
280
     0
102
RTVSPost2010PropOp33
 70
     1
102
RTVSPost2010Prop34
280
     0
102
RTVSPost2010PropOp34
 70
     1
102
RTVSPost2010Prop35
280
     0
102
RTVSPost2010PropOp35
 70
     1
102
RTVSPost2010Prop36
280
     0
102
RTVSPost2010PropOp36
 70
     1
102
RTVSPost2010Prop37
 90
       50
102
RTVSPost2010PropOp37
 70
     1
102
RTVSPost2010Prop38
140
0.0
102
RTVSPost2010PropOp38
 70
     1
102
RTVSPost2010Prop39
140
1.0
102
RTVSPost2010PropOp39
 70
     1
102
RTVSPost2010Prop40
 90
        0
102
RTVSPost2010PropOp40
 70
     1
102
RTVSPost2010Prop41ColorIndex
 90
       18
102
RTVSPost2010Prop41ColorRGB
 90
        0
102
RTVSPost2010PropOp41
 70
     1
102
RTVSPost2010Prop42
 90
       50
102
RTVSPost2010PropOp42
 70
     1
102
RTVSPost2010Prop43
 90
        3
102
RTVSPost2010PropOp43
 70
     1
102
RTVSPost2010Prop44ColorIndex
 90
        5
102
RTVSPost2010Prop44ColorRGB
 90
      255
102
RTVSPost2010PropOp44
 70
     1
102
RTVSPost2010Prop45
280
     0
102
RTVSPost2010PropOp45
 70
     1
102
RTVSPost2010Prop46
 90
       50
102
RTVSPost2010PropOp46
 70
     1
102
RTVSPost2010Prop47
 90
       50
102
RTVSPost2010PropOp47
 70
     1
102
RTVSPost2010Prop48
 90
       50
102
RTVSPost2010PropOp48
 70
     1
102
RTVSPost2010Prop49
280
     0
102
RTVSPost2010PropOp49
 70
     1
102
RTVSPost2010Prop50
 90
       50
102
RTVSPost2010PropOp50
 70
     1
102
RTVSPost2010Prop51ColorIndex
 90
      256
102
RTVSPost2010Prop51ColorRGB
 90
-16777216
102
RTVSPost2010PropOp51
 70
     0
102
RTVSPost2010Prop52
140
1.0
102
RTVSPost2010PropOp52
 70
     0
102
RTVSPost2010Prop53
 90
        2
102
RTVSPost2010PropOp53
 70
     1
102
RTVSPost2010Prop54
  1
strokes_ogs.tif
102
RTVSPost2010PropOp54
 70
     1
102
RTVSPost2010Prop55
280
     0
102
RTVSPost2010PropOp55
 70
     1
102
RTVSPost2010Prop56
140
1.0
102
RTVSPost2010PropOp56
 70
     1
102
RTVSPost2010Prop57
140
1.0
102
RTVSPost2010PropOp57
 70
     1
  0
XRECORD
  5
158
102
{ACAD_REACTORS
330
157
102
}
330
157
100
AcDbXrecord
280
     1
102
RTVSPost2010Prop28
280
     0
102
RTVSPost2010PropOp28
 70
     1
102
RTVSPost2010Prop29
280
     1
102
RTVSPost2010PropOp29
 70
     1
102
RTVSPost2010Prop30
280
     1
102
RTVSPost2010PropOp30
 70
     1
102
RTVSPost2010Prop31
280
     0
102
RTVSPost2010PropOp31
 70
     1
102
RTVSPost2010Prop32
280
     0
102
RTVSPost2010PropOp32
 70
     1
102
RTVSPost2010Prop33
280
     0
102
RTVSPost2010PropOp33
 70
     1
102
RTVSPost2010Prop34
280
     0
102
RTVSPost2010PropOp34
 70
     1
102
RTVSPost2010Prop35
280
     0
102
RTVSPost2010PropOp35
 70
     1
102
RTVSPost2010Prop36
280
     0
102
RTVSPost2010PropOp36
 70
     1
102
RTVSPost2010Prop37
 90
       50
102
RTVSPost2010PropOp37
 70
     1
102
RTVSPost2010Prop38
140
0.0
102
RTVSPost2010PropOp38
 70
     1
102
RTVSPost2010Prop39
140
1.0
102
RTVSPost2010PropOp39
 70
     1
102
RTVSPost2010Prop40
 90
        0
102
RTVSPost2010PropOp40
 70
     1
102
RTVSPost2010Prop41ColorIndex
 90
       18
102
RTVSPost2010Prop41ColorRGB
 90
        0
102
RTVSPost2010PropOp41
 70
     1
102
RTVSPost2010Prop42
 90
       50
102
RTVSPost2010PropOp42
 70
     1
102
RTVSPost2010Prop43
 90
        3
102
RTVSPost2010PropOp43
 70
     1
102
RTVSPost2010Prop44ColorIndex
 90
        5
102
RTVSPost2010Prop44ColorRGB
 90
      255
102
RTVSPost2010PropOp44
 70
     1
102
RTVSPost2010Prop45
280
     0
102
RTVSPost2010PropOp45
 70
     1
102
RTVSPost2010Prop46
 90
       50
102
RTVSPost2010PropOp46
 70
     1
102
RTVSPost2010Prop47
 90
       50
102
RTVSPost2010PropOp47
 70
     1
102
RTVSPost2010Prop48
 90
       50
102
RTVSPost2010PropOp48
 70
     1
102
RTVSPost2010Prop49
280
     0
102
RTVSPost2010PropOp49
 70
     1
102
RTVSPost2010Prop50
 90
       50
102
RTVSPost2010PropOp50
 70
     1
102
RTVSPost2010Prop51ColorIndex
 90
      256
102
RTVSPost2010Prop51ColorRGB
 90
-16777216
102
RTVSPost2010PropOp51
 70
     0
102
RTVSPost2010Prop52
140
1.0
102
RTVSPost2010PropOp52
 70
     0
102
RTVSPost2010Prop53
 90
        2
102
RTVSPost2010PropOp53
 70
     1
102
RTVSPost2010Prop54
  1
strokes_ogs.tif
102
RTVSPost2010PropOp54
 70
     1
102
RTVSPost2010Prop55
280
     0
102
RTVSPost2010PropOp55
 70
     1
102
RTVSPost2010Prop56
140
1.0
102
RTVSPost2010PropOp56
 70
     1
102
RTVSPost2010Prop57
140
1.0
102
RTVSPost2010PropOp57
 70
     1
  0
XRECORD
  5
15A
102
{ACAD_REACTORS
330
159
102
}
330
159
100
AcDbXrecord
280
     1
102
RTVSPost2010Prop28
280
     0
102
RTVSPost2010PropOp28
 70
     1
102
RTVSPost2010Prop29
280
     1
102
RTVSPost2010PropOp29
 70
     1
102
RTVSPost2010Prop30
280
     1
102
RTVSPost2010PropOp30
 70
     1
102
RTVSPost2010Prop31
280
     0
102
RTVSPost2010PropOp31
 70
     1
102
RTVSPost2010Prop32
280
     0
102
RTVSPost2010PropOp32
 70
     1
102
RTVSPost2010Prop33
280
     0
102
RTVSPost2010PropOp33
 70
     1
102
RTVSPost2010Prop34
280
     0
102
RTVSPost2010PropOp34
 70
     1
102
RTVSPost2010Prop35
280
     0
102
RTVSPost2010PropOp35
 70
     1
102
RTVSPost2010Prop36
280
     0
102
RTVSPost2010PropOp36
 70
     1
102
RTVSPost2010Prop37
 90
       50
102
RTVSPost2010PropOp37
 70
     1
102
RTVSPost2010Prop38
140
0.0
102
RTVSPost2010PropOp38
 70
     1
102
RTVSPost2010Prop39
140
1.0
102
RTVSPost2010PropOp39
 70
     1
102
RTVSPost2010Prop40
 90
        0
102
RTVSPost2010PropOp40
 70
     1
102
RTVSPost2010Prop41ColorIndex
 90
       18
102
RTVSPost2010Prop41ColorRGB
 90
        0
102
RTVSPost2010PropOp41
 70
     1
102
RTVSPost2010Prop42
 90
       50
102
RTVSPost2010PropOp42
 70
     1
102
RTVSPost2010Prop43
 90
        3
102
RTVSPost2010PropOp43
 70
     1
102
RTVSPost2010Prop44ColorIndex
 90
        5
102
RTVSPost2010Prop44ColorRGB
 90
      255
102
RTVSPost2010PropOp44
 70
     1
102
RTVSPost2010Prop45
280
     0
102
RTVSPost2010PropOp45
 70
     1
102
RTVSPost2010Prop46
 90
       50
102
RTVSPost2010PropOp46
 70
     1
102
RTVSPost2010Prop47
 90
       50
102
RTVSPost2010PropOp47
 70
     1
102
RTVSPost2010Prop48
 90
       50
102
RTVSPost2010PropOp48
 70
     1
102
RTVSPost2010Prop49
280
     0
102
RTVSPost2010PropOp49
 70
     1
102
RTVSPost2010Prop50
 90
       50
102
RTVSPost2010PropOp50
 70
     1
102
RTVSPost2010Prop51ColorIndex
 90
      256
102
RTVSPost2010Prop51ColorRGB
 90
-16777216
102
RTVSPost2010PropOp51
 70
     0
102
RTVSPost2010Prop52
140
1.0
102
RTVSPost2010PropOp52
 70
     0
102
RTVSPost2010Prop53
 90
        2
102
RTVSPost2010PropOp53
 70
     1
102
RTVSPost2010Prop54
  1
strokes_ogs.tif
102
RTVSPost2010PropOp54
 70
     1
102
RTVSPost2010Prop55
280
     0
102
RTVSPost2010PropOp55
 70
     1
102
RTVSPost2010Prop56
140
1.0
102
RTVSPost2010PropOp56
 70
     1
102
RTVSPost2010Prop57
140
1.0
102
RTVSPost2010PropOp57
 70
     1
  0
XRECORD
  5
15C
102
{ACAD_REACTORS
330
15B
102
}
330
15B
100
AcDbXrecord
280
     1
102
RTVSPost2010Prop28
280
     0
102
RTVSPost2010PropOp28
 70
     1
102
RTVSPost2010Prop29
280
     1
102
RTVSPost2010PropOp29
 70
     1
102
RTVSPost2010Prop30
280
     1
102
RTVSPost2010PropOp30
 70
     1
102
RTVSPost2010Prop31
280
     0
102
RTVSPost2010PropOp31
 70
     1
102
RTVSPost2010Prop32
280
     0
102
RTVSPost2010PropOp32
 70
     1
102
RTVSPost2010Prop33
280
     0
102
RTVSPost2010PropOp33
 70
     1
102
RTVSPost2010Prop34
280
     0
102
RTVSPost2010PropOp34
 70
     1
102
RTVSPost2010Prop35
280
     0
102
RTVSPost2010PropOp35
 70
     1
102
RTVSPost2010Prop36
280
     0
102
RTVSPost2010PropOp36
 70
     1
102
RTVSPost2010Prop37
 90
       50
102
RTVSPost2010PropOp37
 70
     1
102
RTVSPost2010Prop38
140
0.0
102
RTVSPost2010PropOp38
 70
     1
102
RTVSPost2010Prop39
140
1.0
102
RTVSPost2010PropOp39
 70
     1
102
RTVSPost2010Prop40
 90
        0
102
RTVSPost2010PropOp40
 70
     1
102
RTVSPost2010Prop41ColorIndex
 90
       18
102
RTVSPost2010Prop41ColorRGB
 90
        0
102
RTVSPost2010PropOp41
 70
     1
102
RTVSPost2010Prop42
 90
       50
102
RTVSPost2010PropOp42
 70
     1
102
RTVSPost2010Prop43
 90
        3
102
RTVSPost2010PropOp43
 70
     1
102
RTVSPost2010Prop44ColorIndex
 90
        5
102
RTVSPost2010Prop44ColorRGB
 90
      255
102
RTVSPost2010PropOp44
 70
     1
102
RTVSPost2010Prop45
280
     0
102
RTVSPost2010PropOp45
 70
     1
102
RTVSPost2010Prop46
 90
       50
102
RTVSPost2010PropOp46
 70
     1
102
RTVSPost2010Prop47
 90
       50
102
RTVSPost2010PropOp47
 70
     1
102
RTVSPost2010Prop48
 90
       50
102
RTVSPost2010PropOp48
 70
     1
102
RTVSPost2010Prop49
280
     0
102
RTVSPost2010PropOp49
 70
     1
102
RTVSPost2010Prop50
 90
       50
102
RTVSPost2010PropOp50
 70
     1
102
RTVSPost2010Prop51ColorIndex
 90
      256
102
RTVSPost2010Prop51ColorRGB
 90
-16777216
102
RTVSPost2010PropOp51
 70
     0
102
RTVSPost2010Prop52
140
1.0
102
RTVSPost2010PropOp52
 70
     0
102
RTVSPost2010Prop53
 90
        2
102
RTVSPost2010PropOp53
 70
     1
102
RTVSPost2010Prop54
  1
strokes_ogs.tif
102
RTVSPost2010PropOp54
 70
     1
102
RTVSPost2010Prop55
280
     0
102
RTVSPost2010PropOp55
 70
     1
102
RTVSPost2010Prop56
140
1.0
102
RTVSPost2010PropOp56
 70
     1
102
RTVSPost2010Prop57
140
1.0
102
RTVSPost2010PropOp57
 70
     1
  0
XRECORD
  5
164
102
{ACAD_REACTORS
330
163
102
}
330
163
100
AcDbXrecord
280
     1
102
RTVSPost2010Prop28
280
     0
102
RTVSPost2010PropOp28
 70
     1
102
RTVSPost2010Prop29
280
     1
102
RTVSPost2010PropOp29
 70
     1
102
RTVSPost2010Prop30
280
     1
102
RTVSPost2010PropOp30
 70
     1
102
RTVSPost2010Prop31
280
     0
102
RTVSPost2010PropOp31
 70
     1
102
RTVSPost2010Prop32
280
     0
102
RTVSPost2010PropOp32
 70
     1
102
RTVSPost2010Prop33
280
     0
102
RTVSPost2010PropOp33
 70
     1
102
RTVSPost2010Prop34
280
     0
102
RTVSPost2010PropOp34
 70
     1
102
RTVSPost2010Prop35
280
     0
102
RTVSPost2010PropOp35
 70
     1
102
RTVSPost2010Prop36
280
     0
102
RTVSPost2010PropOp36
 70
     1
102
RTVSPost2010Prop37
 90
       50
102
RTVSPost2010PropOp37
 70
     1
102
RTVSPost2010Prop38
140
0.0
102
RTVSPost2010PropOp38
 70
     1
102
RTVSPost2010Prop39
140
1.0
102
RTVSPost2010PropOp39
 70
     1
102
RTVSPost2010Prop40
 90
        0
102
RTVSPost2010PropOp40
 70
     1
102
RTVSPost2010Prop41ColorIndex
 90
       18
102
RTVSPost2010Prop41ColorRGB
 90
        0
102
RTVSPost2010PropOp41
 70
     1
102
RTVSPost2010Prop42
 90
       50
102
RTVSPost2010PropOp42
 70
     1
102
RTVSPost2010Prop43
 90
        3
102
RTVSPost2010PropOp43
 70
     1
102
RTVSPost2010Prop44ColorIndex
 90
        5
102
RTVSPost2010Prop44ColorRGB
 90
      255
102
RTVSPost2010PropOp44
 70
     1
102
RTVSPost2010Prop45
280
     0
102
RTVSPost2010PropOp45
 70
     1
102
RTVSPost2010Prop46
 90
       50
102
RTVSPost2010PropOp46
 70
     1
102
RTVSPost2010Prop47
 90
       50
102
RTVSPost2010PropOp47
 70
     1
102
RTVSPost2010Prop48
 90
       50
102
RTVSPost2010PropOp48
 70
     1
102
RTVSPost2010Prop49
280
     0
102
RTVSPost2010PropOp49
 70
     1
102
RTVSPost2010Prop50
 90
       50
102
RTVSPost2010PropOp50
 70
     1
102
RTVSPost2010Prop51ColorIndex
 90
      256
102
RTVSPost2010Prop51ColorRGB
 90
-16777216
102
RTVSPost2010PropOp51
 70
     0
102
RTVSPost2010Prop52
140
1.0
102
RTVSPost2010PropOp52
 70
     0
102
RTVSPost2010Prop53
 90
        2
102
RTVSPost2010PropOp53
 70
     1
102
RTVSPost2010Prop54
  1
strokes_ogs.tif
102
RTVSPost2010PropOp54
 70
     1
102
RTVSPost2010Prop55
280
     0
102
RTVSPost2010PropOp55
 70
     1
102
RTVSPost2010Prop56
140
1.0
102
RTVSPost2010PropOp56
 70
     1
102
RTVSPost2010Prop57
140
1.0
102
RTVSPost2010PropOp57
 70
     1
  0
XRECORD
  5
180
102
{ACAD_REACTORS
330
17F
102
}
330
17F
100
AcDbXrecord
280
     1
102
RTVSPost2010Prop28
280
     0
102
RTVSPost2010PropOp28
 70
     0
102
RTVSPost2010Prop29
280
     1
102
RTVSPost2010PropOp29
 70
     0
102
RTVSPost2010Prop30
280
     1
102
RTVSPost2010PropOp30
 70
     0
102
RTVSPost2010Prop31
280
     0
102
RTVSPost2010PropOp31
 70
     0
102
RTVSPost2010Prop32
280
     0
102
RTVSPost2010PropOp32
 70
     0
102
RTVSPost2010Prop33
280
     0
102
RTVSPost2010PropOp33
 70
     0
102
RTVSPost2010Prop34
280
     0
102
RTVSPost2010PropOp34
 70
     0
102
RTVSPost2010Prop35
280
     0
102
RTVSPost2010PropOp35
 70
     0
102
RTVSPost2010Prop36
280
     0
102
RTVSPost2010PropOp36
 70
     0
102
RTVSPost2010Prop37
 90
       50
102
RTVSPost2010PropOp37
 70
     0
102
RTVSPost2010Prop38
140
0.0
102
RTVSPost2010PropOp38
 70
     0
102
RTVSPost2010Prop39
140
1.0
102
RTVSPost2010PropOp39
 70
     0
102
RTVSPost2010Prop40
 90
        0
102
RTVSPost2010PropOp40
 70
     0
102
RTVSPost2010Prop41ColorIndex
 90
       18
102
RTVSPost2010Prop41ColorRGB
 90
        0
102
RTVSPost2010PropOp41
 70
     0
102
RTVSPost2010Prop42
 90
       50
102
RTVSPost2010PropOp42
 70
     0
102
RTVSPost2010Prop43
 90
        3
102
RTVSPost2010PropOp43
 70
     0
102
RTVSPost2010Prop44ColorIndex
 90
        5
102
RTVSPost2010Prop44ColorRGB
 90
      255
102
RTVSPost2010PropOp44
 70
     0
102
RTVSPost2010Prop45
280
     0
102
RTVSPost2010PropOp45
 70
     0
102
RTVSPost2010Prop46
 90
       50
102
RTVSPost2010PropOp46
 70
     0
102
RTVSPost2010Prop47
 90
       50
102
RTVSPost2010PropOp47
 70
     0
102
RTVSPost2010Prop48
 90
       50
102
RTVSPost2010PropOp48
 70
     0
102
RTVSPost2010Prop49
280
     0
102
RTVSPost2010PropOp49
 70
     0
102
RTVSPost2010Prop50
 90
       50
102
RTVSPost2010PropOp50
 70
     0
102
RTVSPost2010Prop51ColorIndex
 90
      256
102
RTVSPost2010Prop51ColorRGB
 90
-16777216
102
RTVSPost2010PropOp51
 70
     0
102
RTVSPost2010Prop52
140
1.0
102
RTVSPost2010PropOp52
 70
     0
102
RTVSPost2010Prop53
 90
        2
102
RTVSPost2010PropOp53
 70
     0
102
RTVSPost2010Prop54
  1
strokes_ogs.tif
102
RTVSPost2010PropOp54
 70
     0
102
RTVSPost2010Prop55
280
     0
102
RTVSPost2010PropOp55
 70
     0
102
RTVSPost2010Prop56
140
1.0
102
RTVSPost2010PropOp56
 70
     0
102
RTVSPost2010Prop57
140
1.0
102
RTVSPost2010PropOp57
 70
     0
  0
XRECORD
  5
170
102
{ACAD_REACTORS
330
16F
102
}
330
16F
100
AcDbXrecord
280
     1
102
RTVSPost2010Prop28
280
     0
102
RTVSPost2010PropOp28
 70
     1
102
RTVSPost2010Prop29
280
     1
102
RTVSPost2010PropOp29
 70
     1
102
RTVSPost2010Prop30
280
     1
102
RTVSPost2010PropOp30
 70
     1
102
RTVSPost2010Prop31
280
     0
102
RTVSPost2010PropOp31
 70
     1
102
RTVSPost2010Prop32
280
     0
102
RTVSPost2010PropOp32
 70
     1
102
RTVSPost2010Prop33
280
     0
102
RTVSPost2010PropOp33
 70
     1
102
RTVSPost2010Prop34
280
     0
102
RTVSPost2010PropOp34
 70
     1
102
RTVSPost2010Prop35
280
     0
102
RTVSPost2010PropOp35
 70
     1
102
RTVSPost2010Prop36
280
     0
102
RTVSPost2010PropOp36
 70
     1
102
RTVSPost2010Prop37
 90
       50
102
RTVSPost2010PropOp37
 70
     1
102
RTVSPost2010Prop38
140
0.0
102
RTVSPost2010PropOp38
 70
     1
102
RTVSPost2010Prop39
140
1.0
102
RTVSPost2010PropOp39
 70
     1
102
RTVSPost2010Prop40
 90
        0
102
RTVSPost2010PropOp40
 70
     1
102
RTVSPost2010Prop41ColorIndex
 90
       18
102
RTVSPost2010Prop41ColorRGB
 90
        0
102
RTVSPost2010PropOp41
 70
     1
102
RTVSPost2010Prop42
 90
       50
102
RTVSPost2010PropOp42
 70
     1
102
RTVSPost2010Prop43
 90
        3
102
RTVSPost2010PropOp43
 70
     1
102
RTVSPost2010Prop44ColorIndex
 90
        5
102
RTVSPost2010Prop44ColorRGB
 90
      255
102
RTVSPost2010PropOp44
 70
     1
102
RTVSPost2010Prop45
280
     0
102
RTVSPost2010PropOp45
 70
     1
102
RTVSPost2010Prop46
 90
       50
102
RTVSPost2010PropOp46
 70
     1
102
RTVSPost2010Prop47
 90
       50
102
RTVSPost2010PropOp47
 70
     1
102
RTVSPost2010Prop48
 90
       50
102
RTVSPost2010PropOp48
 70
     1
102
RTVSPost2010Prop49
280
     0
102
RTVSPost2010PropOp49
 70
     1
102
RTVSPost2010Prop50
 90
       50
102
RTVSPost2010PropOp50
 70
     1
102
RTVSPost2010Prop51ColorIndex
 90
      256
102
RTVSPost2010Prop51ColorRGB
 90
-16777216
102
RTVSPost2010PropOp51
 70
     0
102
RTVSPost2010Prop52
140
1.0
102
RTVSPost2010PropOp52
 70
     0
102
RTVSPost2010Prop53
 90
        2
102
RTVSPost2010PropOp53
 70
     1
102
RTVSPost2010Prop54
  1
strokes_ogs.tif
102
RTVSPost2010PropOp54
 70
     1
102
RTVSPost2010Prop55
280
     0
102
RTVSPost2010PropOp55
 70
     1
102
RTVSPost2010Prop56
140
1.0
102
RTVSPost2010PropOp56
 70
     1
102
RTVSPost2010Prop57
140
1.0
102
RTVSPost2010PropOp57
 70
     1
  0
XRECORD
  5
182
102
{ACAD_REACTORS
330
181
102
}
330
181
100
AcDbXrecord
280
     1
102
RTVSPost2010Prop28
280
     0
102
RTVSPost2010PropOp28
 70
     0
102
RTVSPost2010Prop29
280
     1
102
RTVSPost2010PropOp29
 70
     0
102
RTVSPost2010Prop30
280
     1
102
RTVSPost2010PropOp30
 70
     0
102
RTVSPost2010Prop31
280
     0
102
RTVSPost2010PropOp31
 70
     0
102
RTVSPost2010Prop32
280
     0
102
RTVSPost2010PropOp32
 70
     0
102
RTVSPost2010Prop33
280
     0
102
RTVSPost2010PropOp33
 70
     0
102
RTVSPost2010Prop34
280
     0
102
RTVSPost2010PropOp34
 70
     0
102
RTVSPost2010Prop35
280
     0
102
RTVSPost2010PropOp35
 70
     0
102
RTVSPost2010Prop36
280
     0
102
RTVSPost2010PropOp36
 70
     0
102
RTVSPost2010Prop37
 90
       50
102
RTVSPost2010PropOp37
 70
     0
102
RTVSPost2010Prop38
140
0.0
102
RTVSPost2010PropOp38
 70
     0
102
RTVSPost2010Prop39
140
1.0
102
RTVSPost2010PropOp39
 70
     0
102
RTVSPost2010Prop40
 90
        0
102
RTVSPost2010PropOp40
 70
     0
102
RTVSPost2010Prop41ColorIndex
 90
       18
102
RTVSPost2010Prop41ColorRGB
 90
        0
102
RTVSPost2010PropOp41
 70
     0
102
RTVSPost2010Prop42
 90
       50
102
RTVSPost2010PropOp42
 70
     0
102
RTVSPost2010Prop43
 90
        3
102
RTVSPost2010PropOp43
 70
     0
102
RTVSPost2010Prop44ColorIndex
 90
        5
102
RTVSPost2010Prop44ColorRGB
 90
      255
102
RTVSPost2010PropOp44
 70
     0
102
RTVSPost2010Prop45
280
     0
102
RTVSPost2010PropOp45
 70
     0
102
RTVSPost2010Prop46
 90
       50
102
RTVSPost2010PropOp46
 70
     0
102
RTVSPost2010Prop47
 90
       50
102
RTVSPost2010PropOp47
 70
     0
102
RTVSPost2010Prop48
 90
       50
102
RTVSPost2010PropOp48
 70
     0
102
RTVSPost2010Prop49
280
     0
102
RTVSPost2010PropOp49
 70
     0
102
RTVSPost2010Prop50
 90
       50
102
RTVSPost2010PropOp50
 70
     0
102
RTVSPost2010Prop51ColorIndex
 90
      256
102
RTVSPost2010Prop51ColorRGB
 90
-16777216
102
RTVSPost2010PropOp51
 70
     0
102
RTVSPost2010Prop52
140
1.0
102
RTVSPost2010PropOp52
 70
     0
102
RTVSPost2010Prop53
 90
        2
102
RTVSPost2010PropOp53
 70
     0
102
RTVSPost2010Prop54
  1
strokes_ogs.tif
102
RTVSPost2010PropOp54
 70
     0
102
RTVSPost2010Prop55
280
     0
102
RTVSPost2010PropOp55
 70
     0
102
RTVSPost2010Prop56
140
1.0
102
RTVSPost2010PropOp56
 70
     0
102
RTVSPost2010Prop57
140
1.0
102
RTVSPost2010PropOp57
 70
     0
  0
XRECORD
  5
168
102
{ACAD_REACTORS
330
167
102
}
330
167
100
AcDbXrecord
280
     1
102
RTVSPost2010Prop28
280
     0
102
RTVSPost2010PropOp28
 70
     1
102
RTVSPost2010Prop29
280
     1
102
RTVSPost2010PropOp29
 70
     1
102
RTVSPost2010Prop30
280
     1
102
RTVSPost2010PropOp30
 70
     1
102
RTVSPost2010Prop31
280
     0
102
RTVSPost2010PropOp31
 70
     1
102
RTVSPost2010Prop32
280
     0
102
RTVSPost2010PropOp32
 70
     1
102
RTVSPost2010Prop33
280
     0
102
RTVSPost2010PropOp33
 70
     1
102
RTVSPost2010Prop34
280
     0
102
RTVSPost2010PropOp34
 70
     1
102
RTVSPost2010Prop35
280
     0
102
RTVSPost2010PropOp35
 70
     1
102
RTVSPost2010Prop36
280
     0
102
RTVSPost2010PropOp36
 70
     1
102
RTVSPost2010Prop37
 90
       50
102
RTVSPost2010PropOp37
 70
     1
102
RTVSPost2010Prop38
140
0.0
102
RTVSPost2010PropOp38
 70
     1
102
RTVSPost2010Prop39
140
1.0
102
RTVSPost2010PropOp39
 70
     1
102
RTVSPost2010Prop40
 90
        0
102
RTVSPost2010PropOp40
 70
     1
102
RTVSPost2010Prop41ColorIndex
 90
       18
102
RTVSPost2010Prop41ColorRGB
 90
        0
102
RTVSPost2010PropOp41
 70
     1
102
RTVSPost2010Prop42
 90
       50
102
RTVSPost2010PropOp42
 70
     1
102
RTVSPost2010Prop43
 90
        3
102
RTVSPost2010PropOp43
 70
     1
102
RTVSPost2010Prop44ColorIndex
 90
        5
102
RTVSPost2010Prop44ColorRGB
 90
      255
102
RTVSPost2010PropOp44
 70
     1
102
RTVSPost2010Prop45
280
     0
102
RTVSPost2010PropOp45
 70
     1
102
RTVSPost2010Prop46
 90
       50
102
RTVSPost2010PropOp46
 70
     1
102
RTVSPost2010Prop47
 90
       50
102
RTVSPost2010PropOp47
 70
     1
102
RTVSPost2010Prop48
 90
       50
102
RTVSPost2010PropOp48
 70
     1
102
RTVSPost2010Prop49
280
     0
102
RTVSPost2010PropOp49
 70
     1
102
RTVSPost2010Prop50
 90
       50
102
RTVSPost2010PropOp50
 70
     1
102
RTVSPost2010Prop51ColorIndex
 90
      256
102
RTVSPost2010Prop51ColorRGB
 90
-16777216
102
RTVSPost2010PropOp51
 70
     0
102
RTVSPost2010Prop52
140
1.0
102
RTVSPost2010PropOp52
 70
     0
102
RTVSPost2010Prop53
 90
        2
102
RTVSPost2010PropOp53
 70
     1
102
RTVSPost2010Prop54
  1
strokes_ogs.tif
102
RTVSPost2010PropOp54
 70
     1
102
RTVSPost2010Prop55
280
     0
102
RTVSPost2010PropOp55
 70
     1
102
RTVSPost2010Prop56
140
1.0
102
RTVSPost2010PropOp56
 70
     1
102
RTVSPost2010Prop57
140
1.0
102
RTVSPost2010PropOp57
 70
     1
  0
XRECORD
  5
17E
102
{ACAD_REACTORS
330
17D
102
}
330
17D
100
AcDbXrecord
280
     1
102
RTVSPost2010Prop28
280
     0
102
RTVSPost2010PropOp28
 70
     1
102
RTVSPost2010Prop29
280
     1
102
RTVSPost2010PropOp29
 70
     1
102
RTVSPost2010Prop30
280
     1
102
RTVSPost2010PropOp30
 70
     1
102
RTVSPost2010Prop31
280
     0
102
RTVSPost2010PropOp31
 70
     1
102
RTVSPost2010Prop32
280
     0
102
RTVSPost2010PropOp32
 70
     1
102
RTVSPost2010Prop33
280
     0
102
RTVSPost2010PropOp33
 70
     1
102
RTVSPost2010Prop34
280
     0
102
RTVSPost2010PropOp34
 70
     1
102
RTVSPost2010Prop35
280
     0
102
RTVSPost2010PropOp35
 70
     1
102
RTVSPost2010Prop36
280
     0
102
RTVSPost2010PropOp36
 70
     1
102
RTVSPost2010Prop37
 90
       50
102
RTVSPost2010PropOp37
 70
     1
102
RTVSPost2010Prop38
140
0.0
102
RTVSPost2010PropOp38
 70
     1
102
RTVSPost2010Prop39
140
1.0
102
RTVSPost2010PropOp39
 70
     1
102
RTVSPost2010Prop40
 90
        0
102
RTVSPost2010PropOp40
 70
     1
102
RTVSPost2010Prop41ColorIndex
 90
       18
102
RTVSPost2010Prop41ColorRGB
 90
        0
102
RTVSPost2010PropOp41
 70
     1
102
RTVSPost2010Prop42
 90
       50
102
RTVSPost2010PropOp42
 70
     1
102
RTVSPost2010Prop43
 90
        3
102
RTVSPost2010PropOp43
 70
     1
102
RTVSPost2010Prop44ColorIndex
 90
        5
102
RTVSPost2010Prop44ColorRGB
 90
      255
102
RTVSPost2010PropOp44
 70
     1
102
RTVSPost2010Prop45
280
     0
102
RTVSPost2010PropOp45
 70
     1
102
RTVSPost2010Prop46
 90
       50
102
RTVSPost2010PropOp46
 70
     1
102
RTVSPost2010Prop47
 90
       50
102
RTVSPost2010PropOp47
 70
     1
102
RTVSPost2010Prop48
 90
       50
102
RTVSPost2010PropOp48
 70
     1
102
RTVSPost2010Prop49
280
     0
102
RTVSPost2010PropOp49
 70
     1
102
RTVSPost2010Prop50
 90
       50
102
RTVSPost2010PropOp50
 70
     1
102
RTVSPost2010Prop51ColorIndex
 90
      256
102
RTVSPost2010Prop51ColorRGB
 90
-16777216
102
RTVSPost2010PropOp51
 70
     0
102
RTVSPost2010Prop52
140
1.0
102
RTVSPost2010PropOp52
 70
     0
102
RTVSPost2010Prop53
 90
        2
102
RTVSPost2010PropOp53
 70
     1
102
RTVSPost2010Prop54
  1
strokes_ogs.tif
102
RTVSPost2010PropOp54
 70
     1
102
RTVSPost2010Prop55
280
     0
102
RTVSPost2010PropOp55
 70
     1
102
RTVSPost2010Prop56
140
1.0
102
RTVSPost2010PropOp56
 70
     1
102
RTVSPost2010Prop57
140
1.0
102
RTVSPost2010PropOp57
 70
     1
  0
XRECORD
  5
17C
102
{ACAD_REACTORS
330
17B
102
}
330
17B
100
AcDbXrecord
280
     1
102
RTVSPost2010Prop28
280
     0
102
RTVSPost2010PropOp28
 70
     1
102
RTVSPost2010Prop29
280
     1
102
RTVSPost2010PropOp29
 70
     1
102
RTVSPost2010Prop30
280
     1
102
RTVSPost2010PropOp30
 70
     1
102
RTVSPost2010Prop31
280
     0
102
RTVSPost2010PropOp31
 70
     1
102
RTVSPost2010Prop32
280
     0
102
RTVSPost2010PropOp32
 70
     1
102
RTVSPost2010Prop33
280
     0
102
RTVSPost2010PropOp33
 70
     1
102
RTVSPost2010Prop34
280
     0
102
RTVSPost2010PropOp34
 70
     1
102
RTVSPost2010Prop35
280
     0
102
RTVSPost2010PropOp35
 70
     1
102
RTVSPost2010Prop36
280
     0
102
RTVSPost2010PropOp36
 70
     1
102
RTVSPost2010Prop37
 90
       50
102
RTVSPost2010PropOp37
 70
     1
102
RTVSPost2010Prop38
140
0.0
102
RTVSPost2010PropOp38
 70
     1
102
RTVSPost2010Prop39
140
1.0
102
RTVSPost2010PropOp39
 70
     1
102
RTVSPost2010Prop40
 90
        0
102
RTVSPost2010PropOp40
 70
     1
102
RTVSPost2010Prop41ColorIndex
 90
       18
102
RTVSPost2010Prop41ColorRGB
 90
        0
102
RTVSPost2010PropOp41
 70
     1
102
RTVSPost2010Prop42
 90
       50
102
RTVSPost2010PropOp42
 70
     1
102
RTVSPost2010Prop43
 90
        3
102
RTVSPost2010PropOp43
 70
     1
102
RTVSPost2010Prop44ColorIndex
 90
        5
102
RTVSPost2010Prop44ColorRGB
 90
      255
102
RTVSPost2010PropOp44
 70
     1
102
RTVSPost2010Prop45
280
     0
102
RTVSPost2010PropOp45
 70
     1
102
RTVSPost2010Prop46
 90
       50
102
RTVSPost2010PropOp46
 70
     1
102
RTVSPost2010Prop47
 90
       50
102
RTVSPost2010PropOp47
 70
     1
102
RTVSPost2010Prop48
 90
       50
102
RTVSPost2010PropOp48
 70
     1
102
RTVSPost2010Prop49
280
     0
102
RTVSPost2010PropOp49
 70
     1
102
RTVSPost2010Prop50
 90
       50
102
RTVSPost2010PropOp50
 70
     1
102
RTVSPost2010Prop51ColorIndex
 90
      256
102
RTVSPost2010Prop51ColorRGB
 90
-16777216
102
RTVSPost2010PropOp51
 70
     0
102
RTVSPost2010Prop52
140
1.0
102
RTVSPost2010PropOp52
 70
     0
102
RTVSPost2010Prop53
 90
        2
102
RTVSPost2010PropOp53
 70
     1
102
RTVSPost2010Prop54
  1
strokes_ogs.tif
102
RTVSPost2010PropOp54
 70
     1
102
RTVSPost2010Prop55
280
     0
102
RTVSPost2010PropOp55
 70
     1
102
RTVSPost2010Prop56
140
1.0
102
RTVSPost2010PropOp56
 70
     1
102
RTVSPost2010Prop57
140
1.0
102
RTVSPost2010PropOp57
 70
     1
  0
XRECORD
  5
176
102
{ACAD_REACTORS
330
175
102
}
330
175
100
AcDbXrecord
280
     1
102
RTVSPost2010Prop28
280
     0
102
RTVSPost2010PropOp28
 70
     1
102
RTVSPost2010Prop29
280
     1
102
RTVSPost2010PropOp29
 70
     1
102
RTVSPost2010Prop30
280
     1
102
RTVSPost2010PropOp30
 70
     1
102
RTVSPost2010Prop31
280
     0
102
RTVSPost2010PropOp31
 70
     1
102
RTVSPost2010Prop32
280
     0
102
RTVSPost2010PropOp32
 70
     1
102
RTVSPost2010Prop33
280
     0
102
RTVSPost2010PropOp33
 70
     1
102
RTVSPost2010Prop34
280
     0
102
RTVSPost2010PropOp34
 70
     1
102
RTVSPost2010Prop35
280
     0
102
RTVSPost2010PropOp35
 70
     1
102
RTVSPost2010Prop36
280
     0
102
RTVSPost2010PropOp36
 70
     1
102
RTVSPost2010Prop37
 90
       50
102
RTVSPost2010PropOp37
 70
     1
102
RTVSPost2010Prop38
140
0.0
102
RTVSPost2010PropOp38
 70
     1
102
RTVSPost2010Prop39
140
1.0
102
RTVSPost2010PropOp39
 70
     1
102
RTVSPost2010Prop40
 90
        0
102
RTVSPost2010PropOp40
 70
     1
102
RTVSPost2010Prop41ColorIndex
 90
       18
102
RTVSPost2010Prop41ColorRGB
 90
        0
102
RTVSPost2010PropOp41
 70
     1
102
RTVSPost2010Prop42
 90
       50
102
RTVSPost2010PropOp42
 70
     1
102
RTVSPost2010Prop43
 90
        3
102
RTVSPost2010PropOp43
 70
     1
102
RTVSPost2010Prop44ColorIndex
 90
        5
102
RTVSPost2010Prop44ColorRGB
 90
      255
102
RTVSPost2010PropOp44
 70
     1
102
RTVSPost2010Prop45
280
     0
102
RTVSPost2010PropOp45
 70
     1
102
RTVSPost2010Prop46
 90
       50
102
RTVSPost2010PropOp46
 70
     1
102
RTVSPost2010Prop47
 90
       50
102
RTVSPost2010PropOp47
 70
     1
102
RTVSPost2010Prop48
 90
       50
102
RTVSPost2010PropOp48
 70
     1
102
RTVSPost2010Prop49
280
     0
102
RTVSPost2010PropOp49
 70
     1
102
RTVSPost2010Prop50
 90
       50
102
RTVSPost2010PropOp50
 70
     1
102
RTVSPost2010Prop51ColorIndex
 90
      256
102
RTVSPost2010Prop51ColorRGB
 90
-16777216
102
RTVSPost2010PropOp51
 70
     0
102
RTVSPost2010Prop52
140
1.0
102
RTVSPost2010PropOp52
 70
     0
102
RTVSPost2010Prop53
 90
        2
102
RTVSPost2010PropOp53
 70
     1
102
RTVSPost2010Prop54
  1
strokes_ogs.tif
102
RTVSPost2010PropOp54
 70
     1
102
RTVSPost2010Prop55
280
     0
102
RTVSPost2010PropOp55
 70
     1
102
RTVSPost2010Prop56
140
1.0
102
RTVSPost2010PropOp56
 70
     1
102
RTVSPost2010Prop57
140
1.0
102
RTVSPost2010PropOp57
 70
     1
  0
XRECORD
  5
178
102
{ACAD_REACTORS
330
177
102
}
330
177
100
AcDbXrecord
280
     1
102
RTVSPost2010Prop28
280
     0
102
RTVSPost2010PropOp28
 70
     1
102
RTVSPost2010Prop29
280
     1
102
RTVSPost2010PropOp29
 70
     1
102
RTVSPost2010Prop30
280
     1
102
RTVSPost2010PropOp30
 70
     1
102
RTVSPost2010Prop31
280
     0
102
RTVSPost2010PropOp31
 70
     1
102
RTVSPost2010Prop32
280
     0
102
RTVSPost2010PropOp32
 70
     1
102
RTVSPost2010Prop33
280
     0
102
RTVSPost2010PropOp33
 70
     1
102
RTVSPost2010Prop34
280
     0
102
RTVSPost2010PropOp34
 70
     1
102
RTVSPost2010Prop35
280
     0
102
RTVSPost2010PropOp35
 70
     1
102
RTVSPost2010Prop36
280
     0
102
RTVSPost2010PropOp36
 70
     1
102
RTVSPost2010Prop37
 90
       50
102
RTVSPost2010PropOp37
 70
     1
102
RTVSPost2010Prop38
140
0.0
102
RTVSPost2010PropOp38
 70
     1
102
RTVSPost2010Prop39
140
1.0
102
RTVSPost2010PropOp39
 70
     1
102
RTVSPost2010Prop40
 90
        0
102
RTVSPost2010PropOp40
 70
     1
102
RTVSPost2010Prop41ColorIndex
 90
       18
102
RTVSPost2010Prop41ColorRGB
 90
        0
102
RTVSPost2010PropOp41
 70
     1
102
RTVSPost2010Prop42
 90
       50
102
RTVSPost2010PropOp42
 70
     1
102
RTVSPost2010Prop43
 90
        3
102
RTVSPost2010PropOp43
 70
     1
102
RTVSPost2010Prop44ColorIndex
 90
        5
102
RTVSPost2010Prop44ColorRGB
 90
      255
102
RTVSPost2010PropOp44
 70
     1
102
RTVSPost2010Prop45
280
     0
102
RTVSPost2010PropOp45
 70
     1
102
RTVSPost2010Prop46
 90
       50
102
RTVSPost2010PropOp46
 70
     1
102
RTVSPost2010Prop47
 90
       50
102
RTVSPost2010PropOp47
 70
     1
102
RTVSPost2010Prop48
 90
       50
102
RTVSPost2010PropOp48
 70
     1
102
RTVSPost2010Prop49
280
     0
102
RTVSPost2010PropOp49
 70
     1
102
RTVSPost2010Prop50
 90
       50
102
RTVSPost2010PropOp50
 70
     1
102
RTVSPost2010Prop51ColorIndex
 90
      256
102
RTVSPost2010Prop51ColorRGB
 90
-16777216
102
RTVSPost2010PropOp51
 70
     0
102
RTVSPost2010Prop52
140
1.0
102
RTVSPost2010PropOp52
 70
     0
102
RTVSPost2010Prop53
 90
        2
102
RTVSPost2010PropOp53
 70
     1
102
RTVSPost2010Prop54
  1
strokes_ogs.tif
102
RTVSPost2010PropOp54
 70
     1
102
RTVSPost2010Prop55
280
     0
102
RTVSPost2010PropOp55
 70
     1
102
RTVSPost2010Prop56
140
1.0
102
RTVSPost2010PropOp56
 70
     1
102
RTVSPost2010Prop57
140
1.0
102
RTVSPost2010PropOp57
 70
     1
  0
XRECORD
  5
16E
102
{ACAD_REACTORS
330
16D
102
}
330
16D
100
AcDbXrecord
280
     1
102
RTVSPost2010Prop28
280
     0
102
RTVSPost2010PropOp28
 70
     1
102
RTVSPost2010Prop29
280
     1
102
RTVSPost2010PropOp29
 70
     1
102
RTVSPost2010Prop30
280
     1
102
RTVSPost2010PropOp30
 70
     1
102
RTVSPost2010Prop31
280
     0
102
RTVSPost2010PropOp31
 70
     1
102
RTVSPost2010Prop32
280
     0
102
RTVSPost2010PropOp32
 70
     1
102
RTVSPost2010Prop33
280
     0
102
RTVSPost2010PropOp33
 70
     1
102
RTVSPost2010Prop34
280
     0
102
RTVSPost2010PropOp34
 70
     1
102
RTVSPost2010Prop35
280
     0
102
RTVSPost2010PropOp35
 70
     1
102
RTVSPost2010Prop36
280
     0
102
RTVSPost2010PropOp36
 70
     1
102
RTVSPost2010Prop37
 90
       50
102
RTVSPost2010PropOp37
 70
     1
102
RTVSPost2010Prop38
140
0.0
102
RTVSPost2010PropOp38
 70
     1
102
RTVSPost2010Prop39
140
1.0
102
RTVSPost2010PropOp39
 70
     1
102
RTVSPost2010Prop40
 90
        0
102
RTVSPost2010PropOp40
 70
     1
102
RTVSPost2010Prop41ColorIndex
 90
       18
102
RTVSPost2010Prop41ColorRGB
 90
        0
102
RTVSPost2010PropOp41
 70
     1
102
RTVSPost2010Prop42
 90
       50
102
RTVSPost2010PropOp42
 70
     1
102
RTVSPost2010Prop43
 90
        3
102
RTVSPost2010PropOp43
 70
     1
102
RTVSPost2010Prop44ColorIndex
 90
        5
102
RTVSPost2010Prop44ColorRGB
 90
      255
102
RTVSPost2010PropOp44
 70
     1
102
RTVSPost2010Prop45
280
     0
102
RTVSPost2010PropOp45
 70
     1
102
RTVSPost2010Prop46
 90
       50
102
RTVSPost2010PropOp46
 70
     1
102
RTVSPost2010Prop47
 90
       50
102
RTVSPost2010PropOp47
 70
     1
102
RTVSPost2010Prop48
 90
       50
102
RTVSPost2010PropOp48
 70
     1
102
RTVSPost2010Prop49
280
     0
102
RTVSPost2010PropOp49
 70
     1
102
RTVSPost2010Prop50
 90
       50
102
RTVSPost2010PropOp50
 70
     1
102
RTVSPost2010Prop51ColorIndex
 90
      256
102
RTVSPost2010Prop51ColorRGB
 90
-16777216
102
RTVSPost2010PropOp51
 70
     0
102
RTVSPost2010Prop52
140
1.0
102
RTVSPost2010PropOp52
 70
     0
102
RTVSPost2010Prop53
 90
        2
102
RTVSPost2010PropOp53
 70
     1
102
RTVSPost2010Prop54
  1
strokes_ogs.tif
102
RTVSPost2010PropOp54
 70
     1
102
RTVSPost2010Prop55
280
     0
102
RTVSPost2010PropOp55
 70
     1
102
RTVSPost2010Prop56
140
1.0
102
RTVSPost2010PropOp56
 70
     1
102
RTVSPost2010Prop57
140
1.0
102
RTVSPost2010PropOp57
 70
     1
  0
XRECORD
  5
162
102
{ACAD_REACTORS
330
161
102
}
330
161
100
AcDbXrecord
280
     1
102
RTVSPost2010Prop28
280
     0
102
RTVSPost2010PropOp28
 70
     1
102
RTVSPost2010Prop29
280
     1
102
RTVSPost2010PropOp29
 70
     1
102
RTVSPost2010Prop30
280
     1
102
RTVSPost2010PropOp30
 70
     1
102
RTVSPost2010Prop31
280
     0
102
RTVSPost2010PropOp31
 70
     1
102
RTVSPost2010Prop32
280
     0
102
RTVSPost2010PropOp32
 70
     1
102
RTVSPost2010Prop33
280
     0
102
RTVSPost2010PropOp33
 70
     1
102
RTVSPost2010Prop34
280
     0
102
RTVSPost2010PropOp34
 70
     1
102
RTVSPost2010Prop35
280
     0
102
RTVSPost2010PropOp35
 70
     1
102
RTVSPost2010Prop36
280
     0
102
RTVSPost2010PropOp36
 70
     1
102
RTVSPost2010Prop37
 90
       50
102
RTVSPost2010PropOp37
 70
     1
102
RTVSPost2010Prop38
140
0.0
102
RTVSPost2010PropOp38
 70
     1
102
RTVSPost2010Prop39
140
1.0
102
RTVSPost2010PropOp39
 70
     1
102
RTVSPost2010Prop40
 90
        0
102
RTVSPost2010PropOp40
 70
     1
102
RTVSPost2010Prop41ColorIndex
 90
       18
102
RTVSPost2010Prop41ColorRGB
 90
        0
102
RTVSPost2010PropOp41
 70
     1
102
RTVSPost2010Prop42
 90
       50
102
RTVSPost2010PropOp42
 70
     1
102
RTVSPost2010Prop43
 90
        3
102
RTVSPost2010PropOp43
 70
     1
102
RTVSPost2010Prop44ColorIndex
 90
        5
102
RTVSPost2010Prop44ColorRGB
 90
      255
102
RTVSPost2010PropOp44
 70
     1
102
RTVSPost2010Prop45
280
     0
102
RTVSPost2010PropOp45
 70
     1
102
RTVSPost2010Prop46
 90
       50
102
RTVSPost2010PropOp46
 70
     1
102
RTVSPost2010Prop47
 90
       50
102
RTVSPost2010PropOp47
 70
     1
102
RTVSPost2010Prop48
 90
       50
102
RTVSPost2010PropOp48
 70
     1
102
RTVSPost2010Prop49
280
     0
102
RTVSPost2010PropOp49
 70
     1
102
RTVSPost2010Prop50
 90
       50
102
RTVSPost2010PropOp50
 70
     1
102
RTVSPost2010Prop51ColorIndex
 90
      256
102
RTVSPost2010Prop51ColorRGB
 90
-16777216
102
RTVSPost2010PropOp51
 70
     0
102
RTVSPost2010Prop52
140
1.0
102
RTVSPost2010PropOp52
 70
     0
102
RTVSPost2010Prop53
 90
        2
102
RTVSPost2010PropOp53
 70
     1
102
RTVSPost2010Prop54
  1
strokes_ogs.tif
102
RTVSPost2010PropOp54
 70
     1
102
RTVSPost2010Prop55
280
     0
102
RTVSPost2010PropOp55
 70
     1
102
RTVSPost2010Prop56
140
1.0
102
RTVSPost2010PropOp56
 70
     1
102
RTVSPost2010Prop57
140
1.0
102
RTVSPost2010PropOp57
 70
     1
  0
XRECORD
  5
17A
102
{ACAD_REACTORS
330
179
102
}
330
179
100
AcDbXrecord
280
     1
102
RTVSPost2010Prop28
280
     0
102
RTVSPost2010PropOp28
 70
     1
102
RTVSPost2010Prop29
280
     1
102
RTVSPost2010PropOp29
 70
     1
102
RTVSPost2010Prop30
280
     1
102
RTVSPost2010PropOp30
 70
     1
102
RTVSPost2010Prop31
280
     0
102
RTVSPost2010PropOp31
 70
     1
102
RTVSPost2010Prop32
280
     0
102
RTVSPost2010PropOp32
 70
     1
102
RTVSPost2010Prop33
280
     0
102
RTVSPost2010PropOp33
 70
     1
102
RTVSPost2010Prop34
280
     0
102
RTVSPost2010PropOp34
 70
     1
102
RTVSPost2010Prop35
280
     0
102
RTVSPost2010PropOp35
 70
     1
102
RTVSPost2010Prop36
280
     0
102
RTVSPost2010PropOp36
 70
     1
102
RTVSPost2010Prop37
 90
       50
102
RTVSPost2010PropOp37
 70
     1
102
RTVSPost2010Prop38
140
0.0
102
RTVSPost2010PropOp38
 70
     1
102
RTVSPost2010Prop39
140
1.0
102
RTVSPost2010PropOp39
 70
     1
102
RTVSPost2010Prop40
 90
        0
102
RTVSPost2010PropOp40
 70
     1
102
RTVSPost2010Prop41ColorIndex
 90
       18
102
RTVSPost2010Prop41ColorRGB
 90
        0
102
RTVSPost2010PropOp41
 70
     1
102
RTVSPost2010Prop42
 90
       50
102
RTVSPost2010PropOp42
 70
     1
102
RTVSPost2010Prop43
 90
        3
102
RTVSPost2010PropOp43
 70
     1
102
RTVSPost2010Prop44ColorIndex
 90
        5
102
RTVSPost2010Prop44ColorRGB
 90
      255
102
RTVSPost2010PropOp44
 70
     1
102
RTVSPost2010Prop45
280
     0
102
RTVSPost2010PropOp45
 70
     1
102
RTVSPost2010Prop46
 90
       50
102
RTVSPost2010PropOp46
 70
     1
102
RTVSPost2010Prop47
 90
       50
102
RTVSPost2010PropOp47
 70
     1
102
RTVSPost2010Prop48
 90
       50
102
RTVSPost2010PropOp48
 70
     1
102
RTVSPost2010Prop49
280
     0
102
RTVSPost2010PropOp49
 70
     1
102
RTVSPost2010Prop50
 90
       50
102
RTVSPost2010PropOp50
 70
     1
102
RTVSPost2010Prop51ColorIndex
 90
      256
102
RTVSPost2010Prop51ColorRGB
 90
-16777216
102
RTVSPost2010PropOp51
 70
     0
102
RTVSPost2010Prop52
140
1.0
102
RTVSPost2010PropOp52
 70
     0
102
RTVSPost2010Prop53
 90
        2
102
RTVSPost2010PropOp53
 70
     1
102
RTVSPost2010Prop54
  1
strokes_ogs.tif
102
RTVSPost2010PropOp54
 70
     1
102
RTVSPost2010Prop55
280
     0
102
RTVSPost2010PropOp55
 70
     1
102
RTVSPost2010Prop56
140
1.0
102
RTVSPost2010PropOp56
 70
     1
102
RTVSPost2010Prop57
140
1.0
102
RTVSPost2010PropOp57
 70
     1
  0
ENDSEC
  0
EOF
