  0
SECTION
  2
HEADER
  9
$ACADVER
  1
AC1024
  9
$ACADMAINTVER
 70
   205
  9
$DWGCODEPAGE
  3
ANSI_1251
  9
$INSBASE
 10
0.0
 20
0.0
 30
0.0
  9
$EXTMIN
 10
1.000000000000000E+20
 20
1.000000000000000E+20
 30
1.000000000000000E+20
  9
$EXTMAX
 10
-1.000000000000000E+20
 20
-1.000000000000000E+20
 30
-1.000000000000000E+20
  9
$LIMMIN
 10
0.0
 20
0.0
  9
$LIMMAX
 10
12.0
 20
9.0
  9
$ORTHOMODE
 70
     0
  9
$REGENMODE
 70
     1
  9
$FILLMODE
 70
     1
  9
$QTEXTMODE
 70
     0
  9
$MIRRTEXT
 70
     1
  9
$LTSCALE
 40
1.0
  9
$ATTMODE
 70
     1
  9
$TEXTSIZE
 40
0.2
  9
$TRACEWID
 40
0.05
  9
$TEXTSTYLE
  7
Standard
  9
$CLAYER
  8
OracDecor_cornice_mouldings
  9
$CELTYPE
  6
ByLayer
  9
$CECOLOR
 62
   256
  9
$CELTSCALE
 40
1.0
  9
$DISPSILH
 70
     0
  9
$DIMSCALE
 40
1.0
  9
$DIMASZ
 40
0.18
  9
$DIMEXO
 40
0.0625
  9
$DIMDLI
 40
0.38
  9
$DIMRND
 40
0.0
  9
$DIMDLE
 40
0.0
  9
$DIMEXE
 40
0.18
  9
$DIMTP
 40
0.0
  9
$DIMTM
 40
0.0
  9
$DIMTXT
 40
0.18
  9
$DIMCEN
 40
0.09
  9
$DIMTSZ
 40
0.0
  9
$DIMTOL
 70
     0
  9
$DIMLIM
 70
     0
  9
$DIMTIH
 70
     1
  9
$DIMTOH
 70
     1
  9
$DIMSE1
 70
     0
  9
$DIMSE2
 70
     0
  9
$DIMTAD
 70
     0
  9
$DIMZIN
 70
     0
  9
$DIMBLK
  1

  9
$DIMASO
 70
     1
  9
$DIMSHO
 70
     1
  9
$DIMPOST
  1

  9
$DIMAPOST
  1

  9
$DIMALT
 70
     0
  9
$DIMALTD
 70
     2
  9
$DIMALTF
 40
25.4
  9
$DIMLFAC
 40
1.0
  9
$DIMTOFL
 70
     0
  9
$DIMTVP
 40
0.0
  9
$DIMTIX
 70
     0
  9
$DIMSOXD
 70
     0
  9
$DIMSAH
 70
     0
  9
$DIMBLK1
  1

  9
$DIMBLK2
  1

  9
$DIMSTYLE
  2
Standard
  9
$DIMCLRD
 70
     0
  9
$DIMCLRE
 70
     0
  9
$DIMCLRT
 70
     0
  9
$DIMTFAC
 40
1.0
  9
$DIMGAP
 40
0.09
  9
$DIMJUST
 70
     0
  9
$DIMSD1
 70
     0
  9
$DIMSD2
 70
     0
  9
$DIMTOLJ
 70
     1
  9
$DIMTZIN
 70
     0
  9
$DIMALTZ
 70
     0
  9
$DIMALTTZ
 70
     0
  9
$DIMUPT
 70
     0
  9
$DIMDEC
 70
     4
  9
$DIMTDEC
 70
     4
  9
$DIMALTU
 70
     2
  9
$DIMALTTD
 70
     2
  9
$DIMTXSTY
  7
Standard
  9
$DIMAUNIT
 70
     0
  9
$DIMADEC
 70
     0
  9
$DIMALTRND
 40
0.0
  9
$DIMAZIN
 70
     0
  9
$DIMDSEP
 70
    46
  9
$DIMATFIT
 70
     3
  9
$DIMFRAC
 70
     0
  9
$DIMLDRBLK
  1

  9
$DIMLUNIT
 70
     2
  9
$DIMLWD
 70
    -2
  9
$DIMLWE
 70
    -2
  9
$DIMTMOVE
 70
     0
  9
$DIMFXL
 40
1.0
  9
$DIMFXLON
 70
     0
  9
$DIMJOGANG
 40
0.7853981633974483
  9
$DIMTFILL
 70
     0
  9
$DIMTFILLCLR
 70
     0
  9
$DIMARCSYM
 70
     0
  9
$DIMLTYPE
  6

  9
$DIMLTEX1
  6

  9
$DIMLTEX2
  6

  9
$DIMTXTDIRECTION
 70
     0
  9
$LUNITS
 70
     2
  9
$LUPREC
 70
     4
  9
$SKETCHINC
 40
0.1
  9
$FILLETRAD
 40
0.5
  9
$AUNITS
 70
     0
  9
$AUPREC
 70
     0
  9
$MENU
  1
.
  9
$ELEVATION
 40
0.0
  9
$PELEVATION
 40
0.0
  9
$THICKNESS
 40
0.0
  9
$LIMCHECK
 70
     0
  9
$CHAMFERA
 40
0.5
  9
$CHAMFERB
 40
0.5
  9
$CHAMFERC
 40
1.0
  9
$CHAMFERD
 40
0.0
  9
$SKPOLY
 70
     0
  9
$TDCREATE
 40
2451380.930432396
  9
$TDUCREATE
 40
2451380.805432396
  9
$TDUPDATE
 40
2451380.966180555
  9
$TDUUPDATE
 40
2451380.841180556
  9
$TDINDWG
 40
0.0075631829
  9
$TDUSRTIMER
 40
0.0075541435
  9
$USRTIMER
 70
     1
  9
$ANGBASE
 50
0.0
  9
$ANGDIR
 70
     0
  9
$PDMODE
 70
     0
  9
$PDSIZE
 40
0.0
  9
$PLINEWID
 40
0.0
  9
$SPLFRAME
 70
     0
  9
$SPLINETYPE
 70
     6
  9
$SPLINESEGS
 70
     8
  9
$HANDSEED
  5
1A5
  9
$SURFTAB1
 70
     6
  9
$SURFTAB2
 70
     6
  9
$SURFTYPE
 70
     6
  9
$SURFU
 70
     6
  9
$SURFV
 70
     6
  9
$UCSBASE
  2

  9
$UCSNAME
  2

  9
$UCSORG
 10
0.0
 20
0.0
 30
0.0
  9
$UCSXDIR
 10
1.0
 20
0.0
 30
0.0
  9
$UCSYDIR
 10
0.0
 20
1.0
 30
0.0
  9
$UCSORTHOREF
  2

  9
$UCSORTHOVIEW
 70
     0
  9
$UCSORGTOP
 10
0.0
 20
0.0
 30
0.0
  9
$UCSORGBOTTOM
 10
0.0
 20
0.0
 30
0.0
  9
$UCSORGLEFT
 10
0.0
 20
0.0
 30
0.0
  9
$UCSORGRIGHT
 10
0.0
 20
0.0
 30
0.0
  9
$UCSORGFRONT
 10
0.0
 20
0.0
 30
0.0
  9
$UCSORGBACK
 10
0.0
 20
0.0
 30
0.0
  9
$PUCSBASE
  2

  9
$PUCSNAME
  2

  9
$PUCSORG
 10
0.0
 20
0.0
 30
0.0
  9
$PUCSXDIR
 10
1.0
 20
0.0
 30
0.0
  9
$PUCSYDIR
 10
0.0
 20
1.0
 30
0.0
  9
$PUCSORTHOREF
  2

  9
$PUCSORTHOVIEW
 70
     0
  9
$PUCSORGTOP
 10
0.0
 20
0.0
 30
0.0
  9
$PUCSORGBOTTOM
 10
0.0
 20
0.0
 30
0.0
  9
$PUCSORGLEFT
 10
0.0
 20
0.0
 30
0.0
  9
$PUCSORGRIGHT
 10
0.0
 20
0.0
 30
0.0
  9
$PUCSORGFRONT
 10
0.0
 20
0.0
 30
0.0
  9
$PUCSORGBACK
 10
0.0
 20
0.0
 30
0.0
  9
$USERI1
 70
     0
  9
$USERI2
 70
     0
  9
$USERI3
 70
     0
  9
$USERI4
 70
     0
  9
$USERI5
 70
     0
  9
$USERR1
 40
0.0
  9
$USERR2
 40
0.0
  9
$USERR3
 40
0.0
  9
$USERR4
 40
0.0
  9
$USERR5
 40
0.0
  9
$WORLDVIEW
 70
     1
  9
$SHADEDGE
 70
     3
  9
$SHADEDIF
 70
    70
  9
$TILEMODE
 70
     1
  9
$MAXACTVP
 70
    64
  9
$PINSBASE
 10
0.0
 20
0.0
 30
0.0
  9
$PLIMCHECK
 70
     0
  9
$PEXTMIN
 10
1.000000000000000E+20
 20
1.000000000000000E+20
 30
1.000000000000000E+20
  9
$PEXTMAX
 10
-1.000000000000000E+20
 20
-1.000000000000000E+20
 30
-1.000000000000000E+20
  9
$PLIMMIN
 10
0.0
 20
0.0
  9
$PLIMMAX
 10
12.0
 20
9.0
  9
$UNITMODE
 70
     0
  9
$VISRETAIN
 70
     1
  9
$PLINEGEN
 70
     0
  9
$PSLTSCALE
 70
     1
  9
$TREEDEPTH
 70
  3020
  9
$CMLSTYLE
  2
Standard
  9
$CMLJUST
 70
     0
  9
$CMLSCALE
 40
1.0
  9
$PROXYGRAPHICS
 70
     1
  9
$MEASUREMENT
 70
     1
  9
$CELWEIGHT
370
    -1
  9
$ENDCAPS
280
     0
  9
$JOINSTYLE
280
     0
  9
$LWDISPLAY
290
     0
  9
$INSUNITS
 70
     4
  9
$HYPERLINKBASE
  1

  9
$STYLESHEET
  1

  9
$XEDIT
290
     1
  9
$CEPSNTYPE
380
     0
  9
$PSTYLEMODE
290
     1
  9
$FINGERPRINTGUID
  2
{12F50282-3ED8-11D3-A8B7-0060B0F84BC6}
  9
$VERSIONGUID
  2
{12F50293-3ED8-11D3-A8B7-0060B0F84BC6}
  9
$EXTNAMES
290
     1
  9
$PSVPSCALE
 40
0.0
  9
$OLESTARTUP
290
     0
  9
$SORTENTS
280
   127
  9
$INDEXCTL
280
     0
  9
$HIDETEXT
280
     0
  9
$XCLIPFRAME
280
     2
  9
$HALOGAP
280
     0
  9
$OBSCOLOR
 70
   257
  9
$OBSLTYPE
280
     0
  9
$INTERSECTIONDISPLAY
280
     0
  9
$INTERSECTIONCOLOR
 70
   257
  9
$DIMASSOC
280
     1
  9
$PROJECTNAME
  1

  9
$CAMERADISPLAY
290
     0
  9
$LENSLENGTH
 40
50.0
  9
$CAMERAHEIGHT
 40
0.0
  9
$STEPSPERSEC
 40
2.0
  9
$STEPSIZE
 40
6.0
  9
$3DDWFPREC
 40
2.0
  9
$PSOLWIDTH
 40
0.25
  9
$PSOLHEIGHT
 40
4.0
  9
$LOFTANG1
 40
1.570796326794896
  9
$LOFTANG2
 40
1.570796326794896
  9
$LOFTMAG1
 40
0.0
  9
$LOFTMAG2
 40
0.0
  9
$LOFTPARAM
 70
     7
  9
$LOFTNORMALS
280
     1
  9
$LATITUDE
 40
37.795
  9
$LONGITUDE
 40
-122.394
  9
$NORTHDIRECTION
 40
0.0
  9
$TIMEZONE
 70
 -8000
  9
$LIGHTGLYPHDISPLAY
280
     1
  9
$TILEMODELIGHTSYNCH
280
     1
  9
$CMATERIAL
347
AB
  9
$SOLIDHIST
280
     0
  9
$SHOWHIST
280
     1
  9
$DWFFRAME
280
     2
  9
$DGNFRAME
280
     0
  9
$REALWORLDSCALE
290
     1
  9
$INTERFERECOLOR
 62
     1
  9
$INTERFEREOBJVS
345
CD
  9
$INTERFEREVPVS
346
CA
  9
$CSHADOW
280
     0
  9
$SHADOWPLANELOCATION
 40
0.0
  0
ENDSEC
  0
SECTION
  2
CLASSES
  0
CLASS
  1
ACDBDICTIONARYWDFLT
  2
AcDbDictionaryWithDefault
  3
ObjectDBX Classes
 90
        0
 91
        1
280
     0
281
     0
  0
CLASS
  1
ACDBPLACEHOLDER
  2
AcDbPlaceHolder
  3
ObjectDBX Classes
 90
        0
 91
        2
280
     0
281
     0
  0
CLASS
  1
LAYOUT
  2
AcDbLayout
  3
ObjectDBX Classes
 90
        0
 91
        3
280
     0
281
     0
  0
CLASS
  1
MATERIAL
  2
AcDbMaterial
  3
ObjectDBX Classes
 90
     1153
 91
        3
280
     0
281
     0
  0
CLASS
  1
VISUALSTYLE
  2
AcDbVisualStyle
  3
ObjectDBX Classes
 90
     4095
 91
       24
280
     0
281
     0
  0
CLASS
  1
TABLESTYLE
  2
AcDbTableStyle
  3
ObjectDBX Classes
 90
     4095
 91
        1
280
     0
281
     0
  0
CLASS
  1
SCALE
  2
AcDbScale
  3
ObjectDBX Classes
 90
     1153
 91
       17
280
     0
281
     0
  0
CLASS
  1
MLEADERSTYLE
  2
AcDbMLeaderStyle
  3
ACDB_MLEADERSTYLE_CLASS
 90
     4095
 91
        1
280
     0
281
     0
  0
CLASS
  1
ACDBSECTIONVIEWSTYLE
  2
AcDbSectionViewStyle
  3
ObjectDBX Classes
 90
     1025
 91
        1
280
     0
281
     0
  0
CLASS
  1
ACDBDETAILVIEWSTYLE
  2
AcDbDetailViewStyle
  3
ObjectDBX Classes
 90
     1025
 91
        1
280
     0
281
     0
  0
CLASS
  1
MESH
  2
AcDbSubDMesh
  3
ObjectDBX Classes
 90
        0
 91
        1
280
     0
281
     1
  0
CLASS
  1
DICTIONARYVAR
  2
AcDbDictionaryVar
  3
ObjectDBX Classes
 90
        0
 91
        9
280
     0
281
     0
  0
CLASS
  1
CELLSTYLEMAP
  2
AcDbCellStyleMap
  3
ObjectDBX Classes
 90
     1152
 91
        1
280
     0
281
     0
  0
ENDSEC
  0
SECTION
  2
TABLES
  0
TABLE
  2
VPORT
  5
8
330
0
100
AcDbSymbolTable
 70
     1
  0
VPORT
  5
A8
330
8
100
AcDbSymbolTableRecord
100
AcDbViewportTableRecord
  2
*Active
 70
     0
 10
0.0
 20
0.0
 11
1.0
 21
1.0
 12
0.0
 22
-22.45365142822266
 13
0.0
 23
0.0
 14
0.5
 24
0.5
 15
0.5
 25
0.5
 16
-1.0
 26
-1.0
 36
1.0
 17
0.0
 27
0.0
 37
0.0
 40
1094.999994250996
 41
1.645052824417682
 42
50.0
 43
0.0
 44
0.0
 50
0.0
 51
0.0
 71
     0
 72
   100
 73
     1
 74
     3
 75
     0
 76
     0
 77
     0
 78
     0
281
     0
 65
     1
110
0.0
120
0.0
130
0.0
111
1.0
121
0.0
131
0.0
112
0.0
122
1.0
132
0.0
 79
     0
146
0.0
348
C9
 60
     3
 61
     5
292
     1
282
     1
141
0.0
142
0.0
 63
   250
421
  3355443
  0
ENDTAB
  0
TABLE
  2
LTYPE
  5
5
330
0
100
AcDbSymbolTable
 70
     1
  0
LTYPE
  5
14
330
5
100
AcDbSymbolTableRecord
100
AcDbLinetypeTableRecord
  2
ByBlock
 70
     0
  3

 72
    65
 73
     0
 40
0.0
  0
LTYPE
  5
15
330
5
100
AcDbSymbolTableRecord
100
AcDbLinetypeTableRecord
  2
ByLayer
 70
     0
  3

 72
    65
 73
     0
 40
0.0
  0
LTYPE
  5
16
330
5
100
AcDbSymbolTableRecord
100
AcDbLinetypeTableRecord
  2
Continuous
 70
     0
  3
Solid line
 72
    65
 73
     0
 40
0.0
  0
ENDTAB
  0
TABLE
  2
LAYER
  5
2
330
0
100
AcDbSymbolTable
 70
     3
  0
LAYER
  5
10
330
2
100
AcDbSymbolTableRecord
100
AcDbLayerTableRecord
  2
0
 70
     0
 62
     7
  6
Continuous
370
    -3
390
F
347
BB
  0
LAYER
  5
2B
330
2
100
AcDbSymbolTableRecord
100
AcDbLayerTableRecord
  2
ASHADE
 70
     4
 62
     7
  6
Continuous
370
    -3
390
2D
347
BB
  0
LAYER
  5
F8
330
2
100
AcDbSymbolTableRecord
100
AcDbLayerTableRecord
  2
OracDecor_cornice_mouldings
 70
     0
 62
   154
420
  1857969
  6
Continuous
370
    -3
390
F
347
BB
  0
ENDTAB
  0
TABLE
  2
STYLE
  5
3
330
0
100
AcDbSymbolTable
 70
     2
  0
STYLE
  5
11
330
3
100
AcDbSymbolTableRecord
100
AcDbTextStyleTableRecord
  2
Standard
 70
     0
 40
0.0
 41
1.0
 50
0.0
 71
     0
 42
0.2
  3
txt
  4

  0
STYLE
  5
2C
330
3
100
AcDbSymbolTableRecord
100
AcDbTextStyleTableRecord
  2
ASHADE
 70
     0
 40
0.2
 41
1.0
 50
0.0
 71
     0
 42
0.2
  3
simplex
  4

  0
ENDTAB
  0
TABLE
  2
VIEW
  5
6
330
0
100
AcDbSymbolTable
 70
     0
  0
ENDTAB
  0
TABLE
  2
UCS
  5
7
330
0
100
AcDbSymbolTable
 70
     0
  0
ENDTAB
  0
TABLE
  2
APPID
  5
9
330
0
100
AcDbSymbolTable
 70
     6
  0
APPID
  5
12
330
9
100
AcDbSymbolTableRecord
100
AcDbRegAppTableRecord
  2
ACAD
 70
     0
  0
APPID
  5
8F
330
9
100
AcDbSymbolTableRecord
100
AcDbRegAppTableRecord
  2
AVE_RENDER
 70
     0
  0
APPID
  5
90
330
9
100
AcDbSymbolTableRecord
100
AcDbRegAppTableRecord
  2
AVE_ENTITY_MATERIAL
 70
     0
  0
APPID
  5
9C
330
9
100
AcDbSymbolTableRecord
100
AcDbRegAppTableRecord
  2
AVE_FINISH
 70
     0
  0
APPID
  5
9D
330
9
100
AcDbSymbolTableRecord
100
AcDbRegAppTableRecord
  2
AVE_MATERIAL
 70
     0
  0
APPID
  5
9E
330
9
100
AcDbSymbolTableRecord
100
AcDbRegAppTableRecord
  2
AVE_GLOBAL
 70
     0
  0
ENDTAB
  0
TABLE
  2
DIMSTYLE
  5
A
330
0
100
AcDbSymbolTable
 70
     1
100
AcDbDimStyleTable
 71
     0
  0
DIMSTYLE
105
27
330
A
100
AcDbSymbolTableRecord
100
AcDbDimStyleTableRecord
  2
Standard
 70
     0
340
11
  0
ENDTAB
  0
TABLE
  2
BLOCK_RECORD
  5
1
330
0
100
AcDbSymbolTable
 70
     6
  0
BLOCK_RECORD
  5
1F
330
1
100
AcDbSymbolTableRecord
100
AcDbBlockTableRecord
  2
*Model_Space
340
22
 70
     0
280
     1
281
     0
  0
BLOCK_RECORD
  5
1B
330
1
100
AcDbSymbolTableRecord
100
AcDbBlockTableRecord
  2
*Paper_Space
340
1E
 70
     0
280
     1
281
     0
  0
BLOCK_RECORD
  5
23
330
1
100
AcDbSymbolTableRecord
100
AcDbBlockTableRecord
  2
*Paper_Space0
340
26
 70
     0
280
     1
281
     0
  0
BLOCK_RECORD
  5
2E
330
1
100
AcDbSymbolTableRecord
100
AcDbBlockTableRecord
  2
direct
340
0
 70
     0
280
     1
281
     0
  0
BLOCK_RECORD
  5
42
330
1
100
AcDbSymbolTableRecord
100
AcDbBlockTableRecord
  2
overhead
340
0
 70
     0
280
     1
281
     0
  0
BLOCK_RECORD
  5
5F
330
1
100
AcDbSymbolTableRecord
100
AcDbBlockTableRecord
  2
sh_spot
340
0
 70
     0
280
     1
281
     0
  0
BLOCK_RECORD
  5
91
330
1
100
AcDbSymbolTableRecord
100
AcDbBlockTableRecord
  2
AVE_RENDER
340
0
102
{BLKREFS
331
94
331
95
331
96
331
97
331
98
331
99
331
9A
331
9B
102
}
 70
     0
280
     1
281
     0
  0
BLOCK_RECORD
  5
9F
330
1
100
AcDbSymbolTableRecord
100
AcDbBlockTableRecord
  2
AVE_GLOBAL
340
0
102
{BLKREFS
331
A2
102
}
 70
     0
280
     1
281
     0
  0
ENDTAB
  0
ENDSEC
  0
SECTION
  2
BLOCKS
  0
BLOCK
  5
20
330
1F
100
AcDbEntity
  8
0
100
AcDbBlockBegin
  2
*Model_Space
 70
     0
 10
0.0
 20
0.0
 30
0.0
  3
*Model_Space
  1

  0
ENDBLK
  5
21
330
1F
100
AcDbEntity
  8
0
100
AcDbBlockEnd
  0
BLOCK
  5
1C
330
1B
100
AcDbEntity
 67
     1
  8
0
100
AcDbBlockBegin
  2
*Paper_Space
 70
     0
 10
0.0
 20
0.0
 30
0.0
  3
*Paper_Space
  1

  0
ENDBLK
  5
1D
330
1B
100
AcDbEntity
 67
     1
  8
0
100
AcDbBlockEnd
  0
BLOCK
  5
24
330
23
100
AcDbEntity
 67
     1
  8
0
100
AcDbBlockBegin
  2
*Paper_Space0
 70
     0
 10
0.0
 20
0.0
 30
0.0
  3
*Paper_Space0
  1

  0
ENDBLK
  5
25
330
23
100
AcDbEntity
 67
     1
  8
0
100
AcDbBlockEnd
  0
BLOCK
  5
40
330
2E
100
AcDbEntity
  8
0
100
AcDbBlockBegin
  2
direct
 70
     2
 10
0.0
 20
0.0
 30
0.0
  3
direct
  1

  0
ATTDEF
  5
2F
330
2E
100
AcDbEntity
  8
ASHADE
  6
Continuous
 62
     1
100
AcDbText
 10
0.0
 20
-0.1
 30
0.0
 40
0.2
  1

  7
ASHADE
 72
     1
 11
0.0
 21
-0.1
 31
0.0
100
AcDbAttributeDefinition
280
     0
  3
Light Name
  2
SNAME
 70
     0
280
     0
  0
ARC
  5
30
330
2E
100
AcDbEntity
  8
ASHADE
  6
Continuous
 62
     7
100
AcDbCircle
 10
0.0
 20
0.0
 30
0.0
 40
0.3
100
AcDbArc
 50
205.6792886194569
 51
334.3207113805431
  0
ARC
  5
31
330
2E
100
AcDbEntity
  8
ASHADE
  6
Continuous
 62
     7
100
AcDbCircle
 10
0.0
 20
0.0
 30
0.0
 40
0.3
100
AcDbArc
 50
25.67928861945685
 51
154.3207113805431
  0
LINE
  5
32
330
2E
100
AcDbEntity
  8
ASHADE
  6
Continuous
 62
     7
100
AcDbLine
 10
-0.21
 20
0.2142428528562855
 30
0.0
 11
-0.21
 21
0.5
 31
0.0
  0
LINE
  5
33
330
2E
100
AcDbEntity
  8
ASHADE
  6
Continuous
 62
     7
100
AcDbLine
 10
-0.11
 20
0.2791057147390572
 30
0.0
 11
-0.11
 21
0.5
 31
0.0
  0
LINE
  5
34
330
2E
100
AcDbEntity
  8
ASHADE
  6
Continuous
 62
     7
100
AcDbLine
 10
0.21
 20
0.2142428528562855
 30
0.0
 11
0.21
 21
0.5
 31
0.0
  0
ATTDEF
  5
35
330
2E
100
AcDbEntity
  8
ASHADE
  6
Continuous
 62
     7
100
AcDbText
 10
0.0
 20
0.25
 30
0.0
 40
0.01
  1

100
AcDbAttributeDefinition
280
     0
  3
Look-at Y
  2
LAY
 70
     1
280
     0
  0
ATTDEF
  5
36
330
2E
100
AcDbEntity
  8
ASHADE
  6
Continuous
 62
     7
100
AcDbText
 10
0.0
 20
0.22
 30
0.0
 40
0.01
  1
1
100
AcDbAttributeDefinition
280
     0
  3
Light Intensity
  2
INTENSITY
 70
     1
280
     0
  0
ATTDEF
  5
37
330
2E
100
AcDbEntity
  8
ASHADE
  6
Continuous
 62
     7
100
AcDbText
 10
0.0
 20
0.16
 30
0.0
 40
0.01
  1
-1
100
AcDbAttributeDefinition
280
     0
  3
*not used*
  2
BEAMD
 70
     1
280
     0
  0
ATTDEF
  5
38
330
2E
100
AcDbEntity
  8
ASHADE
  6
Continuous
 62
     7
100
AcDbText
 10
0.0
 20
0.175
 30
0.0
 40
0.01
  1
-1
100
AcDbAttributeDefinition
280
     0
  3
*not used*
  2
CONED
 70
     1
280
     0
  0
ATTDEF
  5
39
330
2E
100
AcDbEntity
  8
ASHADE
  6
Continuous
 62
     7
100
AcDbText
 10
0.0
 20
0.19
 30
0.0
 40
0.01
  1
0
100
AcDbAttributeDefinition
280
     0
  3
Depth Map Size
  2
CONEA
 70
     1
280
     0
  0
ATTDEF
  5
3A
330
2E
100
AcDbEntity
  8
ASHADE
  6
Continuous
 62
     7
100
AcDbText
 10
0.0
 20
0.2050000000000001
 30
0.0
 40
0.01
  1
1,1,1
100
AcDbAttributeDefinition
280
     0
  3
Light Color (RGB)
  2
COLOR
 70
     1
280
     0
  0
ATTDEF
  5
3B
330
2E
100
AcDbEntity
  8
ASHADE
  6
Continuous
 62
     7
100
AcDbText
 10
0.0
 20
0.235
 30
0.0
 40
0.01
  1

100
AcDbAttributeDefinition
280
     0
  3
Look-at Z
  2
LAZ
 70
     1
280
     0
  0
LINE
  5
3C
330
2E
100
AcDbEntity
  8
ASHADE
  6
Continuous
 62
     7
100
AcDbLine
 10
0.0
 20
0.3
 30
0.0
 11
0.0
 21
0.5
 31
0.0
  0
LINE
  5
3D
330
2E
100
AcDbEntity
  8
ASHADE
  6
Continuous
 62
     7
100
AcDbLine
 10
0.11
 20
0.2791057147390572
 30
0.0
 11
0.11
 21
0.5
 31
0.0
  0
ATTDEF
  5
3E
330
2E
100
AcDbEntity
  8
ASHADE
  6
Continuous
 62
     7
100
AcDbText
 10
0.0
 20
0.265
 30
0.0
 40
0.01
  1

100
AcDbAttributeDefinition
280
     0
  3
Look-at X
  2
LAX
 70
     1
280
     0
  0
ATTDEF
  5
3F
330
2E
100
AcDbEntity
  8
ASHADE
  6
Continuous
 62
     7
100
AcDbText
 10
0.0
 20
0.28
 30
0.0
 40
0.01
  1

100
AcDbAttributeDefinition
280
     0
  3

  2
GNAME
 70
     1
280
     0
  0
ENDBLK
  5
41
330
2E
100
AcDbEntity
  8
0
100
AcDbBlockEnd
  0
BLOCK
  5
5D
330
42
100
AcDbEntity
  8
0
100
AcDbBlockBegin
  2
overhead
 70
     2
 10
0.0
 20
0.0
 30
0.0
  3
overhead
  1

  0
ATTDEF
  5
43
330
42
100
AcDbEntity
  8
ASHADE
  6
Continuous
 62
     1
100
AcDbText
 10
0.0
 20
-0.1
 30
0.0
 40
0.2
  1

  7
ASHADE
 72
     1
 11
0.0
 21
-0.1
 31
0.0
100
AcDbAttributeDefinition
280
     0
  3
Light Name
  2
SNAME
 70
     0
280
     0
  0
ARC
  5
44
330
42
100
AcDbEntity
  8
ASHADE
  6
Continuous
 62
     7
100
AcDbCircle
 10
0.0
 20
0.0
 30
0.0
 40
0.3
100
AcDbArc
 50
205.6792886194569
 51
334.3207113805431
  0
LINE
  5
45
330
42
100
AcDbEntity
  8
ASHADE
  6
Continuous
 62
     7
100
AcDbLine
 10
-0.2041413561583015
 20
-0.2198324514393848
 30
0.0
 11
-0.2721884748777353
 21
-0.2931099352525131
 31
0.0
  0
LINE
  5
46
330
42
100
AcDbEntity
  8
ASHADE
  6
Continuous
 62
     7
100
AcDbLine
 10
-0.1096591641591904
 20
-0.2792398032442862
 30
0.0
 11
-0.1279356915190555
 21
-0.3257797704516673
 31
0.0
  0
LINE
  5
47
330
42
100
AcDbEntity
  8
ASHADE
  6
Continuous
 62
     7
100
AcDbLine
 10
0.0
 20
-0.2999999999999999
 30
0.0
 11
0.0
 21
-0.4
 31
0.0
  0
LINE
  5
48
330
42
100
AcDbEntity
  8
ASHADE
  6
Continuous
 62
     7
100
AcDbLine
 10
0.1096591641591904
 20
-0.2792398032442862
 30
0.0
 11
0.1279356915190555
 21
-0.3257797704516673
 31
0.0
  0
LINE
  5
49
330
42
100
AcDbEntity
  8
ASHADE
  6
Continuous
 62
     7
100
AcDbLine
 10
0.2041413561583015
 20
-0.2198324514393848
 30
0.0
 11
0.2721884748777353
 21
-0.2931099352525131
 31
0.0
  0
ARC
  5
4A
330
42
100
AcDbEntity
  8
ASHADE
  6
Continuous
 62
     7
100
AcDbCircle
 10
0.0
 20
0.0
 30
0.0
 40
0.3
100
AcDbArc
 50
25.67928861945685
 51
154.3207113805431
  0
LINE
  5
4B
330
42
100
AcDbEntity
  8
ASHADE
  6
Continuous
 62
     7
100
AcDbLine
 10
-0.2703701166919155
 20
0.13
 30
0.0
 11
-0.3154318028072347
 21
0.1516666666666666
 31
0.0
  0
LINE
  5
4C
330
42
100
AcDbEntity
  8
ASHADE
  6
Continuous
 62
     7
100
AcDbLine
 10
-0.2703701166919155
 20
-0.13
 30
0.0
 11
-0.3154318028072347
 21
-0.1516666666666666
 31
0.0
  0
LINE
  5
4D
330
42
100
AcDbEntity
  8
ASHADE
  6
Continuous
 62
     7
100
AcDbLine
 10
-0.2041413561583015
 20
0.2198324514393849
 30
0.0
 11
-0.2721884748777353
 21
0.2931099352525131
 31
0.0
  0
LINE
  5
4E
330
42
100
AcDbEntity
  8
ASHADE
  6
Continuous
 62
     7
100
AcDbLine
 10
-0.1096591641591904
 20
0.2792398032442862
 30
0.0
 11
-0.1279356915190555
 21
0.3257797704516674
 31
0.0
  0
LINE
  5
4F
330
42
100
AcDbEntity
  8
ASHADE
  6
Continuous
 62
     7
100
AcDbLine
 10
0.2703701166919155
 20
-0.13
 30
0.0
 11
0.3154318028072347
 21
-0.1516666666666666
 31
0.0
  0
LINE
  5
50
330
42
100
AcDbEntity
  8
ASHADE
  6
Continuous
 62
     7
100
AcDbLine
 10
0.2703701166919155
 20
0.13
 30
0.0
 11
0.3154318028072347
 21
0.1516666666666666
 31
0.0
  0
LINE
  5
51
330
42
100
AcDbEntity
  8
ASHADE
  6
Continuous
 62
     7
100
AcDbLine
 10
0.0
 20
0.3
 30
0.0
 11
0.0
 21
0.4
 31
0.0
  0
ATTDEF
  5
52
330
42
100
AcDbEntity
  8
ASHADE
  6
Continuous
 62
     7
100
AcDbText
 10
0.0
 20
0.22
 30
0.0
 40
0.01
  1
1
100
AcDbAttributeDefinition
280
     0
  3
Light Intensity
  2
INTENSITY
 70
     1
280
     0
  0
ATTDEF
  5
53
330
42
100
AcDbEntity
  8
ASHADE
  6
Continuous
 62
     7
100
AcDbText
 10
0.0
 20
0.16
 30
0.0
 40
0.01
  1
-1
100
AcDbAttributeDefinition
280
     0
  3
*not used*
  2
BEAMD
 70
     1
280
     0
  0
ATTDEF
  5
54
330
42
100
AcDbEntity
  8
ASHADE
  6
Continuous
 62
     7
100
AcDbText
 10
0.0
 20
0.175
 30
0.0
 40
0.01
  1
-1
100
AcDbAttributeDefinition
280
     0
  3
*not used*
  2
CONED
 70
     1
280
     0
  0
ATTDEF
  5
55
330
42
100
AcDbEntity
  8
ASHADE
  6
Continuous
 62
     7
100
AcDbText
 10
0.0
 20
0.19
 30
0.0
 40
0.01
  1
0
100
AcDbAttributeDefinition
280
     0
  3
Depth Map Size
  2
CONEA
 70
     1
280
     0
  0
ATTDEF
  5
56
330
42
100
AcDbEntity
  8
ASHADE
  6
Continuous
 62
     7
100
AcDbText
 10
0.0
 20
0.2050000000000001
 30
0.0
 40
0.01
  1
1,1,1
100
AcDbAttributeDefinition
280
     0
  3
Light Color (RGB)
  2
COLOR
 70
     1
280
     0
  0
ATTDEF
  5
57
330
42
100
AcDbEntity
  8
ASHADE
  6
Continuous
 62
     7
100
AcDbText
 10
0.0
 20
0.235
 30
0.0
 40
0.01
  1

100
AcDbAttributeDefinition
280
     0
  3
Look-at Z
  2
LAZ
 70
     1
280
     0
  0
ATTDEF
  5
58
330
42
100
AcDbEntity
  8
ASHADE
  6
Continuous
 62
     7
100
AcDbText
 10
0.0
 20
0.25
 30
0.0
 40
0.01
  1

100
AcDbAttributeDefinition
280
     0
  3
Look-at Y
  2
LAY
 70
     1
280
     0
  0
ATTDEF
  5
59
330
42
100
AcDbEntity
  8
ASHADE
  6
Continuous
 62
     7
100
AcDbText
 10
0.0
 20
0.265
 30
0.0
 40
0.01
  1

100
AcDbAttributeDefinition
280
     0
  3
Look-at X
  2
LAX
 70
     1
280
     0
  0
ATTDEF
  5
5A
330
42
100
AcDbEntity
  8
ASHADE
  6
Continuous
 62
     7
100
AcDbText
 10
0.0
 20
0.28
 30
0.0
 40
0.01
  1

100
AcDbAttributeDefinition
280
     0
  3

  2
GNAME
 70
     1
280
     0
  0
LINE
  5
5B
330
42
100
AcDbEntity
  8
ASHADE
  6
Continuous
 62
     7
100
AcDbLine
 10
0.1096591641591904
 20
0.2792398032442862
 30
0.0
 11
0.1279356915190555
 21
0.3257797704516674
 31
0.0
  0
LINE
  5
5C
330
42
100
AcDbEntity
  8
ASHADE
  6
Continuous
 62
     7
100
AcDbLine
 10
0.2041413561583015
 20
0.2198324514393849
 30
0.0
 11
0.2721884748777353
 21
0.2931099352525131
 31
0.0
  0
ENDBLK
  5
5E
330
42
100
AcDbEntity
  8
0
100
AcDbBlockEnd
  0
BLOCK
  5
85
330
5F
100
AcDbEntity
  8
0
100
AcDbBlockBegin
  2
sh_spot
 70
     2
 10
0.0
 20
0.0
 30
0.0
  3
sh_spot
  1

  0
LINE
  5
60
330
5F
100
AcDbEntity
  8
ASHADE
  6
Continuous
 62
     7
100
AcDbLine
 10
0.25
 20
0.26
 30
0.0
 11
-0.25
 21
0.26
 31
0.0
  0
LINE
  5
61
330
5F
100
AcDbEntity
  8
ASHADE
  6
Continuous
 62
     7
100
AcDbLine
 10
-0.25
 20
-0.3399999999999999
 30
0.0
 11
0.25
 21
-0.3399999999999999
 31
0.0
  0
ATTDEF
  5
62
330
5F
100
AcDbEntity
  8
ASHADE
  6
Continuous
 62
     1
100
AcDbText
 10
0.0
 20
-0.1
 30
0.0
 40
0.2
  1

  7
ASHADE
 72
     1
 11
0.0
 21
-0.1
 31
0.0
100
AcDbAttributeDefinition
280
     0
  3
Light Name
  2
SNAME
 70
     0
280
     0
  0
LINE
  5
63
330
5F
100
AcDbEntity
  8
ASHADE
  6
Continuous
 62
     7
100
AcDbLine
 10
-0.25
 20
-0.13
 30
0.0
 11
-0.25
 21
-0.3399999999999999
 31
0.0
  0
LINE
  5
64
330
5F
100
AcDbEntity
  8
ASHADE
  6
Continuous
 62
     7
100
AcDbLine
 10
-0.25
 20
-0.18
 30
0.0
 11
-0.29
 21
-0.18
 31
0.0
  0
LINE
  5
65
330
5F
100
AcDbEntity
  8
ASHADE
  6
Continuous
 62
     7
100
AcDbLine
 10
-0.29
 20
-0.22
 30
0.0
 11
-0.25
 21
-0.22
 31
0.0
  0
LINE
  5
66
330
5F
100
AcDbEntity
  8
ASHADE
  6
Continuous
 62
     7
100
AcDbLine
 10
-0.29
 20
-0.18
 30
0.0
 11
-0.29
 21
-0.22
 31
0.0
  0
LINE
  5
67
330
5F
100
AcDbEntity
  8
ASHADE
  6
Continuous
 62
     7
100
AcDbLine
 10
-0.1045454545454545
 20
0.26
 30
0.0
 11
-0.15
 21
0.46
 31
0.0
  0
LINE
  5
68
330
5F
100
AcDbEntity
  8
ASHADE
  6
Continuous
 62
     7
100
AcDbLine
 10
-0.21
 20
0.26
 30
0.0
 11
-0.301304347826087
 21
0.46
 31
0.0
  0
LINE
  5
69
330
5F
100
AcDbEntity
  8
ASHADE
  6
Continuous
 62
     7
100
AcDbLine
 10
-0.25
 20
0.26
 30
0.0
 11
-0.25
 21
0.13
 31
0.0
  0
LINE
  5
6A
330
5F
100
AcDbEntity
  8
ASHADE
  6
Continuous
 62
     7
100
AcDbLine
 10
-0.25
 20
0.22
 30
0.0
 11
-0.29
 21
0.22
 31
0.0
  0
LINE
  5
6B
330
5F
100
AcDbEntity
  8
ASHADE
  6
Continuous
 62
     7
100
AcDbLine
 10
-0.29
 20
0.1799999999999999
 30
0.0
 11
-0.25
 21
0.1799999999999999
 31
0.0
  0
LINE
  5
6C
330
5F
100
AcDbEntity
  8
ASHADE
  6
Continuous
 62
     7
100
AcDbLine
 10
-0.29
 20
0.22
 30
0.0
 11
-0.29
 21
0.1799999999999999
 31
0.0
  0
ATTDEF
  5
6D
330
5F
100
AcDbEntity
  8
ASHADE
  6
Continuous
 62
     7
100
AcDbText
 10
0.0
 20
-0.24
 30
0.0
 40
0.01
  1
0
100
AcDbAttributeDefinition
280
     0
  3
Depth Map Size
  2
ZSIZE
 70
     1
280
     0
  0
ATTDEF
  5
6E
330
5F
100
AcDbEntity
  8
ASHADE
  6
Continuous
 62
     7
100
AcDbText
 10
0.0
 20
-0.3300000000000001
 30
0.0
 40
0.01
  1
0,0,0
100
AcDbAttributeDefinition
280
     0
  3
Look-from XYZ
  2
LFXYZ
 70
     1
280
     0
  0
ATTDEF
  5
6F
330
5F
100
AcDbEntity
  8
ASHADE
  6
Continuous
 62
     7
100
AcDbText
 10
0.0
 20
-0.315
 30
0.0
 40
0.01
  1
0.0
100
AcDbAttributeDefinition
280
     0
  3
Beam Distribution
  2
BEAMDI
 70
     1
280
     0
  0
ATTDEF
  5
70
330
5F
100
AcDbEntity
  8
ASHADE
  6
Continuous
 62
     7
100
AcDbText
 10
0.0
 20
-0.3
 30
0.0
 40
0.01
  1
0.0
100
AcDbAttributeDefinition
280
     0
  3
Cone Delta
  2
CONEDE
 70
     1
280
     0
  0
ATTDEF
  5
71
330
5F
100
AcDbEntity
  8
ASHADE
  6
Continuous
 62
     7
100
AcDbText
 10
0.0
 20
-0.2850000000000001
 30
0.0
 40
0.01
  1
10.0
100
AcDbAttributeDefinition
280
     0
  3
Cone Angle
  2
CONEAN
 70
     1
280
     0
  0
ATTDEF
  5
72
330
5F
100
AcDbEntity
  8
ASHADE
  6
Continuous
 62
     7
100
AcDbText
 10
0.0
 20
-0.27
 30
0.0
 40
0.01
  1
-1
100
AcDbAttributeDefinition
280
     0
  3
*not used*
  2
BIASMAX
 70
     1
280
     0
  0
ATTDEF
  5
73
330
5F
100
AcDbEntity
  8
ASHADE
  6
Continuous
 62
     7
100
AcDbText
 10
0.0
 20
-0.255
 30
0.0
 40
0.01
  1
-1
100
AcDbAttributeDefinition
280
     0
  3
*not used*
  2
BIASMIN
 70
     1
280
     0
  0
ATTDEF
  5
74
330
5F
100
AcDbEntity
  8
ASHADE
  6
Continuous
 62
     7
100
AcDbText
 10
0.0
 20
-0.225
 30
0.0
 40
0.01
  1
1,1,1
100
AcDbAttributeDefinition
280
     0
  3
Light Color (RGB)
  2
COLOR
 70
     1
280
     0
  0
ATTDEF
  5
75
330
5F
100
AcDbEntity
  8
ASHADE
  6
Continuous
 62
     7
100
AcDbText
 10
0.0
 20
-0.21
 30
0.0
 40
0.01
  1
1
100
AcDbAttributeDefinition
280
     0
  3
Light Intensity
  2
INTENSITY
 70
     1
280
     0
  0
ATTDEF
  5
76
330
5F
100
AcDbEntity
  8
ASHADE
  6
Continuous
 62
     7
100
AcDbText
 10
0.0
 20
-0.15
 30
0.0
 40
0.01
  1

100
AcDbAttributeDefinition
280
     0
  3

  2
GNAME
 70
     1
280
     0
  0
ATTDEF
  5
77
330
5F
100
AcDbEntity
  8
ASHADE
  6
Continuous
 62
     7
100
AcDbText
 10
0.0
 20
-0.195
 30
0.0
 40
0.01
  1

100
AcDbAttributeDefinition
280
     0
  3
Look-at Z
  2
LAZ
 70
     1
280
     0
  0
ATTDEF
  5
78
330
5F
100
AcDbEntity
  8
ASHADE
  6
Continuous
 62
     7
100
AcDbText
 10
0.0
 20
-0.18
 30
0.0
 40
0.01
  1

100
AcDbAttributeDefinition
280
     0
  3
Look-at Y
  2
LAY
 70
     1
280
     0
  0
ATTDEF
  5
79
330
5F
100
AcDbEntity
  8
ASHADE
  6
Continuous
 62
     7
100
AcDbText
 10
0.0
 20
-0.165
 30
0.0
 40
0.01
  1

100
AcDbAttributeDefinition
280
     0
  3
Look-at X
  2
LAX
 70
     1
280
     0
  0
LINE
  5
7A
330
5F
100
AcDbEntity
  8
ASHADE
  6
Continuous
 62
     7
100
AcDbLine
 10
0.25
 20
-0.3399999999999999
 30
0.0
 11
0.25
 21
-0.13
 31
0.0
  0
LINE
  5
7B
330
5F
100
AcDbEntity
  8
ASHADE
  6
Continuous
 62
     7
100
AcDbLine
 10
0.25
 20
-0.18
 30
0.0
 11
0.29
 21
-0.18
 31
0.0
  0
LINE
  5
7C
330
5F
100
AcDbEntity
  8
ASHADE
  6
Continuous
 62
     7
100
AcDbLine
 10
0.29
 20
-0.22
 30
0.0
 11
0.25
 21
-0.22
 31
0.0
  0
LINE
  5
7D
330
5F
100
AcDbEntity
  8
ASHADE
  6
Continuous
 62
     7
100
AcDbLine
 10
0.29
 20
-0.18
 30
0.0
 11
0.29
 21
-0.22
 31
0.0
  0
LINE
  5
7E
330
5F
100
AcDbEntity
  8
ASHADE
  6
Continuous
 62
     7
100
AcDbLine
 10
0.21
 20
0.26
 30
0.0
 11
0.301304347826087
 21
0.46
 31
0.0
  0
LINE
  5
7F
330
5F
100
AcDbEntity
  8
ASHADE
  6
Continuous
 62
     7
100
AcDbLine
 10
0.1045454545454545
 20
0.26
 30
0.0
 11
0.15
 21
0.46
 31
0.0
  0
LINE
  5
80
330
5F
100
AcDbEntity
  8
ASHADE
  6
Continuous
 62
     7
100
AcDbLine
 10
0.0
 20
0.26
 30
0.0
 11
0.0
 21
0.46
 31
0.0
  0
LINE
  5
81
330
5F
100
AcDbEntity
  8
ASHADE
  6
Continuous
 62
     7
100
AcDbLine
 10
0.25
 20
0.13
 30
0.0
 11
0.25
 21
0.26
 31
0.0
  0
LINE
  5
82
330
5F
100
AcDbEntity
  8
ASHADE
  6
Continuous
 62
     7
100
AcDbLine
 10
0.25
 20
0.22
 30
0.0
 11
0.29
 21
0.22
 31
0.0
  0
LINE
  5
83
330
5F
100
AcDbEntity
  8
ASHADE
  6
Continuous
 62
     7
100
AcDbLine
 10
0.29
 20
0.1799999999999999
 30
0.0
 11
0.25
 21
0.1799999999999999
 31
0.0
  0
LINE
  5
84
330
5F
100
AcDbEntity
  8
ASHADE
  6
Continuous
 62
     7
100
AcDbLine
 10
0.29
 20
0.22
 30
0.0
 11
0.29
 21
0.1799999999999999
 31
0.0
  0
ENDBLK
  5
86
330
5F
100
AcDbEntity
  8
0
100
AcDbBlockEnd
  0
BLOCK
  5
92
330
91
100
AcDbEntity
  8
ASHADE
100
AcDbBlockBegin
  2
AVE_RENDER
 70
     0
 10
0.0
 20
0.0
 30
0.0
  3
AVE_RENDER
  1
AVE_RENDER
  0
ENDBLK
  5
93
330
91
100
AcDbEntity
  8
0
100
AcDbBlockEnd
  0
BLOCK
  5
A0
330
9F
100
AcDbEntity
  8
ASHADE
100
AcDbBlockBegin
  2
AVE_GLOBAL
 70
     0
 10
0.0
 20
0.0
 30
0.0
  3
AVE_GLOBAL
  1
AVE_GLOBAL
  0
ENDBLK
  5
A1
330
9F
100
AcDbEntity
  8
0
100
AcDbBlockEnd
  0
ENDSEC
  0
SECTION
  2
ENTITIES
  0
INSERT
  5
94
330
1F
100
AcDbEntity
  8
ASHADE
 62
     1
100
AcDbBlockReference
  2
AVE_RENDER
 10
0.0
 20
0.0
 30
0.0
1001
AVE_RENDER
1002
{
1070
     7
1000
Pref
1070
    30
1070
    20
1070
     1
1070
     0
1000

1070
    10
1070
     1
1070
    10
1040
1.0
1070
     1
1040
0.3
1040
0.7
1040
0.0
1040
10.0
1010
-1.0
1020
-1.0
1030
-1.0
1040
0.3
1070
    49
1070
     0
1070
     0
1010
1.0
1020
1.0
1030
1.0
1040
45.0
1070
     1
1070
     0
1000
WCS
1040
0.0
1070
     0
1040
10.0
1002
}
  0
INSERT
  5
95
330
1F
100
AcDbEntity
  8
ASHADE
 62
     3
100
AcDbBlockReference
  2
AVE_RENDER
 10
0.0
 20
0.0
 30
0.0
1001
AVE_RENDER
1002
{
1070
     0
1000
Full Opt
1070
     0
1070
     1
1070
     1
1070
     1
1070
     0
1070
     0
1070
     0
1070
     1
1070
     1
1040
0.0001
1040
0.0001
1002
}
  0
INSERT
  5
96
330
1F
100
AcDbEntity
  8
ASHADE
 62
     4
100
AcDbBlockReference
  2
AVE_RENDER
 10
0.0
 20
0.0
 30
0.0
1001
AVE_RENDER
1002
{
1070
     0
1000
Quick Opt
1070
     0
1070
     1
1070
     1
1070
     1
1070
     0
1070
     0
1070
     1
1002
}
  0
INSERT
  5
97
330
1F
100
AcDbEntity
  8
ASHADE
 62
     5
100
AcDbBlockReference
  2
AVE_RENDER
 10
0.0
 20
0.0
 30
0.0
1001
AVE_RENDER
1002
{
1070
     1
1000
Scanl Opt
1070
     2
1070
     0
1070
     2
1040
2.0
1040
4.0
1070
     0
1070
     1
1070
     0
1040
0.03
1002
}
  0
INSERT
  5
98
330
1F
100
AcDbEntity
  8
ASHADE
 62
     6
100
AcDbBlockReference
  2
AVE_RENDER
 10
0.0
 20
0.0
 30
0.0
1001
AVE_RENDER
1002
{
1070
     2
1000
Raytr Opt
1070
     2
1070
     0
1070
     2
1040
2.0
1040
4.0
1070
     0
1070
     1
1070
     1
1040
0.03
1070
     3
1040
0.03
1002
}
  0
INSERT
  5
99
330
1F
100
AcDbEntity
  8
ASHADE
 62
     7
100
AcDbBlockReference
  2
AVE_RENDER
 10
0.0
 20
0.0
 30
0.0
1001
AVE_RENDER
1002
{
1070
     0
1000
RFile Opt
1070
     1
1070
   640
1070
   480
1070
 10000
1070
     1
1070
     8
1070
     8
1070
     0
1070
     0
1070
     0
1070
     0
1070
     0
1070
     0
1070
     0
1002
}
  0
INSERT
  5
9A
330
1F
100
AcDbEntity
  8
ASHADE
 62
     8
100
AcDbBlockReference
  2
AVE_RENDER
 10
0.0
 20
0.0
 30
0.0
1001
AVE_RENDER
1002
{
1070
     0
1000
Fog Opt
1070
     0
1070
     0
1040
0.0
1040
1.0
1040
0.0
1040
1.0
1010
0.5
1020
0.5
1030
0.5
1002
}
  0
INSERT
  5
9B
330
1F
100
AcDbEntity
  8
ASHADE
 62
     9
100
AcDbBlockReference
  2
AVE_RENDER
 10
0.0
 20
0.0
 30
0.0
1001
AVE_RENDER
1002
{
1070
     0
1000
BG Opt
1070
     0
1070
     1
1010
0.0
1020
0.0
1030
0.0
1010
1.0
1020
0.0
1030
0.0
1010
0.0
1020
1.0
1030
0.0
1010
0.0
1020
0.0
1030
1.0
1040
0.5
1040
0.33
1040
0.0
1000

1070
     1
1000

1070
     1
1070
     1
1040
1.0
1040
1.0
1040
0.0
1040
0.0
1070
     0
1002
}
  0
INSERT
  5
A2
330
1F
100
AcDbEntity
  8
ASHADE
 62
     1
100
AcDbBlockReference
  2
AVE_GLOBAL
 10
0.0
 20
0.0
 30
0.0
1001
AVE_MATERIAL
1002
{
1000
*GLOBAL*
1000
2
1000
Global finish.
1002
{
1002
}
1002
{
1070
    63
1002
{
1002
{
1010
-1.0
1020
-1.0
1030
-1.0
1002
}
1040
0.1000000014901161
1000

1040
0.0
1002
{
1002
}
1040
0.0
1002
{
1002
}
1040
0.0
1002
}
1002
{
1002
{
1010
-1.0
1020
-1.0
1030
-1.0
1002
}
1040
0.6999999880790711
1000

1040
0.0
1002
{
1002
}
1040
0.0
1002
{
1002
}
1040
0.0
1002
}
1002
{
1002
{
1010
-1.0
1020
-1.0
1030
-1.0
1002
}
1040
0.2000000029802322
1000

1040
0.0
1002
{
1002
}
1040
0.0
1002
{
1002
}
1040
0.0
1002
}
1002
{
1070
     0
1002
{
1070
     1
1002
{
1040
1.0
1040
1.0
1000

1040
0.0
1002
{
1002
}
1040
0.0
1002
{
1002
}
1040
0.0
1002
}
1002
}
1040
1.0
1040
0.0
1040
0.0
1002
}
1002
{
1040
1.0
1040
1.0
1000

1040
0.0
1002
{
1002
}
1040
0.0
1002
{
1002
}
1040
0.0
1002
}
1002
{
1040
0.5
1040
1.0
1000

1040
0.0
1002
{
1002
}
1040
0.0
1002
{
1002
}
1040
0.0
1002
}
1002
{
1070
     0
1040
0.0
1002
{
1002
}
1040
1.0
1002
{
1002
}
1040
0.0
1002
}
1002
{
1040
0.0
1002
{
1002
{
1010
0.0
1020
0.0
1030
0.0
1002
}
1040
1.0
1000

1040
0.0
1002
{
1002
}
1040
0.0
1002
{
1002
}
1040
0.0
1002
}
1002
}
1002
{
1002
{
1070
     1
1002
{
1040
0.0
1040
1.0
1000

1040
0.0
1002
{
1002
}
1040
0.0
1002
{
1002
}
1040
0.0
1002
}
1002
}
1040
0.0
1002
{
1002
}
1010
1.0
1020
0.0
1030
0.0
1010
0.0
1020
1.0
1030
0.0
1010
0.0
1020
0.0
1030
1.0
1070
     0
1002
}
1002
{
1002
{
1040
1.0
1040
1.0
1002
{
1070
     1
1002
{
1040
1.0
1040
1.0
1000

1040
0.0
1002
{
1002
}
1040
0.0
1002
{
1002
}
1040
0.0
1002
}
1002
}
1002
}
1070
     0
1040
0.0
1002
{
1002
}
1002
}
1002
{
1002
}
1002
}
1002
{
1071
        3
1070
     3
1070
     0
1002
{
1070
     2
1070
     0
1070
     0
1040
0.0
1002
}
1070
     0
1070
     2
1002
{
1002
}
1002
}
1002
{
1040
8030.0
1040
190.3000030517578
1040
0.3050000071525574
1040
228.0
1040
545.0
1040
14.0
1040
17.39999961853027
1040
0.4560000002384186
1002
}
1002
}
  0
MESH
  5
F9
330
1F
100
AcDbEntity
  8
OracDecor_cornice_mouldings
 62
   173
420
  5789921
160
             31256
310
187A0000640300000C00000013000000020000003C00000006000000020000000000000000408FC0000000C0FDFF17C0000000C0FF7F4BC00000000000408FC0000000000000E43E000000C0FF7F4BC00C000000130000000A0000003C00000006000000020000000000000000408FC0000000000000E43E000000C0FF7F4B
310
C00000000000408F40000000000000E43E000000C0FF7F4BC00C00000013000000120000003C00000006000000020000000000000000408F40000000000000E43E000000C0FF7F4BC00000000000408F40000000C0FDFF17C0000000C0FF7F4BC00C000000130000001A0000003C0000000600000002000000000000000040
310
8FC0000000C0FDFF17C0000000C0FF7F4BC00000000000408F40000000C0FDFF17C0000000C0FF7F4BC00C00000013000000220000003C00000006000000020000000000000000408FC0000000000000E43E000000C0FF7F4BC00000000000408FC0000000000000E03E000000806B1548C00C000000130000002A0000003C
310
00000006000000020000000000000000408FC0000000000000E03E000000806B1548C00000000000408F40000000000000E03E000000806B1548C00C00000013000000320000003C00000006000000020000000000000000408F40000000000000E03E000000806B1548C00000000000408F40000000000000E43E000000C0
310
FF7F4BC00C000000130000003A0000003C00000006000000020000000000000000408FC0000000000000E03E000000806B1548C00000000000408FC0000000000071A1BF000000804AF447C00C00000013000000420000003C00000006000000020000000000000000408FC0000000000071A1BF000000804AF447C0000000
310
0000408F40000000000071A1BF000000804AF447C00C000000130000004A0000003C00000006000000020000000000000000408F40000000000071A1BF000000804AF447C00000000000408F40000000000000E03E000000806B1548C00C00000013000000520000003C00000006000000020000000000000000408FC00000
310
0000D025C1BF000000806BD547C00000000000408FC0000000000071A1BF000000804AF447C00C000000130000005A0000003C00000006000000020000000000000000408FC000000000D025C1BF000000806BD547C00000000000408F4000000000D025C1BF000000806BD547C00C00000013000000620000003C00000006
310
000000020000000000000000408F4000000000D025C1BF000000806BD547C00000000000408F40000000000071A1BF000000804AF447C00C000000130000006A0000003C00000006000000020000000000000000408FC000000000D025C1BF000000806BD547C00000000000408FC0000000008429EDBF00000060142947C0
310
0C00000013000000720000003C00000006000000020000000000000000408FC0000000008429EDBF00000060142947C00000000000408F40000000008429EDBF00000060142947C00C000000130000007A0000003C00000006000000020000000000000000408F40000000008429EDBF00000060142947C00000000000408F
310
4000000000D025C1BF000000806BD547C00C00000013000000820000003C00000006000000020000000000000000408FC0000000008429EDBF00000060142947C00000000000408FC000000000F62DF0BF000000E0340A47C00C000000130000008A0000003C00000006000000020000000000000000408FC000000000F62D
310
F0BF000000E0340A47C00000000000408F4000000000F62DF0BF000000E0340A47C00C00000013000000920000003C00000006000000020000000000000000408F40000000008429EDBF00000060142947C00000000000408F4000000000F62DF0BF000000E0340A47C00C000000130000009A0000003C0000000600000002
310
0000000000000000408FC000000000F62DF0BF000000E0340A47C00000000000408FC00000000082B9F0BF0000006014E946C00C00000013000000A20000003C00000006000000020000000000000000408FC00000000082B9F0BF0000006014E946C00000000000408F400000000082B9F0BF0000006014E946C00C000000
310
13000000AA0000003C00000006000000020000000000000000408F4000000000F62DF0BF000000E0340A47C00000000000408F400000000082B9F0BF0000006014E946C00C00000013000000B20000003C00000006000000020000000000000000408FC00000000082B9F0BF0000006014E946C00000000000408FC0000000
310
00F62DF0BF000000E0F3C746C00C00000013000000BA0000003C00000006000000020000000000000000408FC000000000F62DF0BF000000E0F3C746C00000000000408F4000000000F62DF0BF000000E0F3C746C00C00000013000000C20000003C00000006000000020000000000000000408F400000000082B9F0BF0000
310
006014E946C00000000000408F4000000000F62DF0BF000000E0F3C746C00C00000013000000CA0000003C00000006000000020000000000000000408FC000000000F62DF0BF000000E0F3C746C00000000000408FC0000000008429EDBF0000006014A946C00C00000013000000D20000003C000000060000000200000000
310
00000000408FC0000000008429EDBF0000006014A946C00000000000408F40000000008429EDBF0000006014A946C00C00000013000000DA0000003C00000006000000020000000000000000408F4000000000F62DF0BF000000E0F3C746C00000000000408F40000000008429EDBF0000006014A946C00C00000013000000
310
E20000003C00000006000000020000000000000000408FC0000000008429EDBF0000006014A946C00000000000408FC000000000D025C1BF00000040BDFC45C00C00000013000000EA0000003C00000006000000020000000000000000408FC000000000D025C1BF00000040BDFC45C00000000000408F4000000000D025C1
310
BF00000040BDFC45C00C00000013000000F20000003C00000006000000020000000000000000408F40000000008429EDBF0000006014A946C00000000000408F4000000000D025C1BF00000040BDFC45C00C00000013000000FA0000003C00000006000000020000000000000000408FC000000000D025C1BF00000040BDFC
310
45C00000000000408FC0000000004071A1BF00000040DEDD45C00C00000013000000020100003C00000006000000020000000000000000408FC0000000004071A1BF00000040DEDD45C00000000000408F40000000004071A1BF00000040DEDD45C00C000000130000000A0100003C00000006000000020000000000000000
310
408F4000000000D025C1BF00000040BDFC45C00000000000408F40000000004071A1BF00000040DEDD45C00C00000013000000120100003C00000006000000020000000000000000408FC0000000004071A1BF00000040DEDD45C00000000000408FC0000000000000E03E00000040BDBC45C00C000000130000001A010000
310
3C00000006000000020000000000000000408FC0000000000000E03E00000040BDBC45C00000000000408F40000000000000E03E00000040BDBC45C00C00000013000000220100003C00000006000000020000000000000000408F40000000004071A1BF00000040DEDD45C00000000000408F40000000000000E03E000000
310
40BDBC45C00C000000130000002A0100003C00000006000000020000000000000000408FC0000000000000E03E00000040BDBC45C00000000000408FC0000000000000E03E000000002BA242C00C00000013000000320100003C00000006000000020000000000000000408FC0000000000000E03E000000002BA242C00000
310
000000408F40000000000000E03E000000002BA242C00C000000130000003A0100003C00000006000000020000000000000000408F40000000000000E03E00000040BDBC45C00000000000408F40000000000000E03E000000002BA242C00C00000013000000420100003C00000006000000020000000000000000408FC000
310
0000000000E03E000000002BA242C00000000000408FC00000000000ED9FBF00000000F26A42C00C000000130000004A0100003C00000006000000020000000000000000408FC00000000000ED9FBF00000000F26A42C00000000000408F400000000000ED9FBF00000000F26A42C00C00000013000000520100003C000000
310
06000000020000000000000000408F40000000000000E03E000000002BA242C00000000000408F400000000000ED9FBF00000000F26A42C00C000000130000005A0100003C00000006000000020000000000000000408FC00000000000ED9FBF00000000F26A42C00000000000408FC000000000C0C3BFBF000000C0DE3442
310
C00C00000013000000620100003C00000006000000020000000000000000408FC000000000C0C3BFBF000000C0DE3442C00000000000408F4000000000C0C3BFBF000000C0DE3442C00C000000130000006A0100003C00000006000000020000000000000000408F400000000000ED9FBF00000000F26A42C0000000000040
310
8F4000000000C0C3BFBF000000C0DE3442C00C00000013000000720100003C00000006000000020000000000000000408FC000000000C0C3BFBF000000C0DE3442C00000000000408FC000000000A0B6D1BF00000060110142C00C000000130000007A0100003C00000006000000020000000000000000408FC000000000A0
310
B6D1BF00000060110142C00000000000408F4000000000A0B6D1BF00000060110142C00C00000013000000820100003C00000006000000020000000000000000408F4000000000C0C3BFBF000000C0DE3442C00000000000408F4000000000A0B6D1BF00000060110142C00C000000130000008A0100003C00000006000000
310
020000000000000000408FC000000000A0B6D1BF00000060110142C00000000000408FC000000000784FE4BF00000040AAA441C00C00000013000000920100003C00000006000000020000000000000000408FC000000000784FE4BF00000040AAA441C00000000000408F4000000000784FE4BF00000040AAA441C00C0000
310
00130000009A0100003C00000006000000020000000000000000408F4000000000A0B6D1BF00000060110142C00000000000408F4000000000784FE4BF00000040AAA441C00C00000013000000A20100003C00000006000000020000000000000000408FC000000000784FE4BF00000040AAA441C00000000000408FC00000
310
00009C28F7BF000000C0FAF540C00C00000013000000AA0100003C00000006000000020000000000000000408FC0000000009C28F7BF000000C0FAF540C00000000000408F40000000009C28F7BF000000C0FAF540C00C00000013000000B20100003C00000006000000020000000000000000408F4000000000784FE4BF00
310
000040AAA441C00000000000408F40000000009C28F7BF000000C0FAF540C00C00000013000000BA0100003C00000006000000020000000000000000408FC0000000009C28F7BF000000C0FAF540C00000000000408FC0000000C0EFA126C0000000C0A86935C00C00000013000000C20100003C0000000600000002000000
310
0000000000408FC0000000C0EFA126C0000000C0A86935C00000000000408F40000000C0EFA126C0000000C0A86935C00C00000013000000CA0100003C00000006000000020000000000000000408F40000000009C28F7BF000000C0FAF540C00000000000408F40000000C0EFA126C0000000C0A86935C00C000000130000
310
00D20100003C00000006000000020000000000000000408FC0000000C0EFA126C0000000C0A86935C00000000000408FC0000000E05DE827C000000040B27B34C00C00000013000000DA0100003C00000006000000020000000000000000408FC0000000E05DE827C000000040B27B34C00000000000408F40000000E05DE8
310
27C000000040B27B34C00C00000013000000E20100003C00000006000000020000000000000000408F40000000C0EFA126C0000000C0A86935C00000000000408F40000000E05DE827C000000040B27B34C00C00000013000000EA0100003C00000006000000020000000000000000408FC0000000E05DE827C000000040B2
310
7B34C00000000000408FC0000000C0934829C000000020F62533C00C00000013000000F20100003C00000006000000020000000000000000408FC0000000C0934829C000000020F62533C00000000000408F40000000C0934829C000000020F62533C00C00000013000000FA0100003C000000060000000200000000000000
310
00408F40000000E05DE827C000000040B27B34C00000000000408F40000000C0934829C000000020F62533C00C00000013000000020200003C00000006000000020000000000000000408FC0000000C0934829C000000020F62533C00000000000408FC00000004009E62AC0000000C00F4231C00C000000130000000A0200
310
003C00000006000000020000000000000000408FC00000004009E62AC0000000C00F4231C00000000000408F400000004009E62AC0000000C00F4231C00C00000013000000120200003C00000006000000020000000000000000408F40000000C0934829C000000020F62533C00000000000408F400000004009E62AC00000
310
00C00F4231C00C000000130000001A0200003C00000006000000020000000000000000408FC00000004009E62AC0000000C00F4231C00000000000408FC00000006022592DC00000000043E72DC00C00000013000000220200003C00000006000000020000000000000000408FC00000006022592DC00000000043E72DC000
310
00000000408F400000006022592DC00000000043E72DC00C000000130000002A0200003C00000006000000020000000000000000408F400000004009E62AC0000000C00F4231C00000000000408F400000006022592DC00000000043E72DC00C00000013000000320200003C00000006000000020000000000000000408FC0
310
0000006022592DC00000000043E72DC00000000000408FC0000000C0A41730C0000000C05DC429C00C000000130000003A0200003C00000006000000020000000000000000408FC0000000C0A41730C0000000C05DC429C00000000000408F40000000C0A41730C0000000C05DC429C00C00000013000000420200003C0000
310
0006000000020000000000000000408F400000006022592DC00000000043E72DC00000000000408F40000000C0A41730C0000000C05DC429C00C000000130000004A0200003C00000006000000020000000000000000408FC0000000C0A41730C0000000C05DC429C00000000000408FC00000000024A831C0000000608E2B
310
26C00C00000013000000520200003C00000006000000020000000000000000408FC00000000024A831C0000000608E2B26C00000000000408F400000000024A831C0000000608E2B26C00C000000130000005A0200003C00000006000000020000000000000000408F40000000C0A41730C0000000C05DC429C00000000000
310
408F400000000024A831C0000000608E2B26C00C00000013000000620200003C00000006000000020000000000000000408FC00000000024A831C0000000608E2B26C00000000000408FC0000000004B8C33C000000080DEC622C00C000000130000006A0200003C00000006000000020000000000000000408FC000000000
310
4B8C33C000000080DEC622C00000000000408F40000000004B8C33C000000080DEC622C00C00000013000000720200003C00000006000000020000000000000000408F400000000024A831C0000000608E2B26C00000000000408F40000000004B8C33C000000080DEC622C00C000000130000007A0200003C000000060000
310
00020000000000000000408FC0000000004B8C33C000000080DEC622C00000000000408FC0000000202C4435C0000000C09D6220C00C00000013000000820200003C00000006000000020000000000000000408FC0000000202C4435C0000000C09D6220C00000000000408F40000000202C4435C0000000C09D6220C00C00
310
0000130000008A0200003C00000006000000020000000000000000408F40000000004B8C33C000000080DEC622C00000000000408F40000000202C4435C0000000C09D6220C00C00000013000000920200003C00000006000000020000000000000000408FC0000000202C4435C0000000C09D6220C00000000000408FC000
310
0000003C0837C000000000F3DF1CC00C000000130000009A0200003C00000006000000020000000000000000408FC0000000003C0837C000000000F3DF1CC00000000000408F40000000003C0837C000000000F3DF1CC00C00000013000000A20200003C00000006000000020000000000000000408F40000000202C4435C0
310
000000C09D6220C00000000000408F40000000003C0837C000000000F3DF1CC00C00000013000000AA0200003C00000006000000020000000000000000408FC0000000003C0837C000000000F3DF1CC00000000000408FC000000080F1D138C0000000804FA319C00C00000013000000B20200003C00000006000000020000
310
000000000000408FC000000080F1D138C0000000804FA319C00000000000408F4000000080F1D138C0000000804FA319C00C00000013000000BA0200003C00000006000000020000000000000000408F40000000003C0837C000000000F3DF1CC00000000000408F4000000080F1D138C0000000804FA319C00C0000001300
310
0000C20200003C00000006000000020000000000000000408FC000000080F1D138C0000000804FA319C00000000000408FC000000040E4723AC000000040421C17C00C00000013000000CA0200003C00000006000000020000000000000000408FC000000040E4723AC000000040421C17C00000000000408F4000000040E4
310
723AC000000040421C17C00C00000013000000D20200003C00000006000000020000000000000000408F4000000080F1D138C0000000804FA319C00000000000408F4000000040E4723AC000000040421C17C00C00000013000000DA0200003C00000006000000020000000000000000408FC000000040E4723AC000000040
310
421C17C00000000000408FC0000000C0C49F3BC0000000401B0A15C00C00000013000000E20200003C00000006000000020000000000000000408FC0000000C0C49F3BC0000000401B0A15C00000000000408F40000000C0C49F3BC0000000001B0A15C00C00000013000000EA0200003C0000000600000002000000000000
310
0000408F4000000040E4723AC000000040421C17C00000000000408F40000000C0C49F3BC0000000001B0A15C00C00000013000000F20200003C00000006000000020000000000000000408FC0000000C0C49F3BC0000000401B0A15C00000000000408FC0000000C0844E3CC000000000ED9B12C00C00000013000000FA02
310
00003C00000006000000020000000000000000408FC0000000C0844E3CC000000000ED9B12C00000000000408F40000000C0844E3CC000000000ED9B12C00C00000013000000020300003C00000006000000020000000000000000408F40000000C0C49F3BC0000000001B0A15C00000000000408F40000000C0844E3CC000
310
000000ED9B12C00C000000130000000A0300003C00000006000000020000000000000000408FC0000000C0844E3CC000000000ED9B12C00000000000408FC00000000026C63CC00000000077EF0EC00C00000013000000120300003C00000006000000020000000000000000408FC00000000026C63CC00000000077EF0EC0
310
0000000000408F400000000026C63CC00000000077EF0EC00C000000130000001A0300003C00000006000000020000000000000000408F40000000C0844E3CC000000000ED9B12C00000000000408F400000000026C63CC00000000077EF0EC00C00000013000000220300003C00000006000000020000000000000000408F
310
C00000000026C63CC00000000077EF0EC00000000000408FC0000000007EFB3CC0000000002ED107C00C000000130000002A0300003C00000006000000020000000000000000408FC0000000007EFB3CC0000000002ED107C00000000000408F40000000007EFB3CC0000000002ED107C00C00000013000000320300003C00
310
000006000000020000000000000000408F400000000026C63CC00000000077EF0EC00000000000408F40000000007EFB3CC0000000002ED107C00C000000130000003A0300003C00000006000000020000000000000000408FC0000000007EFB3CC0000000002ED107C00000000000408FC0000000C0FFFF3CC000000000E8
310
FFDFBF0C00000013000000420300003C00000006000000020000000000000000408FC0000000C0FFFF3CC000000000E8FFDFBF0000000000408F40000000C0FFFF3CC000000000E8FFDFBF0C000000130000004A0300003C00000006000000020000000000000000408F40000000007EFB3CC0000000002ED107C000000000
310
00408F40000000C0FFFF3CC000000000E8FFDFBF0C00000013000000520300003C00000006000000020000000000000000408FC0000000C0FFFF3CC000000000E8FFDFBF0000000000408FC0000000005B0F3DC00000000080A6D1BF0C000000130000005A0300003C00000006000000020000000000000000408FC0000000
310
005B0F3DC00000000080A6D1BF0000000000408F40000000005B0F3DC00000000080A6D1BF0C00000013000000620300003C00000006000000020000000000000000408F40000000C0FFFF3CC000000000E8FFDFBF0000000000408F40000000005B0F3DC00000000080A6D1BF0C000000130000006A0300003C0000000600
310
0000020000000000000000408FC0000000005B0F3DC00000000080A6D1BF0000000000408FC0000000209A463DC000000000C0B5AEBF0C00000013000000720300003C00000006000000020000000000000000408FC0000000209A463DC000000000C0B5AEBF0000000000408F40000000209A463DC000000000C0B5AEBF0C
310
000000130000007A0300003C00000006000000020000000000000000408F40000000005B0F3DC00000000080A6D1BF0000000000408F40000000209A463DC000000000C0B5AEBF0C00000013000000820300003C00000006000000020000000000000000408FC0000000209A463DC000000000C0B5AEBF0000000000408FC0
310
000000C0FF7F3DC0000000000000D83E0C000000130000008A0300003C00000006000000020000000000000000408FC0000000C0FF7F3DC0000000000000D83E0000000000408F40000000C0FF7F3DC0000000000000D83E0C00000013000000920300003C00000006000000020000000000000000408F40000000209A463D
310
C000000000C0B5AEBF0000000000408F40000000C0FF7F3DC0000000000000D83E0C000000130000009A0300003C00000006000000020000000000000000408FC0000000C0FF7F3DC0000000000000D83E0000000000408FC0000000C0A81340C0000000000000D83E0C00000013000000A20300003C000000060000000200
310
00000000000000408FC0000000C0A81340C0000000000000D83E0000000000408F40000000C0A81340C0000000000000D83E0C00000013000000AA0300003C00000006000000020000000000000000408F40000000C0A81340C0000000000000D83E0000000000408F40000000C0FF7F3DC0000000000000D83E0C00000013
310
000000B20300003C00000006000000020000000000000000408FC0000000C0A81340C0000000000000D83E0000000000408FC0000000C0C93440C0000000008071A1BF0C00000013000000BA0300003C00000006000000020000000000000000408FC0000000C0C93440C0000000008071A1BF0000000000408F40000000C0
310
C93440C0000000008071A1BF0C00000013000000C20300003C00000006000000020000000000000000408F40000000C0C93440C0000000008071A1BF0000000000408F40000000C0A81340C0000000000000D83E0C00000013000000CA0300003C00000006000000020000000000000000408FC0000000C0C93440C0000000
310
008071A1BF0000000000408FC0000000C0A85340C000000000F025C1BF0C00000013000000D20300003C00000006000000020000000000000000408FC0000000C0A85340C000000000F025C1BF0000000000408F40000000C0A85340C000000000F025C1BF0C00000013000000DA0300003C00000006000000020000000000
310
000000408F40000000C0A85340C000000000F025C1BF0000000000408F40000000C0C93440C0000000008071A1BF0C00000013000000E20300003C00000006000000020000000000000000408FC0000000C0A85340C000000000F025C1BF0000000000408FC0000000E0FFFF40C0000000008829EDBF0C00000013000000EA
310
0300003C00000006000000020000000000000000408FC0000000E0FFFF40C0000000008829EDBF0000000000408F40000000E0FFFF40C0000000008829EDBF0C00000013000000F20300003C00000006000000020000000000000000408F40000000E0FFFF40C0000000008829EDBF0000000000408F40000000C0A85340C0
310
00000000F025C1BF0C00000013000000FA0300003C00000006000000020000000000000000408FC0000000E0FFFF40C0000000008829EDBF0000000000408FC000000060DF1E41C000000000F82DF0BF0C00000013000000020400003C00000006000000020000000000000000408FC000000060DF1E41C000000000F82DF0
310
BF0000000000408F4000000060DF1E41C000000000F82DF0BF0C000000130000000A0400003C00000006000000020000000000000000408F40000000E0FFFF40C0000000008829EDBF0000000000408F4000000060DF1E41C000000000F82DF0BF0C00000013000000120400003C0000000600000002000000000000000040
310
8FC000000060DF1E41C000000000F82DF0BF0000000000408FC0000000E0FF3F41C00000000084B9F0BF0C000000130000001A0400003C00000006000000020000000000000000408FC0000000E0FF3F41C00000000084B9F0BF0000000000408F40000000E0FF3F41C00000000084B9F0BF0C00000013000000220400003C
310
00000006000000020000000000000000408F4000000060DF1E41C000000000F82DF0BF0000000000408F40000000E0FF3F41C00000000084B9F0BF0C000000130000002A0400003C00000006000000020000000000000000408FC0000000E0FF3F41C00000000084B9F0BF0000000000408FC000000060206141C000000000
310
F82DF0BF0C00000013000000320400003C00000006000000020000000000000000408FC000000060206141C000000000F82DF0BF0000000000408F4000000060206141C000000000F82DF0BF0C000000130000003A0400003C00000006000000020000000000000000408F40000000E0FF3F41C00000000084B9F0BF000000
310
0000408F4000000060206141C000000000F82DF0BF0C00000013000000420400003C00000006000000020000000000000000408FC000000060206141C000000000F82DF0BF0000000000408FC0000000E0FF7F41C0000000008829EDBF0C000000130000004A0400003C00000006000000020000000000000000408FC00000
310
00E0FF7F41C0000000008829EDBF0000000000408F40000000E0FF7F41C0000000008829EDBF0C00000013000000520400003C00000006000000020000000000000000408F4000000060206141C000000000F82DF0BF0000000000408F40000000E0FF7F41C0000000008829EDBF0C000000130000005A0400003C00000006
310
000000020000000000000000408FC0000000E0FF7F41C0000000008829EDBF0000000000408FC000000000572C42C000000000F025C1BF0C00000013000000620400003C00000006000000020000000000000000408FC000000000572C42C000000000F025C1BF0000000000408F4000000000572C42C000000000F025C1BF
310
0C000000130000006A0400003C00000006000000020000000000000000408F40000000E0FF7F41C0000000008829EDBF0000000000408F4000000000572C42C000000000F025C1BF0C00000013000000720400003C00000006000000020000000000000000408FC000000000572C42C000000000F025C1BF0000000000408F
310
C000000000364B42C0000000008071A1BF0C000000130000007A0400003C00000006000000020000000000000000408FC000000000364B42C0000000008071A1BF0000000000408F4000000000364B42C0000000008071A1BF0C00000013000000820400003C00000006000000020000000000000000408F4000000000572C
310
42C000000000F025C1BF0000000000408F4000000000364B42C0000000008071A1BF0C000000130000008A0400003C00000006000000020000000000000000408FC000000000364B42C0000000008071A1BF0000000000408FC000000000576C42C0000000000000D83E0C00000013000000920400003C0000000600000002
310
0000000000000000408FC000000000576C42C0000000000000D83E0000000000408F4000000000576C42C0000000000000D83E0C000000130000009A0400003C00000006000000020000000000000000408F4000000000364B42C0000000008071A1BF0000000000408F4000000000576C42C0000000000000D83E0C000000
310
13000000A20400003C00000006000000020000000000000000408FC000000000576C42C0000000000000D83E0000000000408FC0000000E0FFFF43C0000000000000D03E0C00000013000000AA0400003C00000006000000020000000000000000408FC0000000E0FFFF43C0000000000000D03E0000000000408F40000000
310
E0FFFF43C0000000000000D03E0C00000013000000B20400003C00000006000000020000000000000000408F40000000E0FFFF43C0000000000000D03E0000000000408F4000000000576C42C0000000000000D83E0C00000013000000BA0400003C00000006000000020000000000000000408FC0000000E0FFFF43C00000
310
00000000D03E0000000000408FC0000000C0FFFE43C000000000DFFA01C00C00000013000000C20400003C00000006000000020000000000000000408FC0000000C0FFFE43C000000000DFFA01C00000000000408F40000000C0FFFE43C000000000DFFA01C00C00000013000000CA0400003C000000060000000200000000
310
00000000408F40000000C0FFFE43C000000000DFFA01C00000000000408F40000000E0FFFF43C0000000000000D03E0C00000013000000D20400003C00000006000000020000000000000000408FC0000000C0FFFE43C000000000DFFA01C00000000000408FC000000040CDF343C00000000017600AC00C00000013000000
310
DA0400003C00000006000000020000000000000000408FC000000040CDF343C00000000017600AC00000000000408F4000000040CDF343C00000000017600AC00C00000013000000E20400003C00000006000000020000000000000000408F4000000040CDF343C00000000017600AC00000000000408F40000000C0FFFE43
310
C000000000DFFA01C00C00000013000000EA0400003C00000006000000020000000000000000408FC000000040CDF343C00000000017600AC00000000000408FC000000080F8DF43C000000000D67110C00C00000013000000F20400003C00000006000000020000000000000000408FC000000080F8DF43C000000000D671
310
10C00000000000408F4000000080F8DF43C000000000D67110C00C00000013000000FA0400003C00000006000000020000000000000000408F4000000080F8DF43C000000000D67110C00000000000408F4000000040CDF343C00000000017600AC00C00000013000000020500003C00000006000000020000000000000000
310
408FC000000080F8DF43C000000000D67110C00000000000408FC0000000C016C243C0000000008BBD13C00C000000130000000A0500003C00000006000000020000000000000000408FC0000000C016C243C0000000008BBD13C00000000000408F40000000C016C243C0000000008BBD13C00C0000001300000012050000
310
3C00000006000000020000000000000000408F40000000C016C243C0000000008BBD13C00000000000408F4000000080F8DF43C000000000D67110C00C000000130000001A0500003C00000006000000020000000000000000408FC0000000C016C243C0000000008BBD13C00000000000408FC000000040C69943C0000000
310
40490E17C00C00000013000000220500003C00000006000000020000000000000000408FC000000040C69943C000000040490E17C00000000000408F4000000040C69943C000000040490E17C00C000000130000002A0500003C00000006000000020000000000000000408F4000000040C69943C000000040490E17C00000
310
000000408F40000000C016C243C0000000008BBD13C00C00000013000000320500003C00000006000000020000000000000000408FC000000040C69943C000000040490E17C00000000000408FC0000000C0C86643C000000000A25C1AC00C000000130000003A0500003C00000006000000020000000000000000408FC000
310
0000C0C86643C000000000A25C1AC00000000000408F40000000C0C86643C000000000A25C1AC00C00000013000000420500003C00000006000000020000000000000000408F40000000C0C86643C000000000A25C1AC00000000000408F4000000040C69943C000000040490E17C00C000000130000004A0500003C000000
310
06000000020000000000000000408FC0000000C0C86643C000000000A25C1AC00000000000408FC000000040212943C0000000C0859E1DC00C00000013000000520500003C00000006000000020000000000000000408FC000000040212943C0000000C0859E1DC00000000000408F4000000040212943C0000000C0859E1D
310
C00C000000130000005A0500003C00000006000000020000000000000000408F4000000040212943C0000000C0859E1DC00000000000408F40000000C0C86643C000000000A25C1AC00C00000013000000620500003C00000006000000020000000000000000408FC000000040212943C0000000C0859E1DC0000000000040
310
8FC00000004031E142C0000000C0C46320C00C000000130000006A0500003C00000006000000020000000000000000408FC00000004031E142C0000000C0C46320C00000000000408F400000004031E142C0000000C0C46320C00C00000013000000720500003C00000006000000020000000000000000408F400000004031
310
E142C0000000C0C46320C00000000000408F4000000040212943C0000000C0859E1DC00C000000130000007A0500003C00000006000000020000000000000000408FC00000004031E142C0000000C0C46320C00000000000408FC000000040CC8F42C0000000A0D4E421C00C00000013000000820500003C00000006000000
310
020000000000000000408FC000000040CC8F42C0000000A0D4E421C00000000000408F4000000040CC8F42C0000000A0D4E421C00C000000130000008A0500003C00000006000000020000000000000000408F4000000040CC8F42C0000000A0D4E421C00000000000408F400000004031E142C0000000C0C46320C00C0000
310
0013000000920500003C00000006000000020000000000000000408FC000000040CC8F42C0000000A0D4E421C00000000000408FC0000000E03A3642C0000000C0484B23C00C000000130000009A0500003C00000006000000020000000000000000408FC0000000E03A3642C0000000C0484B23C00000000000408F400000
310
00E03A3642C0000000C0484B23C00C00000013000000A20500003C00000006000000020000000000000000408F40000000E03A3642C0000000C0484B23C00000000000408F4000000040CC8F42C0000000A0D4E421C00C00000013000000AA0500003C00000006000000020000000000000000408FC0000000E03A3642C000
310
0000C0484B23C00000000000408FC00000000027D641C0000000C08C9024C00C00000013000000B20500003C00000006000000020000000000000000408FC00000000027D641C0000000C08C9024C00000000000408F400000000027D641C0000000C08C9024C00C00000013000000BA0500003C0000000600000002000000
310
0000000000408F400000000027D641C0000000C08C9024C00000000000408F40000000E03A3642C0000000C0484B23C00C00000013000000C20500003C00000006000000020000000000000000408FC00000000027D641C0000000C08C9024C00000000000408FC0000000C0177141C0000000003DB025C00C000000130000
310
00CA0500003C00000006000000020000000000000000408FC0000000C0177141C0000000003DB025C00000000000408F40000000C0177141C0000000003DB025C00C00000013000000D20500003C00000006000000020000000000000000408F40000000C0177141C0000000003DB025C00000000000408F400000000027D6
310
41C0000000C08C9024C00C00000013000000DA0500003C00000006000000020000000000000000408FC0000000C0177141C0000000003DB025C00000000000408FC0000000E0800141C00000008040B726C00C00000013000000E20500003C00000006000000020000000000000000408FC0000000E0800141C00000008040
310
B726C00000000000408F40000000E0800141C00000008040B726C00C00000013000000EA0500003C00000006000000020000000000000000408F40000000E0800141C00000008040B726C00000000000408F40000000C0177141C0000000003DB025C00C00000013000000F20500003C000000060000000200000000000000
310
00408FC0000000E0800141C00000008040B726C00000000000408FC000000020157340C0000000C01DCA27C00C00000013000000FA0500003C00000006000000020000000000000000408FC000000020157340C0000000C01DCA27C00000000000408F4000000020157340C0000000C01DCA27C00C00000013000000020600
310
003C00000006000000020000000000000000408F4000000020157340C0000000C01DCA27C00000000000408F40000000E0800141C00000008040B726C00C000000130000000A0600003C00000006000000020000000000000000408FC000000020157340C0000000C01DCA27C00000000000408FC000000040B1B93FC00000
310
0040BCBF28C00C00000013000000120600003C00000006000000020000000000000000408FC000000040B1B93FC000000040BCBF28C00000000000408F4000000040B1B93FC000000040BCBF28C00C000000130000001A0600003C00000006000000020000000000000000408F4000000040B1B93FC000000040BCBF28C000
310
00000000408F4000000020157340C0000000C01DCA27C00C00000013000000220600003C00000006000000020000000000000000408FC000000040B1B93FC000000040BCBF28C00000000000408FC000000080CD873EC000000040569F29C00C000000130000002A0600003C00000006000000020000000000000000408FC0
310
00000080CD873EC000000040569F29C00000000000408F4000000080CD873EC000000040569F29C00C00000013000000320600003C00000006000000020000000000000000408F4000000080CD873EC000000040569F29C00000000000408F4000000040B1B93FC000000040BCBF28C00C000000130000003A0600003C0000
310
0006000000020000000000000000408FC000000080CD873EC000000040569F29C00000000000408FC0000000008E2B3DC0000000C096992AC00C00000013000000420600003C00000006000000020000000000000000408FC0000000008E2B3DC0000000C096992AC00000000000408F40000000008E2B3DC0000000C09699
310
2AC00C000000130000004A0600003C00000006000000020000000000000000408F40000000008E2B3DC0000000C096992AC00000000000408F4000000080CD873EC000000040569F29C00C00000013000000520600003C00000006000000020000000000000000408FC0000000008E2B3DC0000000C096992AC00000000000
310
408FC000000080C2033CC0000000005F7D2BC00C000000130000005A0600003C00000006000000020000000000000000408FC000000080C2033CC0000000005F7D2BC00000000000408F4000000080C2033CC0000000005F7D2BC00C00000013000000620600003C00000006000000020000000000000000408F4000000080
310
C2033CC0000000005F7D2BC00000000000408F40000000008E2B3DC0000000C096992AC00C000000130000006A0600003C00000006000000020000000000000000408FC000000080C2033CC0000000005F7D2BC00000000000408FC0000000A059B33AC0000000C029A72CC00C00000013000000720600003C000000060000
310
00020000000000000000408FC0000000A059B33AC0000000C029A72CC00000000000408F40000000A059B33AC0000000C029A72CC00C000000130000007A0600003C00000006000000020000000000000000408F40000000A059B33AC0000000C029A72CC00000000000408F4000000080C2033CC0000000005F7D2BC00C00
310
000013000000820600003C00000006000000020000000000000000408FC0000000A059B33AC0000000C029A72CC00000000000408FC0000000E0EFAC39C0000000A010BF2DC00C000000130000008A0600003C00000006000000020000000000000000408FC0000000E0EFAC39C0000000A010BF2DC00000000000408F4000
310
0000E0EFAC39C0000000A010BF2DC00C00000013000000920600003C00000006000000020000000000000000408F40000000E0EFAC39C0000000A010BF2DC00000000000408F40000000A059B33AC0000000C029A72CC00C000000130000009A0600003C00000006000000020000000000000000408FC0000000E0EFAC39C0
310
000000A010BF2DC00000000000408FC0000000A0DBDA38C000000060FBCD2EC00C00000013000000A20600003C00000006000000020000000000000000408FC0000000A0DBDA38C000000060FBCD2EC00000000000408F40000000A0DBDA38C000000060FBCD2EC00C00000013000000AA0600003C00000006000000020000
310
000000000000408F40000000A0DBDA38C000000060FBCD2EC00000000000408F40000000E0EFAC39C0000000A010BF2DC00C00000013000000B20600003C00000006000000020000000000000000408FC0000000A0DBDA38C000000060FBCD2EC00000000000408FC0000000A0FA2138C0000000A019ED2FC00C0000001300
310
0000BA0600003C00000006000000020000000000000000408FC0000000A0FA2138C0000000A019ED2FC00000000000408F40000000A0FA2138C0000000A019ED2FC00C00000013000000C20600003C00000006000000020000000000000000408F40000000A0FA2138C0000000A019ED2FC00000000000408F40000000A0DB
310
DA38C000000060FBCD2EC00C00000013000000CA0600003C00000006000000020000000000000000408FC0000000A0FA2138C0000000A019ED2FC00000000000408FC000000060106F37C000000080189C30C00C00000013000000D20600003C00000006000000020000000000000000408FC000000060106F37C000000080
310
189C30C00000000000408F4000000060106F37C000000080189C30C00C00000013000000DA0600003C00000006000000020000000000000000408F4000000060106F37C000000080189C30C00000000000408F40000000A0FA2138C0000000A019ED2FC00C00000013000000E20600003C0000000600000002000000000000
310
0000408FC000000060106F37C000000080189C30C00000000000408FC000000040ECBF36C000000040AD5B31C00C00000013000000EA0600003C00000006000000020000000000000000408FC000000040ECBF36C000000040AD5B31C00000000000408F4000000040ECBF36C000000040AD5B31C00C00000013000000F206
310
00003C00000006000000020000000000000000408F4000000040ECBF36C000000040AD5B31C00000000000408F4000000060106F37C000000080189C30C00C00000013000000FA0600003C00000006000000020000000000000000408FC000000040ECBF36C000000040AD5B31C00000000000408FC0000000C0FF1636C000
310
000080DF3532C00C00000013000000020700003C00000006000000020000000000000000408FC0000000C0FF1636C000000080DF3532C00000000000408F40000000C0FF1636C000000080DF3532C00C000000130000000A0700003C00000006000000020000000000000000408F40000000C0FF1636C000000080DF3532C0
310
0000000000408F4000000040ECBF36C000000040AD5B31C00C00000013000000120700003C00000006000000020000000000000000408FC0000000C0FF1636C000000080DF3532C00000000000408FC0000000009F7735C000000060D92933C00C000000130000001A0700003C00000006000000020000000000000000408F
310
C0000000009F7735C000000060D92933C00000000000408F40000000009F7735C000000060D92933C00C00000013000000220700003C00000006000000020000000000000000408F40000000009F7735C000000060D92933C00000000000408F40000000C0FF1636C000000080DF3532C00C000000130000002A0700003C00
310
000006000000020000000000000000408FC0000000009F7735C000000060D92933C00000000000408FC0000000C0DCE534C000000000BE3434C00C00000013000000320700003C00000006000000020000000000000000408FC0000000C0DCE534C000000000BE3434C00000000000408F40000000C0DCE534C000000000BE
310
3434C00C000000130000003A0700003C00000006000000020000000000000000408F40000000C0DCE534C000000000BE3434C00000000000408F40000000009F7735C000000060D92933C00C00000013000000420700003C00000006000000020000000000000000408FC0000000C0DCE534C000000000BE3434C000000000
310
00408FC000000060B36434C0000000609C5435C00C000000130000004A0700003C00000006000000020000000000000000408FC000000060B36434C0000000609C5435C00000000000408F4000000060B36434C0000000609C5435C00C00000013000000520700003C00000006000000020000000000000000408F40000000
310
60B36434C0000000609C5435C00000000000408F40000000C0DCE534C000000000BE3434C00C000000130000005A0700003C00000006000000020000000000000000408FC000000060B36434C0000000609C5435C00000000000408FC000000060C7F433C000000020728C36C00C00000013000000620700003C0000000600
310
0000020000000000000000408FC000000060C7F433C000000020728C36C00000000000408F4000000060C7F433C000000020728C36C00C000000130000006A0700003C00000006000000020000000000000000408F4000000060B36434C0000000609C5435C00000000000408F4000000060C7F433C000000020728C36C00C
310
00000013000000720700003C00000006000000020000000000000000408FC000000060C7F433C000000020728C36C00000000000408FC000000000089733C000000040A3E037C00C000000130000007A0700003C00000006000000020000000000000000408FC000000000089733C000000040A3E037C00000000000408F40
310
00000000089733C000000040A3E037C00C00000013000000820700003C00000006000000020000000000000000408F4000000060C7F433C000000020728C36C00000000000408F4000000000089733C000000040A3E037C00C000000130000008A0700003C00000006000000020000000000000000408FC000000000089733
310
C000000040A3E037C00000000000408FC0000000A0394D33C0000000C0635639C00C00000013000000920700003C00000006000000020000000000000000408FC0000000A0394D33C0000000C0635639C00000000000408F40000000A0394D33C0000000C0635639C00C000000130000009A0700003C000000060000000200
310
00000000000000408F4000000000089733C000000040A3E037C00000000000408F40000000A0394D33C0000000C0635639C00C00000013000000A20700003C00000006000000020000000000000000408FC0000000A0394D33C0000000C0635639C00000000000408FC000000000FF1933C00000006099F43AC00C00000013
310
000000AA0700003C00000006000000020000000000000000408FC000000000FF1933C00000006099F43AC00000000000408F4000000000FF1933C00000006099F43AC00C00000013000000B20700003C00000006000000020000000000000000408F40000000A0394D33C0000000C0635639C00000000000408F4000000000
310
FF1933C00000006099F43AC00C00000013000000BA0700003C00000006000000020000000000000000408FC000000000FF1933C00000006099F43AC00000000000408FC0000000402B0133C000000060E9C33CC00C00000013000000C20700003C00000006000000020000000000000000408FC0000000402B0133C0000000
310
60E9C33CC00000000000408F40000000402B0133C000000060E9C33CC00C00000013000000CA0700003C00000006000000020000000000000000408F4000000000FF1933C00000006099F43AC00000000000408F40000000402B0133C000000060E9C33CC00C00000013000000D20700003C00000006000000020000000000
310
000000408FC0000000402B0133C000000060E9C33CC00000000000408FC0000000A0FFFF32C0000000A0FFFF3DC00C00000013000000DA0700003C00000006000000020000000000000000408FC0000000A0FFFF32C0000000A0FFFF3DC00000000000408F40000000A0FFFF32C0000000A0FFFF3DC00C00000013000000E2
310
0700003C00000006000000020000000000000000408F40000000402B0133C000000060E9C33CC00000000000408F40000000A0FFFF32C0000000A0FFFF3DC00C00000013000000EA0700003C00000006000000020000000000000000408FC0000000A0FFFF32C0000000A0FFFF3DC00000000000408FC000000020FFFF2BC0
310
000000A0FFFF3DC00C00000013000000F20700003C00000006000000020000000000000000408FC000000020FFFF2BC0000000A0FFFF3DC00000000000408F4000000020FFFF2BC0000000A0FFFF3DC00C00000013000000FA0700003C00000006000000020000000000000000408F4000000020FFFF2BC0000000A0FFFF3D
310
C00000000000408F40000000A0FFFF32C0000000A0FFFF3DC00C00000013000000020800003C00000006000000020000000000000000408FC000000020FFFF2BC0000000A0FFFF3DC00000000000408FC000000020FFFF2BC0000000C0FF7F41C00C000000130000000A0800003C0000000600000002000000000000000040
310
8FC000000020FFFF2BC0000000C0FF7F41C00000000000408F4000000020FFFF2BC0000000C0FF7F41C00C00000013000000120800003C00000006000000020000000000000000408F4000000020FFFF2BC0000000C0FF7F41C00000000000408F4000000020FFFF2BC0000000A0FFFF3DC00C000000130000001A0800003C
310
00000006000000020000000000000000408FC000000020FFFF2BC0000000C0FF7F41C00000000000408FC0000000409FEB2AC000000000518B41C00C00000013000000220800003C00000006000000020000000000000000408FC0000000409FEB2AC000000000518B41C00000000000408F40000000409FEB2AC000000000
310
518B41C00C000000130000002A0800003C00000006000000020000000000000000408F40000000409FEB2AC000000000518B41C00000000000408F4000000020FFFF2BC0000000C0FF7F41C00C00000013000000320800003C00000006000000020000000000000000408FC0000000409FEB2AC000000000518B41C0000000
310
0000408FC0000000003ECE28C0000000E014A841C00C000000130000003A0800003C00000006000000020000000000000000408FC0000000003ECE28C0000000E014A841C00000000000408F40000000003ECE28C0000000E014A841C00C00000013000000420800003C00000006000000020000000000000000408F400000
310
00409FEB2AC000000000518B41C00000000000408F40000000003ECE28C0000000E014A841C00C000000130000004A0800003C00000006000000020000000000000000408FC0000000003ECE28C0000000E014A841C00000000000408FC00000008054CD26C0000000005BD041C00C00000013000000520800003C00000006
310
000000020000000000000000408FC00000008054CD26C0000000005BD041C00000000000408F400000008054CD26C0000000005BD041C00C000000130000005A0800003C00000006000000020000000000000000408F400000008054CD26C0000000005BD041C00000000000408F40000000003ECE28C0000000E014A841C0
310
0C00000013000000620800003C00000006000000020000000000000000408FC00000008054CD26C0000000005BD041C00000000000408FC000000060342F25C000000000DD0042C00C000000130000006A0800003C00000006000000020000000000000000408FC000000060342F25C000000000DD0042C00000000000408F
310
4000000060342F25C000000000DD0042C00C00000013000000720800003C00000006000000020000000000000000408F4000000060342F25C000000000DD0042C00000000000408F400000008054CD26C0000000005BD041C00C000000130000007A0800003C00000006000000020000000000000000408FC000000060342F
310
25C000000000DD0042C00000000000408FC000000080BCB123C000000020D33D42C00C00000013000000820800003C00000006000000020000000000000000408FC000000080BCB123C000000020D33D42C00000000000408F4000000080BCB123C000000020D33D42C00C000000130000008A0800003C0000000600000002
310
0000000000000000408F4000000080BCB123C000000020D33D42C00000000000408F4000000060342F25C000000000DD0042C00C00000013000000920800003C00000006000000020000000000000000408FC000000080BCB123C000000020D33D42C00000000000408FC0000000E0785722C0000000808F8642C00C000000
310
130000009A0800003C00000006000000020000000000000000408FC0000000E0785722C0000000808F8642C00000000000408F40000000E0785722C0000000808F8642C00C00000013000000A20800003C00000006000000020000000000000000408F40000000E0785722C0000000808F8642C00000000000408F40000000
310
80BCB123C000000020D33D42C00C00000013000000AA0800003C00000006000000020000000000000000408FC0000000E0785722C0000000808F8642C00000000000408FC000000000A01D21C00000008044DC42C00C00000013000000B20800003C00000006000000020000000000000000408FC000000000A01D21C00000
310
008044DC42C00000000000408F4000000000A01D21C00000008044DC42C00C00000013000000BA0800003C00000006000000020000000000000000408F40000000E0785722C0000000808F8642C00000000000408F4000000000A01D21C00000008044DC42C00C00000013000000C20800003C000000060000000200000000
310
00000000408FC000000000A01D21C00000008044DC42C00000000000408FC0000000202E0120C0000000A0344143C00C00000013000000CA0800003C00000006000000020000000000000000408FC0000000202E0120C0000000A0344143C00000000000408F40000000202E0120C0000000A0344143C00C00000013000000
310
D20800003C00000006000000020000000000000000408F4000000000A01D21C00000008044DC42C00000000000408F40000000202E0120C0000000A0344143C00C00000013000000DA0800003C00000006000000020000000000000000408FC0000000202E0120C0000000A0344143C00000000000408FC00000000063191E
310
C0000000201AB443C00C00000013000000E20800003C00000006000000020000000000000000408FC00000000063191EC0000000201AB443C00000000000408F400000000063191EC0000000201AB443C00C00000013000000EA0800003C00000006000000020000000000000000408F40000000202E0120C0000000A03441
310
43C00000000000408F400000000063191EC0000000201AB443C00C00000013000000F20800003C00000006000000020000000000000000408FC00000000063191EC0000000201AB443C00000000000408FC00000000083C51CC0000000C0CC1E44C00C00000013000000FA0800003C00000006000000020000000000000000
310
408FC00000000083C51CC0000000C0CC1E44C00000000000408F400000000083C51CC0000000C0CC1E44C00C00000013000000020900003C00000006000000020000000000000000408F400000000063191EC0000000201AB443C00000000000408F400000000083C51CC0000000C0CC1E44C00C000000130000000A090000
310
3C00000006000000020000000000000000408FC00000000083C51CC0000000C0CC1E44C00000000000408FC000000080E0C11BC000000000888B44C00C00000013000000120900003C00000006000000020000000000000000408FC000000080E0C11BC000000000888B44C00000000000408F4000000080E0C11BC0000000
310
00888B44C00C000000130000001A0900003C00000006000000020000000000000000408F400000000083C51CC0000000C0CC1E44C00000000000408F4000000080E0C11BC000000000888B44C00C00000013000000220900003C00000006000000020000000000000000408FC000000080E0C11BC000000000888B44C00000
310
000000408FC0000000008AB61AC000000060422F45C00C000000130000002A0900003C00000006000000020000000000000000408FC0000000008AB61AC000000060422F45C00000000000408F40000000008AB61AC000000060422F45C00C00000013000000320900003C00000006000000020000000000000000408F4000
310
0000008AB61AC000000060422F45C00000000000408F4000000080E0C11BC000000000888B44C00C000000130000003A0900003C00000006000000020000000000000000408FC0000000008AB61AC000000060422F45C00000000000408FC0000000001F9419C0000000C0CC3E46C00C00000013000000420900003C000000
310
06000000020000000000000000408FC0000000001F9419C0000000C0CC3E46C00000000000408F40000000001F9419C0000000C0CC3E46C00C000000130000004A0900003C00000006000000020000000000000000408F40000000001F9419C0000000C0CC3E46C00000000000408F40000000008AB61AC000000060422F45
310
C00C00000013000000520900003C00000006000000020000000000000000408FC0000000001F9419C0000000C0CC3E46C00000000000408FC00000000051A918C0000000A00FE447C00C000000130000005A0900003C00000006000000020000000000000000408FC00000000051A918C0000000A00FE447C0000000000040
310
8F400000000051A918C0000000A00FE447C00C00000013000000620900003C00000006000000020000000000000000408F40000000001F9419C0000000C0CC3E46C00000000000408F400000000051A918C0000000A00FE447C00C000000130000006A0900003C00000006000000020000000000000000408FC00000000051
310
A918C0000000A00FE447C00000000000408FC000000040A51218C000000080151C4AC00C00000013000000720900003C00000006000000020000000000000000408FC000000040A51218C000000080151C4AC00000000000408F4000000040A51218C000000080151C4AC00C000000130000007A0900003C00000006000000
310
020000000000000000408F400000000051A918C0000000A00FE447C00000000000408F4000000040A51218C000000080151C4AC00C00000013000000820900003C00000006000000020000000000000000408FC000000040A51218C000000080151C4AC00000000000408FC0000000C0FDFF17C0000000C0FF7F4BC00C0000
310
00130000008A0900003C00000006000000020000000000000000408F4000000040A51218C000000080151C4AC00000000000408F40000000C0FDFF17C0000000C0FF7F4BC00C00000013000000920900003C00000006000000020000000000000000408FC000000000D025C1BF000000806BD547C00000000000408FC00000
310
0040A51218C000000080151C4AC00C000000130000009A0900003C00000006000000020000000000000000408FC0000000008429EDBF00000060142947C00000000000408FC00000000051A918C0000000A00FE447C00C00000013000000A20900003C00000006000000020000000000000000408FC000000000576C42C000
310
0000000000D83E0000000000408FC0000000C0FFFE43C000000000DFFA01C00C00000013000000AA0900003C00000006000000020000000000000000408FC000000000364B42C0000000008071A1BF0000000000408FC000000040CDF343C00000000017600AC00C00000013000000B20900003C0000000600000002000000
310
0000000000408FC000000000572C42C000000000F025C1BF0000000000408FC000000080F8DF43C000000000D67110C00C00000013000000BA0900003C00000006000000020000000000000000408FC0000000E0FF7F41C0000000008829EDBF0000000000408FC0000000C016C243C0000000008BBD13C00C000000130000
310
00C20900003C00000006000000020000000000000000408FC000000060206141C000000000F82DF0BF0000000000408FC000000040C69943C000000040490E17C00C00000013000000CA0900003C00000006000000020000000000000000408FC0000000E0FF3F41C00000000084B9F0BF0000000000408FC000000040C699
310
43C000000040490E17C00C00000013000000D20900003C00000006000000020000000000000000408FC0000000209A463DC000000000C0B5AEBF0000000000408FC0000000C0C93440C0000000008071A1BF0C00000013000000DA0900003C00000006000000020000000000000000408FC0000000005B0F3DC00000000080
310
A6D1BF0000000000408FC0000000C0A85340C000000000F025C1BF0C00000013000000E20900003C00000006000000020000000000000000408FC0000000C0FFFF3CC000000000E8FFDFBF0000000000408FC0000000E0FFFF40C0000000008829EDBF0C00000013000000EA0900003C000000060000000200000000000000
310
00408FC0000000007EFB3CC0000000002ED107C00000000000408FC000000060DF1E41C000000000F82DF0BF0C00000013000000F20900003C00000006000000020000000000000000408FC0000000007EFB3CC0000000002ED107C00000000000408FC0000000C0C86643C000000000A25C1AC00C00000013000000FA0900
310
003C00000006000000020000000000000000408FC000000040A51218C000000080151C4AC00000000000408FC0000000000000E03E000000806B1548C00C00000013000000020A00003C00000006000000020000000000000000408FC000000040A51218C000000080151C4AC00000000000408FC0000000000071A1BF0000
310
00804AF447C00C000000130000000A0A00003C00000006000000020000000000000000408FC00000000082B9F0BF0000006014E946C00000000000408FC00000000051A918C0000000A00FE447C00C00000013000000120A00003C00000006000000020000000000000000408FC000000000F62DF0BF000000E0340A47C000
310
00000000408FC00000000051A918C0000000A00FE447C00C000000130000001A0A00003C00000006000000020000000000000000408FC000000000D025C1BF00000040BDFC45C00000000000408FC0000000008AB61AC000000060422F45C00C00000013000000220A00003C00000006000000020000000000000000408FC0
310
000000008429EDBF0000006014A946C00000000000408FC0000000001F9419C0000000C0CC3E46C00C000000130000002A0A00003C00000006000000020000000000000000408FC000000000F62DF0BF000000E0F3C746C00000000000408FC0000000001F9419C0000000C0CC3E46C00C00000013000000320A00003C0000
310
0006000000020000000000000000408FC00000000082B9F0BF0000006014E946C00000000000408FC0000000001F9419C0000000C0CC3E46C00C000000130000003A0A00003C00000006000000020000000000000000408FC0000000000000E03E00000040BDBC45C00000000000408FC0000000008AB61AC000000060422F
310
45C00C00000013000000420A00003C00000006000000020000000000000000408FC0000000004071A1BF00000040DEDD45C00000000000408FC0000000008AB61AC000000060422F45C00C000000130000004A0A00003C00000006000000020000000000000000408FC0000000000000E03E000000002BA242C00000000000
310
408FC000000080E0C11BC000000000888B44C00C00000013000000520A00003C00000006000000020000000000000000408FC0000000E05DE827C000000040B27B34C00000000000408FC0000000A0FFFF32C0000000A0FFFF3DC00C000000130000005A0A00003C00000006000000020000000000000000408FC0000000C0
310
EFA126C0000000C0A86935C00000000000408FC000000020FFFF2BC0000000A0FFFF3DC00C00000013000000620A00003C00000006000000020000000000000000408FC0000000E05DE827C000000040B27B34C00000000000408FC0000000402B0133C000000060E9C33CC00C000000130000006A0A00003C000000060000
310
00020000000000000000408FC0000000C0934829C000000020F62533C00000000000408FC000000000FF1933C00000006099F43AC00C00000013000000720A00003C00000006000000020000000000000000408FC0000000C0934829C000000020F62533C00000000000408FC0000000A0394D33C0000000C0635639C00C00
310
0000130000007A0A00003C00000006000000020000000000000000408FC00000004009E62AC0000000C00F4231C00000000000408FC000000000089733C000000040A3E037C00C00000013000000820A00003C00000006000000020000000000000000408FC00000006022592DC00000000043E72DC00000000000408FC000
310
000060B36434C0000000609C5435C00C000000130000008A0A00003C00000006000000020000000000000000408FC00000004009E62AC0000000C00F4231C00000000000408FC000000060C7F433C000000020728C36C00C00000013000000920A00003C00000006000000020000000000000000408FC00000006022592DC0
310
0000000043E72DC00000000000408FC0000000C0DCE534C000000000BE3434C00C000000130000009A0A00003C00000006000000020000000000000000408FC0000000C0A41730C0000000C05DC429C00000000000408FC0000000009F7735C000000060D92933C00C00000013000000A20A00003C00000006000000020000
310
000000000000408FC0000000C0A41730C0000000C05DC429C00000000000408FC0000000C0FF1636C000000080DF3532C00C00000013000000AA0A00003C00000006000000020000000000000000408FC00000000024A831C0000000608E2B26C00000000000408FC000000040ECBF36C000000040AD5B31C00C0000001300
310
0000B20A00003C00000006000000020000000000000000408FC00000000024A831C0000000608E2B26C00000000000408FC000000060106F37C000000080189C30C00C00000013000000BA0A00003C00000006000000020000000000000000408FC0000000004B8C33C000000080DEC622C00000000000408FC0000000A0FA
310
2138C0000000A019ED2FC00C00000013000000C20A00003C00000006000000020000000000000000408FC0000000202C4435C0000000C09D6220C00000000000408FC0000000E0EFAC39C0000000A010BF2DC00C00000013000000CA0A00003C00000006000000020000000000000000408FC0000000004B8C33C000000080
310
DEC622C00000000000408FC0000000A0DBDA38C000000060FBCD2EC00C00000013000000D20A00003C00000006000000020000000000000000408FC0000000202C4435C0000000C09D6220C00000000000408FC0000000A059B33AC0000000C029A72CC00C00000013000000DA0A00003C0000000600000002000000000000
310
0000408FC0000000003C0837C000000000F3DF1CC00000000000408FC000000080C2033CC0000000005F7D2BC00C00000013000000E20A00003C00000006000000020000000000000000408FC0000000003C0837C000000000F3DF1CC00000000000408FC0000000008E2B3DC0000000C096992AC00C00000013000000EA0A
310
00003C00000006000000020000000000000000408FC000000080F1D138C0000000804FA319C00000000000408FC000000080CD873EC000000040569F29C00C00000013000000F20A00003C00000006000000020000000000000000408FC000000080F1D138C0000000804FA319C00000000000408FC000000040B1B93FC000
310
000040BCBF28C00C00000013000000FA0A00003C00000006000000020000000000000000408FC000000040E4723AC000000040421C17C00000000000408FC000000020157340C0000000C01DCA27C00C00000013000000020B00003C00000006000000020000000000000000408FC000000040E4723AC000000040421C17C0
310
0000000000408FC0000000E0800141C00000008040B726C00C000000130000000A0B00003C00000006000000020000000000000000408FC0000000C0C49F3BC0000000401B0A15C00000000000408FC0000000C0177141C0000000003DB025C00C00000013000000120B00003C00000006000000020000000000000000408F
310
C0000000C0C49F3BC0000000401B0A15C00000000000408FC00000000027D641C0000000C08C9024C00C000000130000001A0B00003C00000006000000020000000000000000408FC0000000C0844E3CC000000000ED9B12C00000000000408FC0000000E03A3642C0000000C0484B23C00C00000013000000220B00003C00
310
000006000000020000000000000000408FC0000000C0844E3CC000000000ED9B12C00000000000408FC000000040CC8F42C0000000A0D4E421C00C000000130000002A0B00003C00000006000000020000000000000000408FC00000000026C63CC00000000077EF0EC00000000000408FC00000004031E142C0000000C0C4
310
6320C00C00000013000000320B00003C00000006000000020000000000000000408FC00000000026C63CC00000000077EF0EC00000000000408FC000000040212943C0000000C0859E1DC00C000000130000003A0B00003C00000006000000020000000000000000408FC0000000C0EFA126C0000000C0A86935C000000000
310
00408FC000000020FFFF2BC0000000C0FF7F41C00C00000013000000420B00003C00000006000000020000000000000000408FC0000000009C28F7BF000000C0FAF540C00000000000408FC0000000409FEB2AC000000000518B41C00C000000130000004A0B00003C00000006000000020000000000000000408FC0000000
310
000000E03E000000002BA242C00000000000408FC00000000083C51CC0000000C0CC1E44C00C00000013000000520B00003C00000006000000020000000000000000408FC00000000000ED9FBF00000000F26A42C00000000000408FC00000000063191EC0000000201AB443C00C000000130000005A0B00003C0000000600
310
0000020000000000000000408FC000000000C0C3BFBF000000C0DE3442C00000000000408FC000000000A01D21C00000008044DC42C00C00000013000000620B00003C00000006000000020000000000000000408FC00000000000ED9FBF00000000F26A42C00000000000408FC0000000202E0120C0000000A0344143C00C
310
000000130000006A0B00003C00000006000000020000000000000000408FC000000000C0C3BFBF000000C0DE3442C00000000000408FC0000000E0785722C0000000808F8642C00C00000013000000720B00003C00000006000000020000000000000000408FC000000000A0B6D1BF00000060110142C00000000000408FC0
310
00000080BCB123C000000020D33D42C00C000000130000007A0B00003C00000006000000020000000000000000408FC000000000A0B6D1BF00000060110142C00000000000408FC000000060342F25C000000000DD0042C00C00000013000000820B00003C00000006000000020000000000000000408FC000000000784FE4
310
BF00000040AAA441C00000000000408FC00000008054CD26C0000000005BD041C00C000000130000008A0B00003C00000006000000020000000000000000408FC000000000784FE4BF00000040AAA441C00000000000408FC0000000003ECE28C0000000E014A841C00C00000013000000920B00003C000000060000000200
310
00000000000000408F40000000008429EDBF00000060142947C00000000000408F400000000051A918C0000000A00FE447C00C000000130000009A0B00003C00000006000000020000000000000000408F4000000000D025C1BF000000806BD547C00000000000408F4000000040A51218C000000080151C4AC00C00000013
310
000000A20B00003C00000006000000020000000000000000408F40000000C0FFFE43C000000000DFFA01C00000000000408F4000000000576C42C0000000000000D83E0C00000013000000AA0B00003C00000006000000020000000000000000408F4000000040CDF343C00000000017600AC00000000000408F4000000000
310
364B42C0000000008071A1BF0C00000013000000B20B00003C00000006000000020000000000000000408F4000000080F8DF43C000000000D67110C00000000000408F4000000000572C42C000000000F025C1BF0C00000013000000BA0B00003C00000006000000020000000000000000408F40000000C016C243C0000000
310
008BBD13C00000000000408F40000000E0FF7F41C0000000008829EDBF0C00000013000000C20B00003C00000006000000020000000000000000408F4000000040C69943C000000040490E17C00000000000408F4000000060206141C000000000F82DF0BF0C00000013000000CA0B00003C00000006000000020000000000
310
000000408F4000000040C69943C000000040490E17C00000000000408F40000000E0FF3F41C00000000084B9F0BF0C00000013000000D20B00003C00000006000000020000000000000000408F40000000C0C93440C0000000008071A1BF0000000000408F40000000209A463DC000000000C0B5AEBF0C00000013000000DA
310
0B00003C00000006000000020000000000000000408F40000000C0A85340C000000000F025C1BF0000000000408F40000000005B0F3DC00000000080A6D1BF0C00000013000000E20B00003C00000006000000020000000000000000408F40000000E0FFFF40C0000000008829EDBF0000000000408F40000000C0FFFF3CC0
310
00000000E8FFDFBF0C00000013000000EA0B00003C00000006000000020000000000000000408F40000000007EFB3CC0000000002ED107C00000000000408F4000000060DF1E41C000000000F82DF0BF0C00000013000000F20B00003C00000006000000020000000000000000408F40000000C0C86643C000000000A25C1A
310
C00000000000408F40000000007EFB3CC0000000002ED107C00C00000013000000FA0B00003C00000006000000020000000000000000408F40000000000071A1BF000000804AF447C00000000000408F4000000040A51218C000000080151C4AC00C00000013000000020C00003C0000000600000002000000000000000040
310
8F40000000000000E03E000000806B1548C00000000000408F4000000040A51218C000000080151C4AC00C000000130000000A0C00003C00000006000000020000000000000000408F4000000000F62DF0BF000000E0340A47C00000000000408F400000000051A918C0000000A00FE447C00C00000013000000120C00003C
310
00000006000000020000000000000000408F400000000082B9F0BF0000006014E946C00000000000408F400000000051A918C0000000A00FE447C00C000000130000001A0C00003C00000006000000020000000000000000408F40000000001F9419C0000000C0CC3E46C00000000000408F40000000008429EDBF00000060
310
14A946C00C00000013000000220C00003C00000006000000020000000000000000408F4000000000D025C1BF00000040BDFC45C00000000000408F40000000008AB61AC000000060422F45C00C000000130000002A0C00003C00000006000000020000000000000000408F4000000000F62DF0BF000000E0F3C746C0000000
310
0000408F40000000001F9419C0000000C0CC3E46C00C00000013000000320C00003C00000006000000020000000000000000408F400000000082B9F0BF0000006014E946C00000000000408F40000000001F9419C0000000C0CC3E46C00C000000130000003A0C00003C00000006000000020000000000000000408F400000
310
00004071A1BF00000040DEDD45C00000000000408F40000000008AB61AC000000060422F45C00C00000013000000420C00003C00000006000000020000000000000000408F40000000008AB61AC000000060422F45C00000000000408F40000000000000E03E00000040BDBC45C00C000000130000004A0C00003C00000006
310
000000020000000000000000408F40000000000000E03E000000002BA242C00000000000408F4000000080E0C11BC000000000888B44C00C00000013000000520C00003C00000006000000020000000000000000408F4000000020FFFF2BC0000000A0FFFF3DC00000000000408F40000000C0EFA126C0000000C0A86935C0
310
0C000000130000005A0C00003C00000006000000020000000000000000408F40000000E05DE827C000000040B27B34C00000000000408F40000000A0FFFF32C0000000A0FFFF3DC00C00000013000000620C00003C00000006000000020000000000000000408F40000000402B0133C000000060E9C33CC00000000000408F
310
40000000E05DE827C000000040B27B34C00C000000130000006A0C00003C00000006000000020000000000000000408F4000000000FF1933C00000006099F43AC00000000000408F40000000C0934829C000000020F62533C00C00000013000000720C00003C00000006000000020000000000000000408F40000000A0394D
310
33C0000000C0635639C00000000000408F40000000C0934829C000000020F62533C00C000000130000007A0C00003C00000006000000020000000000000000408F4000000000089733C000000040A3E037C00000000000408F400000004009E62AC0000000C00F4231C00C00000013000000820C00003C0000000600000002
310
0000000000000000408F4000000060C7F433C000000020728C36C00000000000408F400000004009E62AC0000000C00F4231C00C000000130000008A0C00003C00000006000000020000000000000000408F4000000060B36434C0000000609C5435C00000000000408F400000006022592DC00000000043E72DC00C000000
310
13000000920C00003C00000006000000020000000000000000408F40000000C0DCE534C000000000BE3434C00000000000408F400000006022592DC00000000043E72DC00C000000130000009A0C00003C00000006000000020000000000000000408F40000000009F7735C000000060D92933C00000000000408F40000000
310
C0A41730C0000000C05DC429C00C00000013000000A20C00003C00000006000000020000000000000000408F40000000C0FF1636C000000080DF3532C00000000000408F40000000C0A41730C0000000C05DC429C00C00000013000000AA0C00003C00000006000000020000000000000000408F4000000040ECBF36C00000
310
0040AD5B31C00000000000408F400000000024A831C0000000608E2B26C00C00000013000000B20C00003C00000006000000020000000000000000408F4000000060106F37C000000080189C30C00000000000408F400000000024A831C0000000608E2B26C00C00000013000000BA0C00003C000000060000000200000000
310
00000000408F40000000A0FA2138C0000000A019ED2FC00000000000408F40000000004B8C33C000000080DEC622C00C00000013000000C20C00003C00000006000000020000000000000000408F40000000A0DBDA38C000000060FBCD2EC00000000000408F40000000004B8C33C000000080DEC622C00C00000013000000
310
CA0C00003C00000006000000020000000000000000408F40000000E0EFAC39C0000000A010BF2DC00000000000408F40000000202C4435C0000000C09D6220C00C00000013000000D20C00003C00000006000000020000000000000000408F40000000A059B33AC0000000C029A72CC00000000000408F40000000202C4435
310
C0000000C09D6220C00C00000013000000DA0C00003C00000006000000020000000000000000408F4000000080C2033CC0000000005F7D2BC00000000000408F40000000003C0837C000000000F3DF1CC00C00000013000000E20C00003C00000006000000020000000000000000408F40000000008E2B3DC0000000C09699
310
2AC00000000000408F40000000003C0837C000000000F3DF1CC00C00000013000000EA0C00003C00000006000000020000000000000000408F4000000080CD873EC000000040569F29C00000000000408F4000000080F1D138C0000000804FA319C00C00000013000000F20C00003C00000006000000020000000000000000
310
408F4000000040B1B93FC000000040BCBF28C00000000000408F4000000080F1D138C0000000804FA319C00C00000013000000FA0C00003C00000006000000020000000000000000408F4000000020157340C0000000C01DCA27C00000000000408F4000000040E4723AC000000040421C17C00C00000013000000020D0000
310
3C00000006000000020000000000000000408F40000000E0800141C00000008040B726C00000000000408F4000000040E4723AC000000040421C17C00C000000130000000A0D00003C00000006000000020000000000000000408F40000000C0177141C0000000003DB025C00000000000408F40000000C0C49F3BC0000000
310
001B0A15C00C00000013000000120D00003C00000006000000020000000000000000408F400000000027D641C0000000C08C9024C00000000000408F40000000C0C49F3BC0000000001B0A15C00C000000130000001A0D00003C00000006000000020000000000000000408F40000000E03A3642C0000000C0484B23C00000
310
000000408F40000000C0844E3CC000000000ED9B12C00C00000013000000220D00003C00000006000000020000000000000000408F4000000040CC8F42C0000000A0D4E421C00000000000408F40000000C0844E3CC000000000ED9B12C00C000000130000002A0D00003C00000006000000020000000000000000408F4000
310
00004031E142C0000000C0C46320C00000000000408F400000000026C63CC00000000077EF0EC00C00000013000000320D00003C00000006000000020000000000000000408F4000000040212943C0000000C0859E1DC00000000000408F400000000026C63CC00000000077EF0EC00C000000130000003A0D00003C000000
310
06000000020000000000000000408F40000000409FEB2AC000000000518B41C00000000000408F40000000009C28F7BF000000C0FAF540C00C00000013000000420D00003C00000006000000020000000000000000408F4000000020FFFF2BC0000000C0FF7F41C00000000000408F40000000C0EFA126C0000000C0A86935
310
C00C000000130000004A0D00003C00000006000000020000000000000000408F40000000000000E03E000000002BA242C00000000000408F400000000083C51CC0000000C0CC1E44C00C00000013000000520D00003C00000006000000020000000000000000408F400000000063191EC0000000201AB443C0000000000040
310
8F400000000000ED9FBF00000000F26A42C00C000000130000005A0D00003C00000006000000020000000000000000408F40000000202E0120C0000000A0344143C00000000000408F400000000000ED9FBF00000000F26A42C00C00000013000000620D00003C00000006000000020000000000000000408F4000000000A0
310
1D21C00000008044DC42C00000000000408F4000000000C0C3BFBF000000C0DE3442C00C000000130000006A0D00003C00000006000000020000000000000000408F40000000E0785722C0000000808F8642C00000000000408F4000000000C0C3BFBF000000C0DE3442C00C00000013000000720D00003C00000006000000
310
020000000000000000408F4000000080BCB123C000000020D33D42C00000000000408F4000000000A0B6D1BF00000060110142C00C000000130000007A0D00003C00000006000000020000000000000000408F4000000000A0B6D1BF00000060110142C00000000000408F4000000060342F25C000000000DD0042C00C0000
310
0013000000820D00003C00000006000000020000000000000000408F400000008054CD26C0000000005BD041C00000000000408F4000000000784FE4BF00000040AAA441C00C000000130000008A0D00003C00000006000000020000000000000000408F4000000000784FE4BF00000040AAA441C00000000000408F400000
310
00003ECE28C0000000E014A841C0
100
AcDbSubDMesh
 71
     2
 72
     0
 91
        0
 92
      204
 10
-1000.0
 20
-0.1339664459228516
 30
-47.66734313964843
 10
-1000.0
 20
-0.9113178253173828
 30
-46.32093429565429
 10
-1000.0
 20
-1.011220932006835
 30
-46.07973861694335
 10
-1000.0
 20
-1.045289993286132
 30
-45.82093429565429
 10
-1000.0
 20
-1.011220932006835
 30
-45.56212997436523
 10
-1000.0
 20
-0.9113178253173828
 30
-45.3209342956543
 10
-1000.0
 20
-0.1339664459228516
 30
-43.97452545166015
 10
-1000.0
 20
-0.0340671539306641
 30
-43.73334503173828
 10
-1000.0
 20
0.0000076293945313
 30
-43.47452545166015
 10
-1000.0
 20
0.0000076293945313
 30
-37.26693725585938
 10
-1000.0
 20
-0.0311775207519531
 30
-36.83551025390625
 10
-1000.0
 20
-0.1240806579589844
 30
-36.41304779052735
 10
-1000.0
 20
-0.2767715454101562
 30
-36.00834274291992
 10
-1000.0
 20
-0.6347007751464844
 30
-35.28644561767578
 10
-1000.0
 20
-1.447414398193359
 30
-33.92171478271484
 10
-1000.0
 20
-11.31628227233886
 30
-21.4127311706543
 10
-1000.0
 20
-11.95384120941162
 30
-20.48318862915039
 10
-1000.0
 20
-12.64175224304199
 30
-19.14828681945801
 10
-1000.0
 20
-13.44928932189941
 30
-17.25805282592773
 10
-1000.0
 20
-14.67409038543701
 30
-14.95168304443359
 10
-1000.0
 20
-16.09235763549804
 30
-12.8835277557373
 10
-1000.0
 20
-17.65679931640625
 30
-11.08507061004639
 10
-1000.0
 20
-19.54801940917969
 30
-9.388416290283203
 10
-1000.0
 20
-21.26629829406738
 30
-8.192609786987304
 10
-1000.0
 20
-23.03216552734375
 30
-7.218700408935546
 10
-1000.0
 20
-24.82009124755859
 30
-6.409482955932617
 10
-1000.0
 20
-26.44879531860352
 30
-5.777596473693847
 10
-1000.0
 20
-27.62409591674805
 30
-5.259869575500488
 10
-1000.0
 20
-28.30671310424805
 30
-4.652271270751953
 10
-1000.0
 20
-28.77401733398438
 30
-3.866926193237304
 10
-1000.0
 20
-28.98239135742187
 30
-2.977138519287109
 10
-1000.0
 20
-28.99999618530273
 30
-0.4999942779541016
 10
-1000.0
 20
-29.05998229980469
 30
-0.275787353515625
 10
-1000.0
 20
-29.27578926086426
 30
-0.0599803924560547
 10
-1000.0
 20
-29.49999618530274
 30
0.0000057220458984
 10
-1000.0
 20
-32.15358734130859
 30
0.0000057220458984
 10
-1000.0
 20
-32.41240692138672
 30
-0.0340690612792969
 10
-1000.0
 20
-32.6535873413086
 30
-0.1339702606201172
 10
-1000.0
 20
-33.99999618530273
 30
-0.9113197326660156
 10
-1000.0
 20
-34.24119186401367
 30
-1.011222839355468
 10
-1000.0
 20
-34.49999618530274
 30
-1.045291900634765
 10
-1000.0
 20
-34.7588005065918
 30
-1.011222839355468
 10
-1000.0
 20
-34.99999618530273
 30
-0.9113197326660156
 10
-1000.0
 20
-36.34640502929688
 30
-0.1339702606201172
 10
-1000.0
 20
-36.58758544921875
 30
-0.0340690612792969
 10
-1000.0
 20
-36.84640502929688
 30
0.0000057220458984
 10
-1000.0
 20
-39.99999618530273
 30
0.0000038146972656
 10
-1000.0
 20
-39.99217987060547
 30
-2.247495651245117
 10
-1000.0
 20
-39.90470123291016
 30
-3.296918869018554
 10
-1000.0
 20
-39.74977111816406
 30
-4.111167907714843
 10
-1000.0
 20
-39.51631927490235
 30
-4.935100555419921
 10
-1000.0
 20
-39.20136260986328
 30
-5.763951301574707
 10
-1000.0
 20
-38.80300140380859
 30
-6.590461730957031
 10
-1000.0
 20
-38.32132720947266
 30
-7.404807090759277
 10
-1000.0
 20
-37.75931549072266
 30
-8.194860458374023
 10
-1000.0
 20
-37.12342071533203
 30
-8.946934700012207
 10
-1000.0
 20
-36.42367172241211
 30
-9.647039413452148
 10
-1000.0
 20
-35.67306518554687
 30
-10.28232383728027
 10
-1000.0
 20
-34.88353729248047
 30
-10.8442153930664
 10
-1000.0
 20
-34.01174545288086
 30
-11.35791397094726
 10
-1000.0
 20
-32.89908218383789
 30
-11.8947582244873
 10
-1000.0
 20
-31.72536087036133
 30
-12.37448310852051
 10
-1000.0
 20
-30.53047943115235
 30
-12.81120491027832
 10
-1000.0
 20
-29.17013549804688
 30
-13.29997825622558
 10
-1000.0
 20
-28.01468658447266
 30
-13.74486541748047
 10
-1000.0
 20
-26.70058631896973
 30
-14.32649040222168
 10
-1000.0
 20
-25.67553520202637
 30
-14.87317371368408
 10
-1000.0
 20
-24.85491371154785
 30
-15.40230846405029
 10
-1000.0
 20
-24.13273048400879
 30
-15.96308612823486
 10
-1000.0
 20
-23.4338436126709
 30
-16.60974884033203
 10
-1000.0
 20
-22.74969863891602
 30
-17.35811233520507
 10
-1000.0
 20
-22.08983993530273
 30
-18.21044158935547
 10
-1000.0
 20
-21.46726989746094
 30
-19.16347312927246
 10
-1000.0
 20
-20.89789962768555
 30
-20.20602416992188
 10
-1000.0
 20
-20.39336204528809
 30
-21.33051109313965
 10
-1000.0
 20
-19.95616722106933
 30
-22.54861640930176
 10
-1000.0
 20
-19.5899658203125
 30
-23.87749099731445
 10
-1000.0
 20
-19.30166053771973
 30
-25.33745956420899
 10
-1000.0
 20
-19.10154724121094
 30
-26.95546531677246
 10
-1000.0
 20
-19.00456619262695
 30
-28.76527976989746
 10
-1000.0
 20
-18.9999942779541
 30
-29.9999942779541
 10
-1000.0
 20
-13.99999332427978
 30
-29.9999942779541
 10
-1000.0
 20
-13.99999332427978
 30
-34.99999237060547
 10
-1000.0
 20
-13.4601993560791
 30
-35.08840942382813
 10
-1000.0
 20
-12.40281677246094
 30
-35.31313705444336
 10
-1000.0
 20
-11.40103530883789
 30
-35.62777709960938
 10
-1000.0
 20
-10.59219646453857
 30
-36.00674438476563
 10
-1000.0
 20
-9.84714126586914
 30
-36.48300552368164
 10
-1000.0
 20
-9.170844078063964
 30
-37.05125427246094
 10
-1000.0
 20
-8.557861328125
 30
-37.72084045410156
 10
-1000.0
 20
-8.002305030822753
 30
-38.50941848754883
 10
-1000.0
 20
-7.524791717529296
 30
-39.40704727172852
 10
-1000.0
 20
-7.192882537841796
 30
-40.24062347412109
 10
-1000.0
 20
-6.939332962036132
 30
-41.090087890625
 10
-1000.0
 20
-6.678260803222656
 30
-42.36921310424804
 10
-1000.0
 20
-6.394649505615234
 30
-44.49062347412109
 10
-1000.0
 20
-6.165348052978515
 30
-47.7817268371582
 10
-1000.0
 20
-6.018208503723144
 30
-52.21940612792969
 10
-1000.0
 20
-5.999991416931152
 30
-54.99999237060547
 10
-1000.0
 20
0.0000095367431641
 30
-54.99999237060547
 10
-1000.0
 20
0.0000076293945313
 30
-48.16734313964843
 10
-1000.0
 20
-0.0340652465820313
 30
-47.90852355957031
 10
1000.0
 20
-0.9113178253173828
 30
-46.32093429565429
 10
1000.0
 20
-0.1339664459228516
 30
-47.66734313964843
 10
1000.0
 20
-0.0340652465820313
 30
-47.90852355957031
 10
1000.0
 20
-1.011220932006835
 30
-46.07973861694335
 10
1000.0
 20
-1.045289993286132
 30
-45.82093429565429
 10
1000.0
 20
-1.011220932006835
 30
-45.56212997436523
 10
1000.0
 20
-6.394649505615234
 30
-44.49062347412109
 10
1000.0
 20
-0.9113178253173828
 30
-45.3209342956543
 10
1000.0
 20
-0.1339664459228516
 30
-43.97452545166015
 10
1000.0
 20
-0.0340671539306641
 30
-43.73334503173828
 10
1000.0
 20
-6.678260803222656
 30
-42.36921310424804
 10
1000.0
 20
0.0000076293945313
 30
-43.47452545166015
 10
1000.0
 20
-9.170844078063964
 30
-37.05125427246094
 10
1000.0
 20
0.0000076293945313
 30
-37.26693725585938
 10
1000.0
 20
-8.557861328125
 30
-37.72084045410156
 10
1000.0
 20
-8.002305030822753
 30
-38.50941848754883
 10
1000.0
 20
-7.524791717529296
 30
-39.40704727172852
 10
1000.0
 20
-7.192882537841796
 30
-40.24062347412109
 10
1000.0
 20
-6.939332962036132
 30
-41.090087890625
 10
1000.0
 20
-0.0311775207519531
 30
-36.83551025390625
 10
1000.0
 20
-0.1240806579589844
 30
-36.41304779052735
 10
1000.0
 20
-9.84714126586914
 30
-36.48300552368164
 10
1000.0
 20
-0.2767715454101562
 30
-36.00834274291992
 10
1000.0
 20
-10.59219646453857
 30
-36.00674438476563
 10
1000.0
 20
-11.40103530883789
 30
-35.62777709960938
 10
1000.0
 20
-0.6347007751464844
 30
-35.28644561767578
 10
1000.0
 20
-13.4601993560791
 30
-35.08840942382813
 10
1000.0
 20
-12.40281677246094
 30
-35.31313705444336
 10
1000.0
 20
-13.99999332427978
 30
-34.99999237060547
 10
1000.0
 20
-13.99999332427978
 30
-29.9999942779541
 10
1000.0
 20
-1.447414398193359
 30
-33.92171478271484
 10
1000.0
 20
-11.31628227233886
 30
-21.4127311706543
 10
1000.0
 20
-20.39336204528809
 30
-21.33051109313965
 10
1000.0
 20
-19.95616722106933
 30
-22.54861640930176
 10
1000.0
 20
-19.5899658203125
 30
-23.87749099731445
 10
1000.0
 20
-19.30166053771973
 30
-25.33745956420899
 10
1000.0
 20
-19.10154724121094
 30
-26.95546531677246
 10
1000.0
 20
-19.00456619262695
 30
-28.76527976989746
 10
1000.0
 20
-11.95384120941162
 30
-20.48318862915039
 10
1000.0
 20
-20.89789962768555
 30
-20.20602416992188
 10
1000.0
 20
-21.46726989746094
 30
-19.16347312927246
 10
1000.0
 20
-12.64175224304199
 30
-19.14828681945801
 10
1000.0
 20
-22.08983993530273
 30
-18.21044158935547
 10
1000.0
 20
-22.74969863891602
 30
-17.35811233520507
 10
1000.0
 20
-13.44928932189941
 30
-17.25805282592773
 10
1000.0
 20
-23.4338436126709
 30
-16.60974884033203
 10
1000.0
 20
-24.13273048400879
 30
-15.96308612823486
 10
1000.0
 20
-24.85491371154785
 30
-15.40230846405029
 10
1000.0
 20
-25.67553520202637
 30
-14.87317371368408
 10
1000.0
 20
-14.67409038543701
 30
-14.95168304443359
 10
1000.0
 20
-26.70058631896973
 30
-14.32649040222168
 10
1000.0
 20
-28.01468658447266
 30
-13.74486541748047
 10
1000.0
 20
-29.17013549804688
 30
-13.29997825622558
 10
1000.0
 20
-30.53047943115235
 30
-12.81120491027832
 10
1000.0
 20
-16.09235763549804
 30
-12.8835277557373
 10
1000.0
 20
-31.72536087036133
 30
-12.37448310852051
 10
1000.0
 20
-32.89908218383789
 30
-11.8947582244873
 10
1000.0
 20
-34.01174545288086
 30
-11.35791397094726
 10
1000.0
 20
-34.88353729248047
 30
-10.8442153930664
 10
1000.0
 20
-35.67306518554687
 30
-10.28232383728027
 10
1000.0
 20
-17.65679931640625
 30
-11.08507061004639
 10
1000.0
 20
-36.42367172241211
 30
-9.647039413452148
 10
1000.0
 20
-37.12342071533203
 30
-8.946934700012207
 10
1000.0
 20
-19.54801940917969
 30
-9.388416290283203
 10
1000.0
 20
-37.75931549072266
 30
-8.194860458374023
 10
1000.0
 20
-21.26629829406738
 30
-8.192609786987304
 10
1000.0
 20
-38.32132720947266
 30
-7.404807090759277
 10
1000.0
 20
-38.80300140380859
 30
-6.590461730957031
 10
1000.0
 20
-23.03216552734375
 30
-7.218700408935546
 10
1000.0
 20
-24.82009124755859
 30
-6.409482955932617
 10
1000.0
 20
-39.20136260986328
 30
-5.763951301574707
 10
1000.0
 20
-26.44879531860352
 30
-5.777596473693847
 10
1000.0
 20
-39.51631927490235
 30
-4.935100555419921
 10
1000.0
 20
-27.62409591674805
 30
-5.259868621826171
 10
1000.0
 20
-28.30671310424805
 30
-4.652271270751953
 10
1000.0
 20
-39.74977111816406
 30
-4.111167907714843
 10
1000.0
 20
-28.77401733398438
 30
-3.866926193237304
 10
1000.0
 20
-39.90470123291016
 30
-3.296918869018554
 10
1000.0
 20
-39.99217987060547
 30
-2.247495651245117
 10
1000.0
 20
-28.98239135742187
 30
-2.977138519287109
 10
1000.0
 20
-33.99999618530273
 30
-0.9113197326660156
 10
1000.0
 20
-28.99999618530273
 30
-0.4999942779541016
 10
1000.0
 20
-34.24119186401367
 30
-1.011222839355468
 10
1000.0
 20
-34.49999618530274
 30
-1.045291900634765
 10
1000.0
 20
-32.6535873413086
 30
-0.1339702606201172
 10
1000.0
 20
-29.05998229980469
 30
-0.275787353515625
 10
1000.0
 20
-32.41240692138672
 30
-0.0340690612792969
 10
1000.0
 20
-29.27578926086426
 30
-0.0599803924560547
 10
1000.0
 20
-32.15358734130859
 30
0.0000057220458984
 10
1000.0
 20
-29.49999618530274
 30
0.0000057220458984
 10
1000.0
 20
-34.7588005065918
 30
-1.011222839355468
 10
1000.0
 20
-39.99999618530273
 30
0.0000038146972656
 10
1000.0
 20
-34.99999618530273
 30
-0.9113197326660156
 10
1000.0
 20
-36.34640502929688
 30
-0.1339702606201172
 10
1000.0
 20
-36.58758544921875
 30
-0.0340690612792969
 10
1000.0
 20
-36.84640502929688
 30
0.0000057220458984
 10
1000.0
 20
-18.9999942779541
 30
-29.9999942779541
 10
1000.0
 20
0.0000076293945313
 30
-48.16734313964843
 10
1000.0
 20
0.0000095367431641
 30
-54.99999237060547
 10
1000.0
 20
-6.165348052978515
 30
-47.7817268371582
 10
1000.0
 20
-6.018208503723144
 30
-52.21940612792969
 10
1000.0
 20
-5.999991416931152
 30
-54.99999237060547
 93
     1100
 90
        4
 90
       98
 90
       99
 90
      200
 90
      203
 90
        4
 90
       99
 90
      100
 90
      199
 90
      200
 90
        4
 90
      100
 90
      101
 90
      104
 90
      199
 90
        4
 90
      101
 90
        0
 90
      103
 90
      104
 90
        4
 90
        0
 90
        1
 90
      102
 90
      103
 90
        4
 90
        1
 90
        2
 90
      105
 90
      102
 90
        4
 90
        2
 90
        3
 90
      106
 90
      105
 90
        4
 90
        3
 90
        4
 90
      107
 90
      106
 90
        4
 90
        4
 90
        5
 90
      109
 90
      107
 90
        4
 90
        5
 90
        6
 90
      110
 90
      109
 90
        4
 90
        6
 90
        7
 90
      111
 90
      110
 90
        4
 90
        7
 90
        8
 90
      113
 90
      111
 90
        4
 90
        8
 90
        9
 90
      115
 90
      113
 90
        4
 90
        9
 90
       10
 90
      121
 90
      115
 90
        4
 90
       10
 90
       11
 90
      122
 90
      121
 90
        4
 90
       11
 90
       12
 90
      124
 90
      122
 90
        4
 90
       12
 90
       13
 90
      127
 90
      124
 90
        4
 90
       13
 90
       14
 90
      132
 90
      127
 90
        4
 90
       14
 90
       15
 90
      133
 90
      132
 90
        4
 90
       15
 90
       16
 90
      140
 90
      133
 90
        4
 90
       16
 90
       17
 90
      143
 90
      140
 90
        4
 90
       17
 90
       18
 90
      146
 90
      143
 90
        4
 90
       18
 90
       19
 90
      151
 90
      146
 90
        4
 90
       19
 90
       20
 90
      156
 90
      151
 90
        4
 90
       20
 90
       21
 90
      162
 90
      156
 90
        4
 90
       21
 90
       22
 90
      165
 90
      162
 90
        4
 90
       22
 90
       23
 90
      167
 90
      165
 90
        4
 90
       23
 90
       24
 90
      170
 90
      167
 90
        4
 90
       24
 90
       25
 90
      171
 90
      170
 90
        4
 90
       25
 90
       26
 90
      173
 90
      171
 90
        4
 90
       26
 90
       27
 90
      175
 90
      173
 90
        4
 90
       27
 90
       28
 90
      176
 90
      175
 90
        4
 90
       28
 90
       29
 90
      178
 90
      176
 90
        4
 90
       29
 90
       30
 90
      181
 90
      178
 90
        4
 90
       30
 90
       31
 90
      183
 90
      181
 90
        4
 90
       31
 90
       32
 90
      187
 90
      183
 90
        4
 90
       32
 90
       33
 90
      189
 90
      187
 90
        4
 90
       33
 90
       34
 90
      191
 90
      189
 90
        4
 90
       34
 90
       35
 90
      190
 90
      191
 90
        4
 90
       35
 90
       36
 90
      188
 90
      190
 90
        4
 90
       36
 90
       37
 90
      186
 90
      188
 90
        4
 90
       37
 90
       38
 90
      182
 90
      186
 90
        4
 90
       38
 90
       39
 90
      184
 90
      182
 90
        4
 90
       39
 90
       40
 90
      185
 90
      184
 90
        4
 90
       40
 90
       41
 90
      192
 90
      185
 90
        4
 90
       41
 90
       42
 90
      194
 90
      192
 90
        4
 90
       42
 90
       43
 90
      195
 90
      194
 90
        4
 90
       43
 90
       44
 90
      196
 90
      195
 90
        4
 90
       44
 90
       45
 90
      197
 90
      196
 90
        4
 90
       45
 90
       46
 90
      193
 90
      197
 90
        4
 90
       46
 90
       47
 90
      180
 90
      193
 90
        4
 90
       47
 90
       48
 90
      179
 90
      180
 90
        4
 90
       48
 90
       49
 90
      177
 90
      179
 90
        4
 90
       49
 90
       50
 90
      174
 90
      177
 90
        4
 90
       50
 90
       51
 90
      172
 90
      174
 90
        4
 90
       51
 90
       52
 90
      169
 90
      172
 90
        4
 90
       52
 90
       53
 90
      168
 90
      169
 90
        4
 90
       53
 90
       54
 90
      166
 90
      168
 90
        4
 90
       54
 90
       55
 90
      164
 90
      166
 90
        4
 90
       55
 90
       56
 90
      163
 90
      164
 90
        4
 90
       56
 90
       57
 90
      161
 90
      163
 90
        4
 90
       57
 90
       58
 90
      160
 90
      161
 90
        4
 90
       58
 90
       59
 90
      159
 90
      160
 90
        4
 90
       59
 90
       60
 90
      158
 90
      159
 90
        4
 90
       60
 90
       61
 90
      157
 90
      158
 90
        4
 90
       61
 90
       62
 90
      155
 90
      157
 90
        4
 90
       62
 90
       63
 90
      154
 90
      155
 90
        4
 90
       63
 90
       64
 90
      153
 90
      154
 90
        4
 90
       64
 90
       65
 90
      152
 90
      153
 90
        4
 90
       65
 90
       66
 90
      150
 90
      152
 90
        4
 90
       66
 90
       67
 90
      149
 90
      150
 90
        4
 90
       67
 90
       68
 90
      148
 90
      149
 90
        4
 90
       68
 90
       69
 90
      147
 90
      148
 90
        4
 90
       69
 90
       70
 90
      145
 90
      147
 90
        4
 90
       70
 90
       71
 90
      144
 90
      145
 90
        4
 90
       71
 90
       72
 90
      142
 90
      144
 90
        4
 90
       72
 90
       73
 90
      141
 90
      142
 90
        4
 90
       73
 90
       74
 90
      134
 90
      141
 90
        4
 90
       74
 90
       75
 90
      135
 90
      134
 90
        4
 90
       75
 90
       76
 90
      136
 90
      135
 90
        4
 90
       76
 90
       77
 90
      137
 90
      136
 90
        4
 90
       77
 90
       78
 90
      138
 90
      137
 90
        4
 90
       78
 90
       79
 90
      139
 90
      138
 90
        4
 90
       79
 90
       80
 90
      198
 90
      139
 90
        4
 90
       80
 90
       81
 90
      131
 90
      198
 90
        4
 90
       81
 90
       82
 90
      130
 90
      131
 90
        4
 90
       82
 90
       83
 90
      128
 90
      130
 90
        4
 90
       83
 90
       84
 90
      129
 90
      128
 90
        4
 90
       84
 90
       85
 90
      126
 90
      129
 90
        4
 90
       85
 90
       86
 90
      125
 90
      126
 90
        4
 90
       86
 90
       87
 90
      123
 90
      125
 90
        4
 90
       87
 90
       88
 90
      114
 90
      123
 90
        4
 90
       88
 90
       89
 90
      116
 90
      114
 90
        4
 90
       89
 90
       90
 90
      117
 90
      116
 90
        4
 90
       90
 90
       91
 90
      118
 90
      117
 90
        4
 90
       91
 90
       92
 90
      119
 90
      118
 90
        4
 90
       92
 90
       93
 90
      120
 90
      119
 90
        4
 90
       93
 90
       94
 90
      112
 90
      120
 90
        4
 90
       94
 90
       95
 90
      108
 90
      112
 90
        4
 90
       95
 90
       96
 90
      201
 90
      108
 90
        4
 90
       96
 90
       97
 90
      202
 90
      201
 90
        4
 90
       97
 90
       98
 90
      203
 90
      202
 90
        4
 90
        0
 90
       97
 90
       96
 90
        1
 90
        3
 90
       47
 90
       46
 90
       45
 90
        4
 90
       48
 90
       47
 90
       45
 90
       44
 90
        4
 90
       49
 90
       48
 90
       44
 90
       43
 90
        4
 90
       50
 90
       49
 90
       43
 90
       42
 90
        4
 90
       51
 90
       50
 90
       42
 90
       41
 90
        3
 90
       51
 90
       41
 90
       40
 90
        4
 90
       36
 90
       35
 90
       34
 90
       33
 90
        4
 90
       37
 90
       36
 90
       33
 90
       32
 90
        4
 90
       38
 90
       37
 90
       32
 90
       31
 90
        4
 90
       39
 90
       38
 90
       31
 90
       30
 90
        5
 90
       52
 90
       51
 90
       40
 90
       39
 90
       30
 90
        3
 90
      101
 90
      100
 90
       97
 90
        4
 90
      100
 90
       99
 90
       98
 90
       97
 90
        3
 90
        0
 90
      101
 90
       97
 90
        3
 90
       96
 90
        3
 90
        2
 90
        3
 90
       96
 90
        2
 90
        1
 90
        4
 90
       95
 90
       94
 90
        6
 90
        5
 90
        3
 90
       95
 90
        5
 90
        4
 90
        3
 90
       96
 90
       95
 90
        3
 90
        3
 90
       95
 90
        4
 90
        3
 90
        3
 90
       94
 90
        8
 90
        7
 90
        4
 90
       94
 90
       93
 90
        9
 90
        8
 90
        3
 90
       94
 90
        7
 90
        6
 90
        4
 90
       81
 90
       80
 90
       16
 90
       15
 90
        3
 90
       80
 90
       79
 90
       16
 90
        4
 90
       79
 90
       78
 90
       17
 90
       16
 90
        3
 90
       78
 90
       77
 90
       17
 90
        4
 90
       77
 90
       76
 90
       18
 90
       17
 90
        4
 90
       75
 90
       74
 90
       19
 90
       18
 90
        3
 90
       76
 90
       75
 90
       18
 90
        3
 90
       74
 90
       73
 90
       19
 90
        4
 90
       73
 90
       72
 90
       20
 90
       19
 90
        3
 90
       72
 90
       71
 90
       20
 90
        4
 90
       71
 90
       70
 90
       21
 90
       20
 90
        3
 90
       70
 90
       69
 90
       21
 90
        4
 90
       69
 90
       68
 90
       22
 90
       21
 90
        4
 90
       67
 90
       66
 90
       23
 90
       22
 90
        3
 90
       68
 90
       67
 90
       22
 90
        3
 90
       66
 90
       65
 90
       23
 90
        4
 90
       65
 90
       64
 90
       24
 90
       23
 90
        3
 90
       64
 90
       63
 90
       24
 90
        4
 90
       63
 90
       62
 90
       25
 90
       24
 90
        3
 90
       62
 90
       61
 90
       25
 90
        4
 90
       61
 90
       60
 90
       26
 90
       25
 90
        3
 90
       60
 90
       59
 90
       26
 90
        4
 90
       59
 90
       58
 90
       27
 90
       26
 90
        3
 90
       58
 90
       57
 90
       27
 90
        4
 90
       57
 90
       56
 90
       28
 90
       27
 90
        3
 90
       56
 90
       55
 90
       28
 90
        4
 90
       55
 90
       54
 90
       29
 90
       28
 90
        3
 90
       54
 90
       53
 90
       29
 90
        4
 90
       53
 90
       52
 90
       30
 90
       29
 90
        4
 90
       83
 90
       82
 90
       15
 90
       14
 90
        3
 90
       82
 90
       81
 90
       15
 90
        3
 90
       93
 90
       92
 90
        9
 90
        4
 90
       92
 90
       91
 90
       10
 90
        9
 90
        4
 90
       90
 90
       89
 90
       11
 90
       10
 90
        3
 90
       91
 90
       90
 90
       10
 90
        3
 90
       89
 90
       88
 90
       11
 90
        4
 90
       88
 90
       87
 90
       12
 90
       11
 90
        3
 90
       87
 90
       86
 90
       12
 90
        4
 90
       86
 90
       85
 90
       13
 90
       12
 90
        3
 90
       85
 90
       84
 90
       13
 90
        4
 90
       84
 90
       83
 90
       14
 90
       13
 90
        4
 90
      103
 90
      102
 90
      201
 90
      202
 90
        3
 90
      180
 90
      197
 90
      193
 90
        4
 90
      179
 90
      196
 90
      197
 90
      180
 90
        4
 90
      177
 90
      195
 90
      196
 90
      179
 90
        4
 90
      174
 90
      194
 90
      195
 90
      177
 90
        4
 90
      172
 90
      192
 90
      194
 90
      174
 90
        3
 90
      172
 90
      185
 90
      192
 90
        4
 90
      188
 90
      189
 90
      191
 90
      190
 90
        4
 90
      186
 90
      187
 90
      189
 90
      188
 90
        4
 90
      182
 90
      183
 90
      187
 90
      186
 90
        4
 90
      184
 90
      181
 90
      183
 90
      182
 90
        5
 90
      169
 90
      181
 90
      184
 90
      185
 90
      172
 90
        3
 90
      104
 90
      202
 90
      199
 90
        4
 90
      199
 90
      202
 90
      203
 90
      200
 90
        3
 90
      103
 90
      202
 90
      104
 90
        3
 90
      201
 90
      105
 90
      106
 90
        3
 90
      201
 90
      102
 90
      105
 90
        4
 90
      108
 90
      109
 90
      110
 90
      112
 90
        3
 90
      108
 90
      107
 90
      109
 90
        3
 90
      201
 90
      106
 90
      108
 90
        3
 90
      108
 90
      106
 90
      107
 90
        3
 90
      112
 90
      111
 90
      113
 90
        4
 90
      112
 90
      113
 90
      115
 90
      120
 90
        3
 90
      112
 90
      110
 90
      111
 90
        4
 90
      131
 90
      133
 90
      140
 90
      198
 90
        3
 90
      198
 90
      140
 90
      139
 90
        4
 90
      139
 90
      140
 90
      143
 90
      138
 90
        3
 90
      138
 90
      143
 90
      137
 90
        4
 90
      137
 90
      143
 90
      146
 90
      136
 90
        4
 90
      135
 90
      146
 90
      151
 90
      134
 90
        3
 90
      136
 90
      146
 90
      135
 90
        3
 90
      134
 90
      151
 90
      141
 90
        4
 90
      141
 90
      151
 90
      156
 90
      142
 90
        3
 90
      142
 90
      156
 90
      144
 90
        4
 90
      144
 90
      156
 90
      162
 90
      145
 90
        3
 90
      145
 90
      162
 90
      147
 90
        4
 90
      147
 90
      162
 90
      165
 90
      148
 90
        4
 90
      149
 90
      165
 90
      167
 90
      150
 90
        3
 90
      148
 90
      165
 90
      149
 90
        3
 90
      150
 90
      167
 90
      152
 90
        4
 90
      152
 90
      167
 90
      170
 90
      153
 90
        3
 90
      153
 90
      170
 90
      154
 90
        4
 90
      154
 90
      170
 90
      171
 90
      155
 90
        3
 90
      155
 90
      171
 90
      157
 90
        4
 90
      157
 90
      171
 90
      173
 90
      158
 90
        3
 90
      158
 90
      173
 90
      159
 90
        4
 90
      159
 90
      173
 90
      175
 90
      160
 90
        3
 90
      160
 90
      175
 90
      161
 90
        4
 90
      161
 90
      175
 90
      176
 90
      163
 90
        3
 90
      163
 90
      176
 90
      164
 90
        4
 90
      164
 90
      176
 90
      178
 90
      166
 90
        3
 90
      166
 90
      178
 90
      168
 90
        4
 90
      168
 90
      178
 90
      181
 90
      169
 90
        4
 90
      128
 90
      132
 90
      133
 90
      130
 90
        3
 90
      130
 90
      133
 90
      131
 90
        3
 90
      120
 90
      115
 90
      119
 90
        4
 90
      119
 90
      115
 90
      121
 90
      118
 90
        4
 90
      117
 90
      121
 90
      122
 90
      116
 90
        3
 90
      118
 90
      121
 90
      117
 90
        3
 90
      116
 90
      122
 90
      114
 90
        4
 90
      114
 90
      122
 90
      124
 90
      123
 90
        3
 90
      123
 90
      124
 90
      125
 90
        4
 90
      125
 90
      124
 90
      127
 90
      126
 90
        3
 90
      126
 90
      127
 90
      129
 90
        4
 90
      129
 90
      127
 90
      132
 90
      128
 94
      434
 90
       98
 90
       99
 90
       99
 90
      200
 90
      200
 90
      203
 90
       98
 90
      203
 90
       99
 90
      100
 90
      100
 90
      199
 90
      199
 90
      200
 90
      100
 90
      101
 90
      101
 90
      104
 90
      104
 90
      199
 90
        0
 90
      101
 90
        0
 90
      103
 90
      103
 90
      104
 90
        0
 90
        1
 90
        1
 90
      102
 90
      102
 90
      103
 90
        1
 90
        2
 90
        2
 90
      105
 90
      102
 90
      105
 90
        2
 90
        3
 90
        3
 90
      106
 90
      105
 90
      106
 90
        3
 90
        4
 90
        4
 90
      107
 90
      106
 90
      107
 90
        4
 90
        5
 90
        5
 90
      109
 90
      107
 90
      109
 90
        5
 90
        6
 90
        6
 90
      110
 90
      109
 90
      110
 90
        6
 90
        7
 90
        7
 90
      111
 90
      110
 90
      111
 90
        7
 90
        8
 90
        8
 90
      113
 90
      111
 90
      113
 90
        8
 90
        9
 90
        9
 90
      115
 90
      113
 90
      115
 90
        9
 90
       10
 90
       10
 90
      121
 90
      115
 90
      121
 90
       10
 90
       11
 90
       11
 90
      122
 90
      121
 90
      122
 90
       11
 90
       12
 90
       12
 90
      124
 90
      122
 90
      124
 90
       12
 90
       13
 90
       13
 90
      127
 90
      124
 90
      127
 90
       13
 90
       14
 90
       14
 90
      132
 90
      127
 90
      132
 90
       14
 90
       15
 90
       15
 90
      133
 90
      132
 90
      133
 90
       15
 90
       16
 90
       16
 90
      140
 90
      133
 90
      140
 90
       16
 90
       17
 90
       17
 90
      143
 90
      140
 90
      143
 90
       17
 90
       18
 90
       18
 90
      146
 90
      143
 90
      146
 90
       18
 90
       19
 90
       19
 90
      151
 90
      146
 90
      151
 90
       19
 90
       20
 90
       20
 90
      156
 90
      151
 90
      156
 90
       20
 90
       21
 90
       21
 90
      162
 90
      156
 90
      162
 90
       21
 90
       22
 90
       22
 90
      165
 90
      162
 90
      165
 90
       22
 90
       23
 90
       23
 90
      167
 90
      165
 90
      167
 90
       23
 90
       24
 90
       24
 90
      170
 90
      167
 90
      170
 90
       24
 90
       25
 90
       25
 90
      171
 90
      170
 90
      171
 90
       25
 90
       26
 90
       26
 90
      173
 90
      171
 90
      173
 90
       26
 90
       27
 90
       27
 90
      175
 90
      173
 90
      175
 90
       27
 90
       28
 90
       28
 90
      176
 90
      175
 90
      176
 90
       28
 90
       29
 90
       29
 90
      178
 90
      176
 90
      178
 90
       29
 90
       30
 90
       30
 90
      181
 90
      178
 90
      181
 90
       30
 90
       31
 90
       31
 90
      183
 90
      181
 90
      183
 90
       31
 90
       32
 90
       32
 90
      187
 90
      183
 90
      187
 90
       32
 90
       33
 90
       33
 90
      189
 90
      187
 90
      189
 90
       33
 90
       34
 90
       34
 90
      191
 90
      189
 90
      191
 90
       34
 90
       35
 90
       35
 90
      190
 90
      190
 90
      191
 90
       35
 90
       36
 90
       36
 90
      188
 90
      188
 90
      190
 90
       36
 90
       37
 90
       37
 90
      186
 90
      186
 90
      188
 90
       37
 90
       38
 90
       38
 90
      182
 90
      182
 90
      186
 90
       38
 90
       39
 90
       39
 90
      184
 90
      182
 90
      184
 90
       39
 90
       40
 90
       40
 90
      185
 90
      184
 90
      185
 90
       40
 90
       41
 90
       41
 90
      192
 90
      185
 90
      192
 90
       41
 90
       42
 90
       42
 90
      194
 90
      192
 90
      194
 90
       42
 90
       43
 90
       43
 90
      195
 90
      194
 90
      195
 90
       43
 90
       44
 90
       44
 90
      196
 90
      195
 90
      196
 90
       44
 90
       45
 90
       45
 90
      197
 90
      196
 90
      197
 90
       45
 90
       46
 90
       46
 90
      193
 90
      193
 90
      197
 90
       46
 90
       47
 90
       47
 90
      180
 90
      180
 90
      193
 90
       47
 90
       48
 90
       48
 90
      179
 90
      179
 90
      180
 90
       48
 90
       49
 90
       49
 90
      177
 90
      177
 90
      179
 90
       49
 90
       50
 90
       50
 90
      174
 90
      174
 90
      177
 90
       50
 90
       51
 90
       51
 90
      172
 90
      172
 90
      174
 90
       51
 90
       52
 90
       52
 90
      169
 90
      169
 90
      172
 90
       52
 90
       53
 90
       53
 90
      168
 90
      168
 90
      169
 90
       53
 90
       54
 90
       54
 90
      166
 90
      166
 90
      168
 90
       54
 90
       55
 90
       55
 90
      164
 90
      164
 90
      166
 90
       55
 90
       56
 90
       56
 90
      163
 90
      163
 90
      164
 90
       56
 90
       57
 90
       57
 90
      161
 90
      161
 90
      163
 90
       57
 90
       58
 90
       58
 90
      160
 90
      160
 90
      161
 90
       58
 90
       59
 90
       59
 90
      159
 90
      159
 90
      160
 90
       59
 90
       60
 90
       60
 90
      158
 90
      158
 90
      159
 90
       60
 90
       61
 90
       61
 90
      157
 90
      157
 90
      158
 90
       61
 90
       62
 90
       62
 90
      155
 90
      155
 90
      157
 90
       62
 90
       63
 90
       63
 90
      154
 90
      154
 90
      155
 90
       63
 90
       64
 90
       64
 90
      153
 90
      153
 90
      154
 90
       64
 90
       65
 90
       65
 90
      152
 90
      152
 90
      153
 90
       65
 90
       66
 90
       66
 90
      150
 90
      150
 90
      152
 90
       66
 90
       67
 90
       67
 90
      149
 90
      149
 90
      150
 90
       67
 90
       68
 90
       68
 90
      148
 90
      148
 90
      149
 90
       68
 90
       69
 90
       69
 90
      147
 90
      147
 90
      148
 90
       69
 90
       70
 90
       70
 90
      145
 90
      145
 90
      147
 90
       70
 90
       71
 90
       71
 90
      144
 90
      144
 90
      145
 90
       71
 90
       72
 90
       72
 90
      142
 90
      142
 90
      144
 90
       72
 90
       73
 90
       73
 90
      141
 90
      141
 90
      142
 90
       73
 90
       74
 90
       74
 90
      134
 90
      134
 90
      141
 90
       74
 90
       75
 90
       75
 90
      135
 90
      134
 90
      135
 90
       75
 90
       76
 90
       76
 90
      136
 90
      135
 90
      136
 90
       76
 90
       77
 90
       77
 90
      137
 90
      136
 90
      137
 90
       77
 90
       78
 90
       78
 90
      138
 90
      137
 90
      138
 90
       78
 90
       79
 90
       79
 90
      139
 90
      138
 90
      139
 90
       79
 90
       80
 90
       80
 90
      198
 90
      139
 90
      198
 90
       80
 90
       81
 90
       81
 90
      131
 90
      131
 90
      198
 90
       81
 90
       82
 90
       82
 90
      130
 90
      130
 90
      131
 90
       82
 90
       83
 90
       83
 90
      128
 90
      128
 90
      130
 90
       83
 90
       84
 90
       84
 90
      129
 90
      128
 90
      129
 90
       84
 90
       85
 90
       85
 90
      126
 90
      126
 90
      129
 90
       85
 90
       86
 90
       86
 90
      125
 90
      125
 90
      126
 90
       86
 90
       87
 90
       87
 90
      123
 90
      123
 90
      125
 90
       87
 90
       88
 90
       88
 90
      114
 90
      114
 90
      123
 90
       88
 90
       89
 90
       89
 90
      116
 90
      114
 90
      116
 90
       89
 90
       90
 90
       90
 90
      117
 90
      116
 90
      117
 90
       90
 90
       91
 90
       91
 90
      118
 90
      117
 90
      118
 90
       91
 90
       92
 90
       92
 90
      119
 90
      118
 90
      119
 90
       92
 90
       93
 90
       93
 90
      120
 90
      119
 90
      120
 90
       93
 90
       94
 90
       94
 90
      112
 90
      112
 90
      120
 90
       94
 90
       95
 90
       95
 90
      108
 90
      108
 90
      112
 90
       95
 90
       96
 90
       96
 90
      201
 90
      108
 90
      201
 90
       96
 90
       97
 90
       97
 90
      202
 90
      201
 90
      202
 90
       97
 90
       98
 90
      202
 90
      203
 90
        0
 90
       97
 90
        1
 90
       96
 90
       45
 90
       47
 90
       44
 90
       48
 90
       43
 90
       49
 90
       42
 90
       50
 90
       41
 90
       51
 90
       40
 90
       51
 90
       33
 90
       36
 90
       32
 90
       37
 90
       31
 90
       38
 90
       30
 90
       39
 90
       30
 90
       52
 90
       97
 90
      100
 90
       97
 90
      101
 90
        3
 90
       96
 90
        2
 90
       96
 90
        6
 90
       94
 90
        5
 90
       95
 90
        4
 90
       95
 90
        3
 90
       95
 90
        8
 90
       94
 90
        7
 90
       94
 90
        9
 90
       93
 90
       16
 90
       80
 90
       15
 90
       81
 90
       16
 90
       79
 90
       17
 90
       78
 90
       17
 90
       77
 90
       18
 90
       76
 90
       19
 90
       74
 90
       18
 90
       75
 90
       19
 90
       73
 90
       20
 90
       72
 90
       20
 90
       71
 90
       21
 90
       70
 90
       21
 90
       69
 90
       22
 90
       68
 90
       23
 90
       66
 90
       22
 90
       67
 90
       23
 90
       65
 90
       24
 90
       64
 90
       24
 90
       63
 90
       25
 90
       62
 90
       25
 90
       61
 90
       26
 90
       60
 90
       26
 90
       59
 90
       27
 90
       58
 90
       27
 90
       57
 90
       28
 90
       56
 90
       28
 90
       55
 90
       29
 90
       54
 90
       29
 90
       53
 90
       15
 90
       82
 90
       14
 90
       83
 90
        9
 90
       92
 90
       10
 90
       91
 90
       11
 90
       89
 90
       10
 90
       90
 90
       11
 90
       88
 90
       12
 90
       87
 90
       12
 90
       86
 90
       13
 90
       85
 90
       13
 90
       84
 90
      102
 90
      201
 90
      103
 90
      202
 90
      180
 90
      197
 90
      179
 90
      196
 90
      177
 90
      195
 90
      174
 90
      194
 90
      172
 90
      192
 90
      172
 90
      185
 90
      188
 90
      189
 90
      186
 90
      187
 90
      182
 90
      183
 90
      181
 90
      184
 90
      169
 90
      181
 90
      104
 90
      202
 90
      199
 90
      202
 90
      105
 90
      201
 90
      106
 90
      201
 90
      108
 90
      109
 90
      110
 90
      112
 90
      107
 90
      108
 90
      106
 90
      108
 90
      111
 90
      112
 90
      112
 90
      113
 90
      115
 90
      120
 90
      131
 90
      133
 90
      140
 90
      198
 90
      139
 90
      140
 90
      138
 90
      143
 90
      137
 90
      143
 90
      136
 90
      146
 90
      135
 90
      146
 90
      134
 90
      151
 90
      141
 90
      151
 90
      142
 90
      156
 90
      144
 90
      156
 90
      145
 90
      162
 90
      147
 90
      162
 90
      148
 90
      165
 90
      149
 90
      165
 90
      150
 90
      167
 90
      152
 90
      167
 90
      153
 90
      170
 90
      154
 90
      170
 90
      155
 90
      171
 90
      157
 90
      171
 90
      158
 90
      173
 90
      159
 90
      173
 90
      160
 90
      175
 90
      161
 90
      175
 90
      163
 90
      176
 90
      164
 90
      176
 90
      166
 90
      178
 90
      168
 90
      178
 90
      128
 90
      132
 90
      130
 90
      133
 90
      115
 90
      119
 90
      118
 90
      121
 90
      117
 90
      121
 90
      116
 90
      122
 90
      114
 90
      122
 90
      123
 90
      124
 90
      124
 90
      125
 90
      126
 90
      127
 90
      127
 90
      129
 95
      434
140
0.0
140
0.0
140
0.0
140
0.0
140
0.0
140
0.0
140
0.0
140
0.0
140
0.0
140
0.0
140
0.0
140
0.0
140
0.0
140
0.0
140
0.0
140
0.0
140
0.0
140
0.0
140
0.0
140
0.0
140
0.0
140
0.0
140
0.0
140
0.0
140
0.0
140
0.0
140
0.0
140
0.0
140
0.0
140
0.0
140
0.0
140
0.0
140
0.0
140
0.0
140
0.0
140
0.0
140
0.0
140
0.0
140
0.0
140
0.0
140
0.0
140
0.0
140
0.0
140
0.0
140
0.0
140
0.0
140
0.0
140
0.0
140
0.0
140
0.0
140
0.0
140
0.0
140
0.0
140
0.0
140
0.0
140
0.0
140
0.0
140
0.0
140
0.0
140
0.0
140
0.0
140
0.0
140
0.0
140
0.0
140
0.0
140
0.0
140
0.0
140
0.0
140
0.0
140
0.0
140
0.0
140
0.0
140
0.0
140
0.0
140
0.0
140
0.0
140
0.0
140
0.0
140
0.0
140
0.0
140
0.0
140
0.0
140
0.0
140
0.0
140
0.0
140
0.0
140
0.0
140
0.0
140
0.0
140
0.0
140
0.0
140
0.0
140
0.0
140
0.0
140
0.0
140
0.0
140
0.0
140
0.0
140
0.0
140
0.0
140
0.0
140
0.0
140
0.0
140
0.0
140
0.0
140
0.0
140
0.0
140
0.0
140
0.0
140
0.0
140
0.0
140
0.0
140
0.0
140
0.0
140
0.0
140
0.0
140
0.0
140
0.0
140
0.0
140
0.0
140
0.0
140
0.0
140
0.0
140
0.0
140
0.0
140
0.0
140
0.0
140
0.0
140
0.0
140
0.0
140
0.0
140
0.0
140
0.0
140
0.0
140
0.0
140
0.0
140
0.0
140
0.0
140
0.0
140
0.0
140
0.0
140
0.0
140
0.0
140
0.0
140
0.0
140
0.0
140
0.0
140
0.0
140
0.0
140
0.0
140
0.0
140
0.0
140
0.0
140
0.0
140
0.0
140
0.0
140
0.0
140
0.0
140
0.0
140
0.0
140
0.0
140
0.0
140
0.0
140
0.0
140
0.0
140
0.0
140
0.0
140
0.0
140
0.0
140
0.0
140
0.0
140
0.0
140
0.0
140
0.0
140
0.0
140
0.0
140
0.0
140
0.0
140
0.0
140
0.0
140
0.0
140
0.0
140
0.0
140
0.0
140
0.0
140
0.0
140
0.0
140
0.0
140
0.0
140
0.0
140
0.0
140
0.0
140
0.0
140
0.0
140
0.0
140
0.0
140
0.0
140
0.0
140
0.0
140
0.0
140
0.0
140
0.0
140
0.0
140
0.0
140
0.0
140
0.0
140
0.0
140
0.0
140
0.0
140
0.0
140
0.0
140
0.0
140
0.0
140
0.0
140
0.0
140
0.0
140
0.0
140
0.0
140
0.0
140
0.0
140
0.0
140
0.0
140
0.0
140
0.0
140
0.0
140
0.0
140
0.0
140
0.0
140
0.0
140
0.0
140
0.0
140
0.0
140
0.0
140
0.0
140
0.0
140
0.0
140
0.0
140
0.0
140
0.0
140
0.0
140
0.0
140
0.0
140
0.0
140
0.0
140
0.0
140
0.0
140
0.0
140
0.0
140
0.0
140
0.0
140
0.0
140
0.0
140
0.0
140
0.0
140
0.0
140
0.0
140
0.0
140
0.0
140
0.0
140
0.0
140
0.0
140
0.0
140
0.0
140
0.0
140
0.0
140
0.0
140
0.0
140
0.0
140
0.0
140
0.0
140
0.0
140
0.0
140
0.0
140
0.0
140
0.0
140
0.0
140
0.0
140
0.0
140
0.0
140
0.0
140
0.0
140
0.0
140
0.0
140
0.0
140
0.0
140
0.0
140
0.0
140
0.0
140
0.0
140
0.0
140
0.0
140
0.0
140
0.0
140
0.0
140
0.0
140
0.0
140
0.0
140
0.0
140
0.0
140
0.0
140
0.0
140
0.0
140
0.0
140
0.0
140
0.0
140
0.0
140
0.0
140
0.0
140
0.0
140
0.0
140
0.0
140
0.0
140
0.0
140
0.0
140
0.0
140
0.0
140
0.0
140
0.0
140
0.0
140
0.0
140
0.0
140
0.0
140
0.0
140
0.0
140
0.0
140
0.0
140
0.0
140
0.0
140
0.0
140
0.0
140
0.0
140
0.0
140
0.0
140
0.0
140
0.0
140
0.0
140
0.0
140
0.0
140
0.0
140
0.0
140
0.0
140
0.0
140
0.0
140
0.0
140
0.0
140
0.0
140
0.0
140
0.0
140
0.0
140
0.0
140
0.0
140
0.0
140
0.0
140
0.0
140
0.0
140
0.0
140
0.0
140
0.0
140
0.0
140
0.0
140
0.0
140
0.0
140
0.0
140
0.0
140
0.0
140
0.0
140
0.0
140
0.0
140
0.0
140
0.0
140
0.0
140
0.0
140
0.0
140
0.0
140
0.0
140
0.0
140
0.0
140
0.0
140
0.0
140
0.0
140
0.0
140
0.0
140
0.0
140
0.0
140
0.0
140
0.0
140
0.0
140
0.0
140
0.0
140
0.0
140
0.0
140
0.0
140
0.0
140
0.0
140
0.0
140
0.0
140
0.0
140
0.0
140
0.0
140
0.0
140
0.0
140
0.0
140
0.0
140
0.0
140
0.0
140
0.0
140
0.0
140
0.0
140
0.0
140
0.0
140
0.0
140
0.0
140
0.0
140
0.0
140
0.0
140
0.0
140
0.0
140
0.0
140
0.0
140
0.0
140
0.0
140
0.0
140
0.0
140
0.0
140
0.0
140
0.0
140
0.0
140
0.0
140
0.0
140
0.0
140
0.0
140
0.0
140
0.0
140
0.0
 90
        0
  0
POLYLINE
  5
FA
330
1F
100
AcDbEntity
  8
OracDecor_cornice_mouldings
 62
    61
420
 14083225
100
AcDb3dPolyline
 66
     1
 10
0.0
 20
0.0
 30
0.0
 70
     9
  0
VERTEX
  5
FB
330
FA
100
AcDbEntity
  8
OracDecor_cornice_mouldings
 62
    61
420
 14083225
100
AcDbVertex
100
AcDb3dPolylineVertex
 10
0.0
 20
0.1339670568704605
 30
-47.66734313964843
 70
    32
  0
VERTEX
  5
FC
330
FA
100
AcDbEntity
  8
OracDecor_cornice_mouldings
 62
    61
420
 14083225
100
AcDbVertex
100
AcDb3dPolylineVertex
 10
0.0
 20
0.9113171696662902
 30
-46.32093429565429
 70
    32
  0
VERTEX
  5
FD
330
FA
100
AcDbEntity
  8
OracDecor_cornice_mouldings
 62
    61
420
 14083225
100
AcDbVertex
100
AcDb3dPolylineVertex
 10
0.0
 20
1.011220097541809
 30
-46.07973861694335
 70
    32
  0
VERTEX
  5
FE
330
FA
100
AcDbEntity
  8
OracDecor_cornice_mouldings
 62
    61
420
 14083225
100
AcDbVertex
100
AcDb3dPolylineVertex
 10
0.0
 20
1.045290112495422
 30
-45.82093429565429
 70
    32
  0
VERTEX
  5
FF
330
FA
100
AcDbEntity
  8
OracDecor_cornice_mouldings
 62
    61
420
 14083225
100
AcDbVertex
100
AcDb3dPolylineVertex
 10
0.0
 20
1.011220216751098
 30
-45.56212997436523
 70
    32
  0
VERTEX
  5
100
330
FA
100
AcDbEntity
  8
OracDecor_cornice_mouldings
 62
    61
420
 14083225
100
AcDbVertex
100
AcDb3dPolylineVertex
 10
0.0
 20
0.9113172888755798
 30
-45.3209342956543
 70
    32
  0
VERTEX
  5
101
330
FA
100
AcDbEntity
  8
OracDecor_cornice_mouldings
 62
    61
420
 14083225
100
AcDbVertex
100
AcDb3dPolylineVertex
 10
0.0
 20
0.1339673846960068
 30
-43.97452545166015
 70
    32
  0
VERTEX
  5
102
330
FA
100
AcDbEntity
  8
OracDecor_cornice_mouldings
 62
    61
420
 14083225
100
AcDbVertex
100
AcDb3dPolylineVertex
 10
0.0
 20
0.0340664051473141
 30
-43.73334503173828
 70
    32
  0
VERTEX
  5
103
330
FA
100
AcDbEntity
  8
OracDecor_cornice_mouldings
 62
    61
420
 14083225
100
AcDbVertex
100
AcDb3dPolylineVertex
 10
0.0
 20
-0.0000075755592661
 30
-43.47452545166015
 70
    32
  0
VERTEX
  5
104
330
FA
100
AcDbEntity
  8
OracDecor_cornice_mouldings
 62
    61
420
 14083225
100
AcDbVertex
100
AcDb3dPolylineVertex
 10
0.0
 20
-0.0000070328746915
 30
-37.26693725585938
 70
    32
  0
VERTEX
  5
105
330
FA
100
AcDbEntity
  8
OracDecor_cornice_mouldings
 62
    61
420
 14083225
100
AcDbVertex
100
AcDb3dPolylineVertex
 10
0.0
 20
0.0311770047992468
 30
-36.83551025390625
 70
    32
  0
VERTEX
  5
106
330
FA
100
AcDbEntity
  8
OracDecor_cornice_mouldings
 62
    61
420
 14083225
100
AcDbVertex
100
AcDb3dPolylineVertex
 10
0.0
 20
0.1240800395607948
 30
-36.41304779052735
 70
    32
  0
VERTEX
  5
107
330
FA
100
AcDbEntity
  8
OracDecor_cornice_mouldings
 62
    61
420
 14083225
100
AcDbVertex
100
AcDb3dPolylineVertex
 10
0.0
 20
0.276771068572998
 30
-36.00834274291992
 70
    32
  0
VERTEX
  5
108
330
FA
100
AcDbEntity
  8
OracDecor_cornice_mouldings
 62
    61
420
 14083225
100
AcDbVertex
100
AcDb3dPolylineVertex
 10
0.0
 20
0.6347006559371949
 30
-35.28644561767578
 70
    32
  0
VERTEX
  5
109
330
FA
100
AcDbEntity
  8
OracDecor_cornice_mouldings
 62
    61
420
 14083225
100
AcDbVertex
100
AcDb3dPolylineVertex
 10
0.0000038146972656
 20
1.447414278984069
 30
-33.92171478271484
 70
    32
  0
VERTEX
  5
10A
330
FA
100
AcDbEntity
  8
OracDecor_cornice_mouldings
 62
    61
420
 14083225
100
AcDbVertex
100
AcDb3dPolylineVertex
 10
0.0000038146972656
 20
11.31628227233886
 30
-21.4127311706543
 70
    32
  0
VERTEX
  5
10B
330
FA
100
AcDbEntity
  8
OracDecor_cornice_mouldings
 62
    61
420
 14083225
100
AcDbVertex
100
AcDb3dPolylineVertex
 10
0.0000038146972656
 20
11.95384120941162
 30
-20.48318862915039
 70
    32
  0
VERTEX
  5
10C
330
FA
100
AcDbEntity
  8
OracDecor_cornice_mouldings
 62
    61
420
 14083225
100
AcDbVertex
100
AcDb3dPolylineVertex
 10
0.0000038146972656
 20
12.64175224304199
 30
-19.14828681945801
 70
    32
  0
VERTEX
  5
10D
330
FA
100
AcDbEntity
  8
OracDecor_cornice_mouldings
 62
    61
420
 14083225
100
AcDbVertex
100
AcDb3dPolylineVertex
 10
0.0000038146972656
 20
13.44928932189941
 30
-17.25805282592773
 70
    32
  0
VERTEX
  5
10E
330
FA
100
AcDbEntity
  8
OracDecor_cornice_mouldings
 62
    61
420
 14083225
100
AcDbVertex
100
AcDb3dPolylineVertex
 10
0.0000038146972656
 20
14.67409038543701
 30
-14.95168304443359
 70
    32
  0
VERTEX
  5
10F
330
FA
100
AcDbEntity
  8
OracDecor_cornice_mouldings
 62
    61
420
 14083225
100
AcDbVertex
100
AcDb3dPolylineVertex
 10
0.0000038146972656
 20
16.09235763549804
 30
-12.8835277557373
 70
    32
  0
VERTEX
  5
110
330
FA
100
AcDbEntity
  8
OracDecor_cornice_mouldings
 62
    61
420
 14083225
100
AcDbVertex
100
AcDb3dPolylineVertex
 10
0.0000038146972656
 20
17.65679931640625
 30
-11.08507061004639
 70
    32
  0
VERTEX
  5
111
330
FA
100
AcDbEntity
  8
OracDecor_cornice_mouldings
 62
    61
420
 14083225
100
AcDbVertex
100
AcDb3dPolylineVertex
 10
0.0000038146972656
 20
19.54801940917969
 30
-9.388416290283203
 70
    32
  0
VERTEX
  5
112
330
FA
100
AcDbEntity
  8
OracDecor_cornice_mouldings
 62
    61
420
 14083225
100
AcDbVertex
100
AcDb3dPolylineVertex
 10
0.0000038146970383
 20
21.26629829406738
 30
-8.192609786987304
 70
    32
  0
VERTEX
  5
113
330
FA
100
AcDbEntity
  8
OracDecor_cornice_mouldings
 62
    61
420
 14083225
100
AcDbVertex
100
AcDb3dPolylineVertex
 10
0.0000038146972656
 20
23.03216552734375
 30
-7.218700408935546
 70
    32
  0
VERTEX
  5
114
330
FA
100
AcDbEntity
  8
OracDecor_cornice_mouldings
 62
    61
420
 14083225
100
AcDbVertex
100
AcDb3dPolylineVertex
 10
0.0000038146972656
 20
24.82009124755859
 30
-6.409483432769775
 70
    32
  0
VERTEX
  5
115
330
FA
100
AcDbEntity
  8
OracDecor_cornice_mouldings
 62
    61
420
 14083225
100
AcDbVertex
100
AcDb3dPolylineVertex
 10
0.0000038146972656
 20
26.44879531860352
 30
-5.777596473693847
 70
    32
  0
VERTEX
  5
116
330
FA
100
AcDbEntity
  8
OracDecor_cornice_mouldings
 62
    61
420
 14083225
100
AcDbVertex
100
AcDb3dPolylineVertex
 10
0.0000038146972656
 20
27.62409591674805
 30
-5.259869575500488
 70
    32
  0
VERTEX
  5
117
330
FA
100
AcDbEntity
  8
OracDecor_cornice_mouldings
 62
    61
420
 14083225
100
AcDbVertex
100
AcDb3dPolylineVertex
 10
0.0000038146972656
 20
28.30671310424805
 30
-4.652271270751953
 70
    32
  0
VERTEX
  5
118
330
FA
100
AcDbEntity
  8
OracDecor_cornice_mouldings
 62
    61
420
 14083225
100
AcDbVertex
100
AcDb3dPolylineVertex
 10
0.0000038146972656
 20
28.77401733398438
 30
-3.866926431655883
 70
    32
  0
VERTEX
  5
119
330
FA
100
AcDbEntity
  8
OracDecor_cornice_mouldings
 62
    61
420
 14083225
100
AcDbVertex
100
AcDb3dPolylineVertex
 10
0.0000038146972656
 20
28.98239135742187
 30
-2.977139472961425
 70
    32
  0
VERTEX
  5
11A
330
FA
100
AcDbEntity
  8
OracDecor_cornice_mouldings
 62
    61
420
 14083225
100
AcDbVertex
100
AcDb3dPolylineVertex
 10
0.0000038146972656
 20
28.99999618530273
 30
-0.4999944269657135
 70
    32
  0
VERTEX
  5
11B
330
FA
100
AcDbEntity
  8
OracDecor_cornice_mouldings
 62
    61
420
 14083225
100
AcDbVertex
100
AcDb3dPolylineVertex
 10
0.0000038146972656
 20
29.05998229980469
 30
-0.2757869064807892
 70
    32
  0
VERTEX
  5
11C
330
FA
100
AcDbEntity
  8
OracDecor_cornice_mouldings
 62
    61
420
 14083225
100
AcDbVertex
100
AcDb3dPolylineVertex
 10
0.0000038146970383
 20
29.27578926086426
 30
-0.0599804148077965
 70
    32
  0
VERTEX
  5
11D
330
FA
100
AcDbEntity
  8
OracDecor_cornice_mouldings
 62
    61
420
 14083225
100
AcDbVertex
100
AcDb3dPolylineVertex
 10
0.0000038146970383
 20
29.49999618530274
 30
0.0000055670620895
 70
    32
  0
VERTEX
  5
11E
330
FA
100
AcDbEntity
  8
OracDecor_cornice_mouldings
 62
    61
420
 14083225
100
AcDbVertex
100
AcDb3dPolylineVertex
 10
0.0000038146970383
 20
32.15358734130859
 30
0.0000053350777307
 70
    32
  0
VERTEX
  5
11F
330
FA
100
AcDbEntity
  8
OracDecor_cornice_mouldings
 62
    61
420
 14083225
100
AcDbVertex
100
AcDb3dPolylineVertex
 10
0.0000038146972656
 20
32.41240692138672
 30
-0.034068688750267
 70
    32
  0
VERTEX
  5
120
330
FA
100
AcDbEntity
  8
OracDecor_cornice_mouldings
 62
    61
420
 14083225
100
AcDbVertex
100
AcDb3dPolylineVertex
 10
0.0000038146970383
 20
32.6535873413086
 30
-0.133969709277153
 70
    32
  0
VERTEX
  5
121
330
FA
100
AcDbEntity
  8
OracDecor_cornice_mouldings
 62
    61
420
 14083225
100
AcDbVertex
100
AcDb3dPolylineVertex
 10
0.0000038146972656
 20
33.99999618530273
 30
-0.9113197922706604
 70
    32
  0
VERTEX
  5
122
330
FA
100
AcDbEntity
  8
OracDecor_cornice_mouldings
 62
    61
420
 14083225
100
AcDbVertex
100
AcDb3dPolylineVertex
 10
0.0000038146972656
 20
34.24119186401367
 30
-1.011222839355468
 70
    32
  0
VERTEX
  5
123
330
FA
100
AcDbEntity
  8
OracDecor_cornice_mouldings
 62
    61
420
 14083225
100
AcDbVertex
100
AcDb3dPolylineVertex
 10
0.0000038146972656
 20
34.49999618530274
 30
-1.045292854309082
 70
    32
  0
VERTEX
  5
124
330
FA
100
AcDbEntity
  8
OracDecor_cornice_mouldings
 62
    61
420
 14083225
100
AcDbVertex
100
AcDb3dPolylineVertex
 10
0.0000038146972656
 20
34.7588005065918
 30
-1.011222839355468
 70
    32
  0
VERTEX
  5
125
330
FA
100
AcDbEntity
  8
OracDecor_cornice_mouldings
 62
    61
420
 14083225
100
AcDbVertex
100
AcDb3dPolylineVertex
 10
0.0000038146972656
 20
34.99999618530273
 30
-0.9113198518753051
 70
    32
  0
VERTEX
  5
126
330
FA
100
AcDbEntity
  8
OracDecor_cornice_mouldings
 62
    61
420
 14083225
100
AcDbVertex
100
AcDb3dPolylineVertex
 10
0.0000038146972656
 20
36.34640502929688
 30
-0.1339700222015381
 70
    32
  0
VERTEX
  5
127
330
FA
100
AcDbEntity
  8
OracDecor_cornice_mouldings
 62
    61
420
 14083225
100
AcDbVertex
100
AcDb3dPolylineVertex
 10
0.0000038146972656
 20
36.58758544921875
 30
-0.0340690538287163
 70
    32
  0
VERTEX
  5
128
330
FA
100
AcDbEntity
  8
OracDecor_cornice_mouldings
 62
    61
420
 14083225
100
AcDbVertex
100
AcDb3dPolylineVertex
 10
0.0000038146972656
 20
36.84640502929688
 30
0.0000049248183132
 70
    32
  0
VERTEX
  5
129
330
FA
100
AcDbEntity
  8
OracDecor_cornice_mouldings
 62
    61
420
 14083225
100
AcDbVertex
100
AcDb3dPolylineVertex
 10
0.0000038146972656
 20
39.99999618530273
 30
0.0000046491227295
 70
    32
  0
VERTEX
  5
12A
330
FA
100
AcDbEntity
  8
OracDecor_cornice_mouldings
 62
    61
420
 14083225
100
AcDbVertex
100
AcDb3dPolylineVertex
 10
0.0000038146972656
 20
39.99217987060547
 30
-2.247495412826538
 70
    32
  0
VERTEX
  5
12B
330
FA
100
AcDbEntity
  8
OracDecor_cornice_mouldings
 62
    61
420
 14083225
100
AcDbVertex
100
AcDb3dPolylineVertex
 10
0.0000038146972656
 20
39.90470123291016
 30
-3.296918392181396
 70
    32
  0
VERTEX
  5
12C
330
FA
100
AcDbEntity
  8
OracDecor_cornice_mouldings
 62
    61
420
 14083225
100
AcDbVertex
100
AcDb3dPolylineVertex
 10
0.0000038146972656
 20
39.74977111816406
 30
-4.111168384552001
 70
    32
  0
VERTEX
  5
12D
330
FA
100
AcDbEntity
  8
OracDecor_cornice_mouldings
 62
    61
420
 14083225
100
AcDbVertex
100
AcDb3dPolylineVertex
 10
0.0000038146972656
 20
39.51631927490235
 30
-4.935100555419921
 70
    32
  0
VERTEX
  5
12E
330
FA
100
AcDbEntity
  8
OracDecor_cornice_mouldings
 62
    61
420
 14083225
100
AcDbVertex
100
AcDb3dPolylineVertex
 10
0.0000038146972656
 20
39.20136260986328
 30
-5.763951301574707
 70
    32
  0
VERTEX
  5
12F
330
FA
100
AcDbEntity
  8
OracDecor_cornice_mouldings
 62
    61
420
 14083225
100
AcDbVertex
100
AcDb3dPolylineVertex
 10
0.0000038146972656
 20
38.80300140380859
 30
-6.590461730957031
 70
    32
  0
VERTEX
  5
130
330
FA
100
AcDbEntity
  8
OracDecor_cornice_mouldings
 62
    61
420
 14083225
100
AcDbVertex
100
AcDb3dPolylineVertex
 10
0.0000038146970383
 20
38.32132720947266
 30
-7.404807090759277
 70
    32
  0
VERTEX
  5
131
330
FA
100
AcDbEntity
  8
OracDecor_cornice_mouldings
 62
    61
420
 14083225
100
AcDbVertex
100
AcDb3dPolylineVertex
 10
0.0000038146970383
 20
37.75931549072266
 30
-8.194860458374023
 70
    32
  0
VERTEX
  5
132
330
FA
100
AcDbEntity
  8
OracDecor_cornice_mouldings
 62
    61
420
 14083225
100
AcDbVertex
100
AcDb3dPolylineVertex
 10
0.0000038146972656
 20
37.12342071533203
 30
-8.946934700012207
 70
    32
  0
VERTEX
  5
133
330
FA
100
AcDbEntity
  8
OracDecor_cornice_mouldings
 62
    61
420
 14083225
100
AcDbVertex
100
AcDb3dPolylineVertex
 10
0.0000038146972656
 20
36.42367172241211
 30
-9.647039413452148
 70
    32
  0
VERTEX
  5
134
330
FA
100
AcDbEntity
  8
OracDecor_cornice_mouldings
 62
    61
420
 14083225
100
AcDbVertex
100
AcDb3dPolylineVertex
 10
0.0000038146972656
 20
35.67306518554687
 30
-10.28232383728027
 70
    32
  0
VERTEX
  5
135
330
FA
100
AcDbEntity
  8
OracDecor_cornice_mouldings
 62
    61
420
 14083225
100
AcDbVertex
100
AcDb3dPolylineVertex
 10
0.0000038146972656
 20
34.88353729248047
 30
-10.8442153930664
 70
    32
  0
VERTEX
  5
136
330
FA
100
AcDbEntity
  8
OracDecor_cornice_mouldings
 62
    61
420
 14083225
100
AcDbVertex
100
AcDb3dPolylineVertex
 10
0.0000038146970383
 20
34.01174545288086
 30
-11.35791397094726
 70
    32
  0
VERTEX
  5
137
330
FA
100
AcDbEntity
  8
OracDecor_cornice_mouldings
 62
    61
420
 14083225
100
AcDbVertex
100
AcDb3dPolylineVertex
 10
0.0000038146972656
 20
32.89908218383789
 30
-11.8947582244873
 70
    32
  0
VERTEX
  5
138
330
FA
100
AcDbEntity
  8
OracDecor_cornice_mouldings
 62
    61
420
 14083225
100
AcDbVertex
100
AcDb3dPolylineVertex
 10
0.0000038146970383
 20
31.72536087036133
 30
-12.37448310852051
 70
    32
  0
VERTEX
  5
139
330
FA
100
AcDbEntity
  8
OracDecor_cornice_mouldings
 62
    61
420
 14083225
100
AcDbVertex
100
AcDb3dPolylineVertex
 10
0.0000038146972656
 20
30.53047943115235
 30
-12.81120491027832
 70
    32
  0
VERTEX
  5
13A
330
FA
100
AcDbEntity
  8
OracDecor_cornice_mouldings
 62
    61
420
 14083225
100
AcDbVertex
100
AcDb3dPolylineVertex
 10
0.0000038146972656
 20
29.17013549804688
 30
-13.29997825622558
 70
    32
  0
VERTEX
  5
13B
330
FA
100
AcDbEntity
  8
OracDecor_cornice_mouldings
 62
    61
420
 14083225
100
AcDbVertex
100
AcDb3dPolylineVertex
 10
0.0000038146972656
 20
28.01468658447266
 30
-13.74486541748047
 70
    32
  0
VERTEX
  5
13C
330
FA
100
AcDbEntity
  8
OracDecor_cornice_mouldings
 62
    61
420
 14083225
100
AcDbVertex
100
AcDb3dPolylineVertex
 10
0.0000038146972656
 20
26.70058631896973
 30
-14.32649040222168
 70
    32
  0
VERTEX
  5
13D
330
FA
100
AcDbEntity
  8
OracDecor_cornice_mouldings
 62
    61
420
 14083225
100
AcDbVertex
100
AcDb3dPolylineVertex
 10
0.0000038146972656
 20
25.67553520202637
 30
-14.87317371368408
 70
    32
  0
VERTEX
  5
13E
330
FA
100
AcDbEntity
  8
OracDecor_cornice_mouldings
 62
    61
420
 14083225
100
AcDbVertex
100
AcDb3dPolylineVertex
 10
0.0000038146972656
 20
24.85491371154785
 30
-15.40230846405029
 70
    32
  0
VERTEX
  5
13F
330
FA
100
AcDbEntity
  8
OracDecor_cornice_mouldings
 62
    61
420
 14083225
100
AcDbVertex
100
AcDb3dPolylineVertex
 10
0.0000038146972656
 20
24.13273048400879
 30
-15.96308612823486
 70
    32
  0
VERTEX
  5
140
330
FA
100
AcDbEntity
  8
OracDecor_cornice_mouldings
 62
    61
420
 14083225
100
AcDbVertex
100
AcDb3dPolylineVertex
 10
0.0000038146972656
 20
23.4338436126709
 30
-16.60974884033203
 70
    32
  0
VERTEX
  5
141
330
FA
100
AcDbEntity
  8
OracDecor_cornice_mouldings
 62
    61
420
 14083225
100
AcDbVertex
100
AcDb3dPolylineVertex
 10
0.0000038146972656
 20
22.74969863891602
 30
-17.35811233520507
 70
    32
  0
VERTEX
  5
142
330
FA
100
AcDbEntity
  8
OracDecor_cornice_mouldings
 62
    61
420
 14083225
100
AcDbVertex
100
AcDb3dPolylineVertex
 10
0.0000038146972656
 20
22.08983993530273
 30
-18.21044158935547
 70
    32
  0
VERTEX
  5
143
330
FA
100
AcDbEntity
  8
OracDecor_cornice_mouldings
 62
    61
420
 14083225
100
AcDbVertex
100
AcDb3dPolylineVertex
 10
0.0000038146972656
 20
21.46726989746094
 30
-19.16347312927246
 70
    32
  0
VERTEX
  5
144
330
FA
100
AcDbEntity
  8
OracDecor_cornice_mouldings
 62
    61
420
 14083225
100
AcDbVertex
100
AcDb3dPolylineVertex
 10
0.0000038146972656
 20
20.89789962768555
 30
-20.20602416992188
 70
    32
  0
VERTEX
  5
145
330
FA
100
AcDbEntity
  8
OracDecor_cornice_mouldings
 62
    61
420
 14083225
100
AcDbVertex
100
AcDb3dPolylineVertex
 10
0.0000038146972656
 20
20.39336204528809
 30
-21.33051109313965
 70
    32
  0
VERTEX
  5
146
330
FA
100
AcDbEntity
  8
OracDecor_cornice_mouldings
 62
    61
420
 14083225
100
AcDbVertex
100
AcDb3dPolylineVertex
 10
0.0000038146972656
 20
19.95616722106933
 30
-22.54861640930176
 70
    32
  0
VERTEX
  5
147
330
FA
100
AcDbEntity
  8
OracDecor_cornice_mouldings
 62
    61
420
 14083225
100
AcDbVertex
100
AcDb3dPolylineVertex
 10
0.0000038146972656
 20
19.5899658203125
 30
-23.87749099731445
 70
    32
  0
VERTEX
  5
148
330
FA
100
AcDbEntity
  8
OracDecor_cornice_mouldings
 62
    61
420
 14083225
100
AcDbVertex
100
AcDb3dPolylineVertex
 10
0.0000038146970383
 20
19.30166053771973
 30
-25.33745956420899
 70
    32
  0
VERTEX
  5
149
330
FA
100
AcDbEntity
  8
OracDecor_cornice_mouldings
 62
    61
420
 14083225
100
AcDbVertex
100
AcDb3dPolylineVertex
 10
0.0
 20
19.10154724121094
 30
-26.95546531677246
 70
    32
  0
VERTEX
  5
14A
330
FA
100
AcDbEntity
  8
OracDecor_cornice_mouldings
 62
    61
420
 14083225
100
AcDbVertex
100
AcDb3dPolylineVertex
 10
0.0
 20
19.00456619262695
 30
-28.76527976989746
 70
    32
  0
VERTEX
  5
14B
330
FA
100
AcDbEntity
  8
OracDecor_cornice_mouldings
 62
    61
420
 14083225
100
AcDbVertex
100
AcDb3dPolylineVertex
 10
0.0
 20
18.9999942779541
 30
-29.9999942779541
 70
    32
  0
VERTEX
  5
14C
330
FA
100
AcDbEntity
  8
OracDecor_cornice_mouldings
 62
    61
420
 14083225
100
AcDbVertex
100
AcDb3dPolylineVertex
 10
0.0
 20
13.99999332427978
 30
-29.9999942779541
 70
    32
  0
VERTEX
  5
14D
330
FA
100
AcDbEntity
  8
OracDecor_cornice_mouldings
 62
    61
420
 14083225
100
AcDbVertex
100
AcDb3dPolylineVertex
 10
0.0
 20
13.99999332427978
 30
-34.99999237060547
 70
    32
  0
VERTEX
  5
14E
330
FA
100
AcDbEntity
  8
OracDecor_cornice_mouldings
 62
    61
420
 14083225
100
AcDbVertex
100
AcDb3dPolylineVertex
 10
0.0
 20
13.4601993560791
 30
-35.08840942382813
 70
    32
  0
VERTEX
  5
14F
330
FA
100
AcDbEntity
  8
OracDecor_cornice_mouldings
 62
    61
420
 14083225
100
AcDbVertex
100
AcDb3dPolylineVertex
 10
0.0
 20
12.40281677246094
 30
-35.31313705444336
 70
    32
  0
VERTEX
  5
150
330
FA
100
AcDbEntity
  8
OracDecor_cornice_mouldings
 62
    61
420
 14083225
100
AcDbVertex
100
AcDb3dPolylineVertex
 10
0.0
 20
11.40103530883789
 30
-35.62777709960938
 70
    32
  0
VERTEX
  5
151
330
FA
100
AcDbEntity
  8
OracDecor_cornice_mouldings
 62
    61
420
 14083225
100
AcDbVertex
100
AcDb3dPolylineVertex
 10
0.0
 20
10.59219646453857
 30
-36.00674438476563
 70
    32
  0
VERTEX
  5
152
330
FA
100
AcDbEntity
  8
OracDecor_cornice_mouldings
 62
    61
420
 14083225
100
AcDbVertex
100
AcDb3dPolylineVertex
 10
0.0
 20
9.84714126586914
 30
-36.48300552368164
 70
    32
  0
VERTEX
  5
153
330
FA
100
AcDbEntity
  8
OracDecor_cornice_mouldings
 62
    61
420
 14083225
100
AcDbVertex
100
AcDb3dPolylineVertex
 10
0.0
 20
9.170844078063964
 30
-37.05125427246094
 70
    32
  0
VERTEX
  5
154
330
FA
100
AcDbEntity
  8
OracDecor_cornice_mouldings
 62
    61
420
 14083225
100
AcDbVertex
100
AcDb3dPolylineVertex
 10
0.0
 20
8.557861328125
 30
-37.72084045410156
 70
    32
  0
VERTEX
  5
155
330
FA
100
AcDbEntity
  8
OracDecor_cornice_mouldings
 62
    61
420
 14083225
100
AcDbVertex
100
AcDb3dPolylineVertex
 10
0.0
 20
8.002305030822753
 30
-38.50941848754883
 70
    32
  0
VERTEX
  5
156
330
FA
100
AcDbEntity
  8
OracDecor_cornice_mouldings
 62
    61
420
 14083225
100
AcDbVertex
100
AcDb3dPolylineVertex
 10
0.0
 20
7.524791717529296
 30
-39.40704727172852
 70
    32
  0
VERTEX
  5
157
330
FA
100
AcDbEntity
  8
OracDecor_cornice_mouldings
 62
    61
420
 14083225
100
AcDbVertex
100
AcDb3dPolylineVertex
 10
0.0
 20
7.192882537841796
 30
-40.24062347412109
 70
    32
  0
VERTEX
  5
158
330
FA
100
AcDbEntity
  8
OracDecor_cornice_mouldings
 62
    61
420
 14083225
100
AcDbVertex
100
AcDb3dPolylineVertex
 10
0.0
 20
6.939332962036132
 30
-41.090087890625
 70
    32
  0
VERTEX
  5
159
330
FA
100
AcDbEntity
  8
OracDecor_cornice_mouldings
 62
    61
420
 14083225
100
AcDbVertex
100
AcDb3dPolylineVertex
 10
0.0
 20
6.678260803222656
 30
-42.36921310424804
 70
    32
  0
VERTEX
  5
15A
330
FA
100
AcDbEntity
  8
OracDecor_cornice_mouldings
 62
    61
420
 14083225
100
AcDbVertex
100
AcDb3dPolylineVertex
 10
0.0
 20
6.394649028778076
 30
-44.49062347412109
 70
    32
  0
VERTEX
  5
15B
330
FA
100
AcDbEntity
  8
OracDecor_cornice_mouldings
 62
    61
420
 14083225
100
AcDbVertex
100
AcDb3dPolylineVertex
 10
0.0
 20
6.165348529815673
 30
-47.7817268371582
 70
    32
  0
VERTEX
  5
15C
330
FA
100
AcDbEntity
  8
OracDecor_cornice_mouldings
 62
    61
420
 14083225
100
AcDbVertex
100
AcDb3dPolylineVertex
 10
0.0
 20
6.018208503723144
 30
-52.21940612792969
 70
    32
  0
VERTEX
  5
15D
330
FA
100
AcDbEntity
  8
OracDecor_cornice_mouldings
 62
    61
420
 14083225
100
AcDbVertex
100
AcDb3dPolylineVertex
 10
0.0
 20
5.999991416931152
 30
-54.99999237060547
 70
    32
  0
VERTEX
  5
15E
330
FA
100
AcDbEntity
  8
OracDecor_cornice_mouldings
 62
    61
420
 14083225
100
AcDbVertex
100
AcDb3dPolylineVertex
 10
0.0
 20
-0.0000085831479737
 30
-54.99999237060547
 70
    32
  0
VERTEX
  5
15F
330
FA
100
AcDbEntity
  8
OracDecor_cornice_mouldings
 62
    61
420
 14083225
100
AcDbVertex
100
AcDb3dPolylineVertex
 10
0.0
 20
-0.0000079858182289
 30
-48.16734313964843
 70
    32
  0
VERTEX
  5
160
330
FA
100
AcDbEntity
  8
OracDecor_cornice_mouldings
 62
    61
420
 14083225
100
AcDbVertex
100
AcDb3dPolylineVertex
 10
0.0
 20
0.0340660400688648
 30
-47.90852355957031
 70
    32
  0
SEQEND
  5
161
330
FA
100
AcDbEntity
  8
OracDecor_cornice_mouldings
 62
    61
420
 14083225
  0
ENDSEC
  0
SECTION
  2
OBJECTS
  0
DICTIONARY
  5
C
330
0
100
AcDbDictionary
281
     1
  3
ACAD_COLOR
350
DC
  3
ACAD_DETAILVIEWSTYLE
350
F5
  3
ACAD_GROUP
350
D
  3
ACAD_LAYOUT
350
1A
  3
ACAD_MATERIAL
350
AA
  3
ACAD_MLEADERSTYLE
350
F1
  3
ACAD_MLINESTYLE
350
17
  3
ACAD_PLOTSETTINGS
350
19
  3
ACAD_PLOTSTYLENAME
350
E
  3
ACAD_SCALELIST
350
DF
  3
ACAD_SECTIONVIEWSTYLE
350
F3
  3
ACAD_TABLESTYLE
350
DD
  3
ACAD_VISUALSTYLE
350
C3
  3
ACDB_RECOMPOSE_DATA
350
16E
  3
AcDbVariableDictionary
350
162
  0
DICTIONARY
  5
DC
102
{ACAD_REACTORS
330
C
102
}
330
C
100
AcDbDictionary
281
     1
  0
DICTIONARY
  5
F5
102
{ACAD_REACTORS
330
C
102
}
330
C
100
AcDbDictionary
281
     1
  3
Imperial24
350
F6
  0
DICTIONARY
  5
D
102
{ACAD_REACTORS
330
C
102
}
330
C
100
AcDbDictionary
281
     1
  0
DICTIONARY
  5
1A
102
{ACAD_REACTORS
330
C
102
}
330
C
100
AcDbDictionary
281
     1
  3
Layout1
350
1E
  3
Layout2
350
26
  3
Model
350
22
  0
DICTIONARY
  5
AA
102
{ACAD_REACTORS
330
C
102
}
330
C
100
AcDbDictionary
281
     1
  3
ByBlock
350
B3
  3
ByLayer
350
AB
  3
Global
350
BB
  0
DICTIONARY
  5
F1
102
{ACAD_REACTORS
330
C
102
}
330
C
100
AcDbDictionary
281
     1
  3
Standard
350
F2
  0
DICTIONARY
  5
17
102
{ACAD_REACTORS
330
C
102
}
330
C
100
AcDbDictionary
281
     1
  3
Standard
350
18
  0
DICTIONARY
  5
19
102
{ACAD_REACTORS
330
C
102
}
330
C
100
AcDbDictionary
281
     1
  0
ACDBDICTIONARYWDFLT
  5
E
102
{ACAD_REACTORS
330
C
102
}
330
C
100
AcDbDictionary
281
     1
  3
ByLayer
350
2D
  3
Normal
350
F
100
AcDbDictionaryWithDefault
340
F
  0
DICTIONARY
  5
DF
102
{ACAD_REACTORS
330
C
102
}
330
C
100
AcDbDictionary
281
     1
  3
A0
350
E0
  3
A1
350
E1
  3
A2
350
E2
  3
A3
350
E3
  3
A4
350
E4
  3
A5
350
E5
  3
A6
350
E6
  3
A7
350
E7
  3
A8
350
E8
  3
A9
350
E9
  3
B0
350
EA
  3
B1
350
EB
  3
B2
350
EC
  3
B3
350
ED
  3
B4
350
EE
  3
B5
350
EF
  3
B6
350
F0
  0
DICTIONARY
  5
F3
102
{ACAD_REACTORS
330
C
102
}
330
C
100
AcDbDictionary
281
     1
  3
Imperial24
350
F4
  0
DICTIONARY
  5
DD
102
{ACAD_REACTORS
330
C
102
}
330
C
100
AcDbDictionary
281
     1
  3
Standard
350
DE
  0
DICTIONARY
  5
C3
102
{ACAD_REACTORS
330
C
102
}
330
C
100
AcDbDictionary
281
     1
  3
2dWireframe
350
C9
  3
Basic
350
C8
  3
Brighten
350
CF
  3
ColorChange
350
D3
  3
Conceptual
350
CC
  3
Dim
350
CE
  3
EdgeColorOff
350
DB
  3
Facepattern
350
D2
  3
Flat
350
C4
  3
FlatWithEdges
350
C5
  3
Gouraud
350
C6
  3
GouraudWithEdges
350
C7
  3
Hidden
350
CB
  3
JitterOff
350
D9
  3
Linepattern
350
D1
  3
OverhangOff
350
DA
  3
Realistic
350
CD
  3
Shaded
350
D8
  3
Shaded with edges
350
D7
  3
Shades of Gray
350
D4
  3
Sketchy
350
D5
  3
Thicken
350
D0
  3
Wireframe
350
CA
  3
X-Ray
350
D6
  0
XRECORD
  5
16E
102
{ACAD_REACTORS
330
C
102
}
330
C
100
AcDbXrecord
280
     1
 90
        1
330
DE
  0
DICTIONARY
  5
162
102
{ACAD_REACTORS
330
C
102
}
330
C
100
AcDbDictionary
281
     1
  3
CANNOSCALE
350
168
  3
CMLEADERSTYLE
350
164
  3
CTABLESTYLE
350
163
  3
CVIEWDETAILSTYLE
350
165
  3
CVIEWSECTIONSTYLE
350
166
  3
LAYEREVAL
350
16A
  3
LAYERNOTIFY
350
16B
  3
LIGHTINGUNITS
350
169
  3
MSLTSCALE
350
167
  0
ACDBDETAILVIEWSTYLE
  5
F6
102
{ACAD_XDICTIONARY
360
1A3
102
}
102
{ACAD_REACTORS
330
F5
102
}
330
F5
100
AcDbModelDocViewStyle
 70
     0
  3
Imperial24
290
     0
100
AcDbDetailViewStyle
 70
     0
 71
     0
 90
        3
 71
     1
340
11
 62
   256
 40
0.24
340
0
 62
   256
 40
0.24
300

 40
0.36
280
     3
 71
     2
340
16
 90
       25
 62
   256
 71
     3
340
11
 62
   256
 40
0.24
 90
        1
 40
0.75
 90
        1
300
%<\AcVar ViewType \f "%tc1">% %<\AcVar ViewDetailId>%\PSCALE %<\AcVar ViewScale \f "%sn">%
 71
     4
340
16
 90
       25
 62
   256
340
16
 90
       25
 62
   256
280
     0
  0
LAYOUT
  5
1E
102
{ACAD_REACTORS
330
1A
102
}
330
1A
100
AcDbPlotSettings
  1

  2
\\KTXNTBDC\CASF2PN1
  4

  6

 40
0.0
 41
0.0
 42
0.0
 43
0.0
 44
0.0
 45
0.0
 46
0.0
 47
0.0
 48
0.0
 49
0.0
140
0.0
141
0.0
142
1.0
143
1.0
 70
   688
 72
     0
 73
     0
 74
     5
  7

 75
    16
147
1.0
 76
     0
 77
     2
 78
   300
148
0.0
149
0.0
100
AcDbLayout
  1
Layout1
 70
     1
 71
     1
 10
0.0
 20
0.0
 11
12.0
 21
9.0
 12
0.0
 22
0.0
 32
0.0
 14
1.000000000000000E+20
 24
1.000000000000000E+20
 34
1.000000000000000E+20
 15
-1.000000000000000E+20
 25
-1.000000000000000E+20
 35
-1.000000000000000E+20
146
0.0
 13
0.0
 23
0.0
 33
0.0
 16
1.0
 26
0.0
 36
0.0
 17
0.0
 27
1.0
 37
0.0
 76
     0
330
1B
  0
LAYOUT
  5
26
102
{ACAD_REACTORS
330
1A
102
}
330
1A
100
AcDbPlotSettings
  1

  2
\\KTXNTBDC\CASF2PN1
  4

  6

 40
0.0
 41
0.0
 42
0.0
 43
0.0
 44
0.0
 45
0.0
 46
0.0
 47
0.0
 48
0.0
 49
0.0
140
0.0
141
0.0
142
1.0
143
1.0
 70
   688
 72
     0
 73
     0
 74
     5
  7

 75
    16
147
1.0
 76
     0
 77
     2
 78
   300
148
0.0
149
0.0
100
AcDbLayout
  1
Layout2
 70
     1
 71
     2
 10
0.0
 20
0.0
 11
12.0
 21
9.0
 12
0.0
 22
0.0
 32
0.0
 14
0.0
 24
0.0
 34
0.0
 15
0.0
 25
0.0
 35
0.0
146
0.0
 13
0.0
 23
0.0
 33
0.0
 16
1.0
 26
0.0
 36
0.0
 17
0.0
 27
1.0
 37
0.0
 76
     0
330
23
  0
LAYOUT
  5
22
102
{ACAD_REACTORS
330
1A
102
}
330
1A
100
AcDbPlotSettings
  1

  2
\\KTXNTBDC\CASF2PN1
  4

  6

 40
0.0
 41
0.0
 42
0.0
 43
0.0
 44
0.0
 45
0.0
 46
0.0
 47
0.0
 48
0.0
 49
0.0
140
0.0
141
0.0
142
1.0
143
1.0
 70
  1712
 72
     0
 73
     0
 74
     0
  7

 75
     0
147
1.0
 76
     0
 77
     2
 78
   300
148
0.0
149
0.0
100
AcDbLayout
  1
Model
 70
     1
 71
     0
 10
0.0
 20
0.0
 11
12.0
 21
9.0
 12
0.0
 22
0.0
 32
0.0
 14
0.0
 24
0.0
 34
0.0
 15
0.0
 25
0.0
 35
0.0
146
0.0
 13
0.0
 23
0.0
 33
0.0
 16
1.0
 26
0.0
 36
0.0
 17
0.0
 27
1.0
 37
0.0
 76
     0
330
1F
  0
MATERIAL
  5
B3
102
{ACAD_XDICTIONARY
360
B4
102
}
102
{ACAD_REACTORS
330
AA
102
}
330
AA
100
AcDbMaterial
  1
ByBlock
 72
     0
 43
0.0208333333333333
 43
0.0
 43
0.0
 43
0.0
 43
0.0
 43
0.0208333333333333
 43
0.0
 43
0.0
 43
0.0
 43
0.0
 43
1.0
 43
0.0
 43
0.0
 43
0.0
 43
0.0
 43
1.0
 77
     0
 47
0.0208333333333333
 47
0.0
 47
0.0
 47
0.0
 47
0.0
 47
0.0208333333333333
 47
0.0
 47
0.0
 47
0.0
 47
0.0
 47
1.0
 47
0.0
 47
0.0
 47
0.0
 47
0.0
 47
1.0
171
     0
 49
0.0208333333333333
 49
0.0
 49
0.0
 49
0.0
 49
0.0
 49
0.0208333333333333
 49
0.0
 49
0.0
 49
0.0
 49
0.0
 49
1.0
 49
0.0
 49
0.0
 49
0.0
 49
0.0
 49
1.0
175
     0
142
0.0208333333333333
142
0.0
142
0.0
142
0.0
142
0.0
142
0.0208333333333333
142
0.0
142
0.0
142
0.0
142
0.0
142
1.0
142
0.0
142
0.0
142
0.0
142
0.0
142
1.0
179
     0
144
0.0208333333333333
144
0.0
144
0.0
144
0.0
144
0.0
144
0.0208333333333333
144
0.0
144
0.0
144
0.0
144
0.0
144
1.0
144
0.0
144
0.0
144
0.0
144
0.0
144
1.0
147
0.0208333333333333
147
0.0
147
0.0
147
0.0
147
0.0
147
0.0208333333333333
147
0.0
147
0.0
147
0.0
147
0.0
147
1.0
147
0.0
147
0.0
147
0.0
147
0.0
147
1.0
  0
MATERIAL
  5
AB
102
{ACAD_XDICTIONARY
360
AC
102
}
102
{ACAD_REACTORS
330
AA
102
}
330
AA
100
AcDbMaterial
  1
ByLayer
 72
     0
 43
0.0208333333333333
 43
0.0
 43
0.0
 43
0.0
 43
0.0
 43
0.0208333333333333
 43
0.0
 43
0.0
 43
0.0
 43
0.0
 43
1.0
 43
0.0
 43
0.0
 43
0.0
 43
0.0
 43
1.0
 77
     0
 47
0.0208333333333333
 47
0.0
 47
0.0
 47
0.0
 47
0.0
 47
0.0208333333333333
 47
0.0
 47
0.0
 47
0.0
 47
0.0
 47
1.0
 47
0.0
 47
0.0
 47
0.0
 47
0.0
 47
1.0
171
     0
 49
0.0208333333333333
 49
0.0
 49
0.0
 49
0.0
 49
0.0
 49
0.0208333333333333
 49
0.0
 49
0.0
 49
0.0
 49
0.0
 49
1.0
 49
0.0
 49
0.0
 49
0.0
 49
0.0
 49
1.0
175
     0
142
0.0208333333333333
142
0.0
142
0.0
142
0.0
142
0.0
142
0.0208333333333333
142
0.0
142
0.0
142
0.0
142
0.0
142
1.0
142
0.0
142
0.0
142
0.0
142
0.0
142
1.0
179
     0
144
0.0208333333333333
144
0.0
144
0.0
144
0.0
144
0.0
144
0.0208333333333333
144
0.0
144
0.0
144
0.0
144
0.0
144
1.0
144
0.0
144
0.0
144
0.0
144
0.0
144
1.0
147
0.0208333333333333
147
0.0
147
0.0
147
0.0
147
0.0
147
0.0208333333333333
147
0.0
147
0.0
147
0.0
147
0.0
147
1.0
147
0.0
147
0.0
147
0.0
147
0.0
147
1.0
  0
MATERIAL
  5
BB
102
{ACAD_XDICTIONARY
360
BC
102
}
102
{ACAD_REACTORS
330
AA
102
}
330
AA
100
AcDbMaterial
  1
Global
 72
     0
 43
0.0208333333333333
 43
0.0
 43
0.0
 43
0.0
 43
0.0
 43
0.0208333333333333
 43
0.0
 43
0.0
 43
0.0
 43
0.0
 43
1.0
 43
0.0
 43
0.0
 43
0.0
 43
0.0
 43
1.0
 77
     0
 47
0.0208333333333333
 47
0.0
 47
0.0
 47
0.0
 47
0.0
 47
0.0208333333333333
 47
0.0
 47
0.0
 47
0.0
 47
0.0
 47
1.0
 47
0.0
 47
0.0
 47
0.0
 47
0.0
 47
1.0
171
     0
 49
0.0208333333333333
 49
0.0
 49
0.0
 49
0.0
 49
0.0
 49
0.0208333333333333
 49
0.0
 49
0.0
 49
0.0
 49
0.0
 49
1.0
 49
0.0
 49
0.0
 49
0.0
 49
0.0
 49
1.0
175
     0
142
0.0208333333333333
142
0.0
142
0.0
142
0.0
142
0.0
142
0.0208333333333333
142
0.0
142
0.0
142
0.0
142
0.0
142
1.0
142
0.0
142
0.0
142
0.0
142
0.0
142
1.0
179
     0
144
0.0208333333333333
144
0.0
144
0.0
144
0.0
144
0.0
144
0.0208333333333333
144
0.0
144
0.0
144
0.0
144
0.0
144
1.0
144
0.0
144
0.0
144
0.0
144
0.0
144
1.0
147
0.0208333333333333
147
0.0
147
0.0
147
0.0
147
0.0
147
0.0208333333333333
147
0.0
147
0.0
147
0.0
147
0.0
147
1.0
147
0.0
147
0.0
147
0.0
147
0.0
147
1.0
  0
MLEADERSTYLE
  5
F2
102
{ACAD_XDICTIONARY
360
19F
102
}
102
{ACAD_REACTORS
330
F1
102
}
330
F1
100
AcDbMLeaderStyle
179
     2
170
     2
171
     1
172
     0
 90
        2
 40
0.0
 41
0.0
173
     1
 91
-1056964608
340
14
 92
       -2
290
     1
 42
0.09
291
     1
 43
0.36
  3
Standard
 44
0.18
300

342
11
174
     1
178
     6
175
     1
176
     0
 93
-1056964608
 45
0.18
292
     0
297
     0
 46
0.18
 94
-1056964608
 47
1.0
 49
1.0
140
1.0
293
     1
141
0.0
294
     1
177
     0
142
1.0
295
     0
296
     0
143
0.125
271
     0
272
     9
273
     9
  0
MLINESTYLE
  5
18
102
{ACAD_REACTORS
330
17
102
}
330
17
100
AcDbMlineStyle
  2
STANDARD
 70
     0
  3

 62
   256
 51
90.0
 52
90.0
 71
     2
 49
0.5
 62
   256
  6
BYLAYER
 49
-0.5
 62
   256
  6
BYLAYER
  0
ACDBPLACEHOLDER
  5
2D
102
{ACAD_REACTORS
330
E
102
}
330
E
  0
ACDBPLACEHOLDER
  5
F
102
{ACAD_REACTORS
330
E
102
}
330
E
  0
SCALE
  5
E0
102
{ACAD_REACTORS
330
DF
102
}
330
DF
100
AcDbScale
 70
     0
300
1:1
140
1.0
141
1.0
290
     1
  0
SCALE
  5
E1
102
{ACAD_REACTORS
330
DF
102
}
330
DF
100
AcDbScale
 70
     0
300
1/128" = 1'-0"
140
0.0078125
141
12.0
290
     0
  0
SCALE
  5
E2
102
{ACAD_REACTORS
330
DF
102
}
330
DF
100
AcDbScale
 70
     0
300
1/64" = 1'-0"
140
0.015625
141
12.0
290
     0
  0
SCALE
  5
E3
102
{ACAD_REACTORS
330
DF
102
}
330
DF
100
AcDbScale
 70
     0
300
1/32" = 1'-0"
140
0.03125
141
12.0
290
     0
  0
SCALE
  5
E4
102
{ACAD_REACTORS
330
DF
102
}
330
DF
100
AcDbScale
 70
     0
300
1/16" = 1'-0"
140
0.0625
141
12.0
290
     0
  0
SCALE
  5
E5
102
{ACAD_REACTORS
330
DF
102
}
330
DF
100
AcDbScale
 70
     0
300
3/32" = 1'-0"
140
0.09375
141
12.0
290
     0
  0
SCALE
  5
E6
102
{ACAD_REACTORS
330
DF
102
}
330
DF
100
AcDbScale
 70
     0
300
1/8" = 1'-0"
140
0.125
141
12.0
290
     0
  0
SCALE
  5
E7
102
{ACAD_REACTORS
330
DF
102
}
330
DF
100
AcDbScale
 70
     0
300
3/16" = 1'-0"
140
0.1875
141
12.0
290
     0
  0
SCALE
  5
E8
102
{ACAD_REACTORS
330
DF
102
}
330
DF
100
AcDbScale
 70
     0
300
1/4" = 1'-0"
140
0.25
141
12.0
290
     0
  0
SCALE
  5
E9
102
{ACAD_REACTORS
330
DF
102
}
330
DF
100
AcDbScale
 70
     0
300
3/8" = 1'-0"
140
0.375
141
12.0
290
     0
  0
SCALE
  5
EA
102
{ACAD_REACTORS
330
DF
102
}
330
DF
100
AcDbScale
 70
     0
300
1/2" = 1'-0"
140
0.5
141
12.0
290
     0
  0
SCALE
  5
EB
102
{ACAD_REACTORS
330
DF
102
}
330
DF
100
AcDbScale
 70
     0
300
3/4" = 1'-0"
140
0.75
141
12.0
290
     0
  0
SCALE
  5
EC
102
{ACAD_REACTORS
330
DF
102
}
330
DF
100
AcDbScale
 70
     0
300
1" = 1'-0"
140
1.0
141
12.0
290
     0
  0
SCALE
  5
ED
102
{ACAD_REACTORS
330
DF
102
}
330
DF
100
AcDbScale
 70
     0
300
1-1/2" = 1'-0"
140
1.5
141
12.0
290
     0
  0
SCALE
  5
EE
102
{ACAD_REACTORS
330
DF
102
}
330
DF
100
AcDbScale
 70
     0
300
3" = 1'-0"
140
3.0
141
12.0
290
     0
  0
SCALE
  5
EF
102
{ACAD_REACTORS
330
DF
102
}
330
DF
100
AcDbScale
 70
     0
300
6" = 1'-0"
140
6.0
141
12.0
290
     0
  0
SCALE
  5
F0
102
{ACAD_REACTORS
330
DF
102
}
330
DF
100
AcDbScale
 70
     0
300
1'-0" = 1'-0"
140
12.0
141
12.0
290
     0
  0
ACDBSECTIONVIEWSTYLE
  5
F4
102
{ACAD_XDICTIONARY
360
1A1
102
}
102
{ACAD_REACTORS
330
F3
102
}
330
F3
100
AcDbModelDocViewStyle
 70
     0
  3
Imperial24
290
     0
100
AcDbSectionViewStyle
 70
     0
 71
     0
 90
       78
 71
     1
340
11
 62
   256
 40
0.24
340
0
340
0
 62
   256
 40
0.24
300
I, O, Q, S, X, Z
 40
0.48
 90
        3
 40
0.18
 90
        1
 71
     2
340
16
 90
       25
 62
   256
340
16
 90
       50
 62
   256
 40
0.24
 40
0.0
 40
0.24
 71
     3
340
11
 62
   256
 40
0.24
 90
        1
 40
0.75
 90
        1
300
%<\AcVar ViewType \f "%tc1">% %<\AcVar ViewSectionStartId>%-%<\AcVar ViewSectionEndId>%\PSCALE %<\AcVar ViewScale \f "%sn">%
 71
     4
 62
   256
 62
   257
300
ANSI31
 40
1.0
 90
        0
290
     0
290
     0
 90
        6
 40
0.0
 40
1.570796326794896
 40
0.2617993877991494
 40
1.308996938995747
 40
-0.2617993877991494
 40
1.832595714594046
  0
TABLESTYLE
  5
DE
102
{ACAD_XDICTIONARY
360
16C
102
}
102
{ACAD_REACTORS
330
DD
102
}
330
DD
100
AcDbTableStyle
280
     0
  3
Standard
 70
     0
 71
     0
 40
0.06
 41
0.06
280
     0
281
     0
  7
Standard
140
0.18
170
     2
 62
     0
 63
     7
283
     0
 90
      512
 91
        0
  1

274
    -2
284
     1
 64
     0
275
    -2
285
     1
 65
     0
276
    -2
286
     1
 66
     0
277
    -2
287
     1
 67
     0
278
    -2
288
     1
 68
     0
279
    -2
289
     1
 69
     0
  7
Standard
140
0.25
170
     5
 62
     0
 63
     7
283
     0
 90
      512
 91
        0
  1

274
    -2
284
     1
 64
     0
275
    -2
285
     1
 65
     0
276
    -2
286
     1
 66
     0
277
    -2
287
     1
 67
     0
278
    -2
288
     1
 68
     0
279
    -2
289
     1
 69
     0
  7
Standard
140
0.18
170
     5
 62
     0
 63
     7
283
     0
 90
      512
 91
        0
  1

274
    -2
284
     1
 64
     0
275
    -2
285
     1
 65
     0
276
    -2
286
     1
 66
     0
277
    -2
287
     1
 67
     0
278
    -2
288
     1
 68
     0
279
    -2
289
     1
 69
     0
  0
VISUALSTYLE
  5
C9
102
{ACAD_XDICTIONARY
360
179
102
}
102
{ACAD_REACTORS
330
C3
102
}
330
C3
100
AcDbVisualStyle
  2
2dWireframe
 70
     4
177
     2
291
     0
 71
     0
176
     1
 72
     2
176
     1
 73
     0
176
     1
 90
        0
176
     1
 40
0.6
176
     1
 41
30.0
176
     1
 63
     7
421
 16777215
176
     1
 74
     1
176
     1
 91
        4
176
     1
 64
     7
176
     1
 65
   257
176
     1
 75
     1
176
     1
175
     1
176
     1
 42
1.0
176
     1
 92
        0
176
     1
 66
   257
176
     1
 43
1.0
176
     1
 76
     1
176
     1
 77
     6
176
     1
 78
     2
176
     1
 67
     7
176
     1
 79
     5
176
     1
170
     0
176
     1
171
     0
176
     1
290
     0
176
     1
 93
        1
176
     1
 44
0.0
176
     1
173
     0
176
     1
1001
ACAD
1000
AcDbSavedByObjectVersion
1070
     0
  0
VISUALSTYLE
  5
C8
102
{ACAD_XDICTIONARY
360
177
102
}
102
{ACAD_REACTORS
330
C3
102
}
330
C3
100
AcDbVisualStyle
  2
Basic
 70
     7
177
     2
291
     1
 71
     1
176
     1
 72
     0
176
     1
 73
     1
176
     1
 90
        0
176
     1
 40
0.6
176
     1
 41
30.0
176
     1
 63
     7
421
 16777215
176
     1
 74
     0
176
     1
 91
        4
176
     1
 64
     7
176
     1
 65
   257
176
     1
 75
     1
176
     1
175
     1
176
     1
 42
1.0
176
     1
 92
        8
176
     1
 66
     7
176
     1
 43
1.0
176
     1
 76
     1
176
     1
 77
     6
176
     1
 78
     2
176
     1
 67
     7
176
     1
 79
     5
176
     1
170
     0
176
     1
171
     0
176
     1
290
     0
176
     1
 93
        1
176
     1
 44
0.0
176
     1
173
     0
176
     1
1001
ACAD
1000
AcDbSavedByObjectVersion
1070
     0
  0
VISUALSTYLE
  5
CF
102
{ACAD_XDICTIONARY
360
185
102
}
102
{ACAD_REACTORS
330
C3
102
}
330
C3
100
AcDbVisualStyle
  2
Brighten
 70
    12
177
     2
291
     1
 71
     2
176
     1
 72
     2
176
     1
 73
     0
176
     1
 90
        0
176
     1
 40
0.6
176
     1
 41
30.0
176
     1
 63
     7
421
 16777215
176
     1
 74
     1
176
     1
 91
        4
176
     1
 64
     7
176
     1
 65
   257
176
     1
 75
     1
176
     1
175
     1
176
     1
 42
1.0
176
     1
 92
        8
176
     1
 66
     7
176
     1
 43
1.0
176
     1
 76
     1
176
     1
 77
     6
176
     1
 78
     2
176
     1
 67
     7
176
     1
 79
     5
176
     1
170
     0
176
     1
171
     0
176
     1
290
     0
176
     1
 93
        1
176
     1
 44
50.0
176
     1
173
     0
176
     1
1001
ACAD
1000
AcDbSavedByObjectVersion
1070
     0
  0
VISUALSTYLE
  5
D3
102
{ACAD_XDICTIONARY
360
18D
102
}
102
{ACAD_REACTORS
330
C3
102
}
330
C3
100
AcDbVisualStyle
  2
ColorChange
 70
    16
177
     2
291
     1
 71
     2
176
     1
 72
     2
176
     1
 73
     3
176
     1
 90
        0
176
     1
 40
0.6
176
     1
 41
30.0
176
     1
 63
     8
421
  8421504
176
     1
 74
     1
176
     1
 91
        4
176
     1
 64
     7
176
     1
 65
   257
176
     1
 75
     1
176
     1
175
     1
176
     1
 42
1.0
176
     1
 92
        8
176
     1
 66
     8
424
  8421504
176
     1
 43
1.0
176
     1
 76
     1
176
     1
 77
     6
176
     1
 78
     2
176
     1
 67
     7
176
     1
 79
     5
176
     1
170
     0
176
     1
171
     0
176
     1
290
     0
176
     1
 93
        1
176
     1
 44
0.0
176
     1
173
     0
176
     1
1001
ACAD
1000
AcDbSavedByObjectVersion
1070
     0
  0
VISUALSTYLE
  5
CC
102
{ACAD_XDICTIONARY
360
17F
102
}
102
{ACAD_REACTORS
330
C3
102
}
330
C3
100
AcDbVisualStyle
  2
Conceptual
 70
     9
177
     2
291
     0
 71
     3
176
     1
 72
     2
176
     1
 73
     0
176
     1
 90
        0
176
     1
 40
0.6
176
     1
 41
30.0
176
     1
 63
     7
421
 16777215
176
     1
 74
     2
176
     1
 91
        2
176
     1
 64
     7
176
     1
 65
   257
176
     1
 75
     1
176
     1
175
     1
176
     1
 42
179.0
176
     1
 92
        8
176
     1
 66
     7
176
     1
 43
1.0
176
     1
 76
     1
176
     1
 77
     6
176
     1
 78
     2
176
     1
 67
     7
176
     1
 79
     3
176
     1
170
     0
176
     1
171
     0
176
     1
290
     0
176
     1
 93
        1
176
     1
 44
0.0
176
     1
173
     0
176
     1
1001
ACAD
1000
AcDbSavedByObjectVersion
1070
     0
  0
VISUALSTYLE
  5
CE
102
{ACAD_XDICTIONARY
360
183
102
}
102
{ACAD_REACTORS
330
C3
102
}
330
C3
100
AcDbVisualStyle
  2
Dim
 70
    11
177
     2
291
     1
 71
     2
176
     1
 72
     2
176
     1
 73
     0
176
     1
 90
        0
176
     1
 40
0.6
176
     1
 41
30.0
176
     1
 63
     7
421
 16777215
176
     1
 74
     1
176
     1
 91
        4
176
     1
 64
     7
176
     1
 65
   257
176
     1
 75
     1
176
     1
175
     1
176
     1
 42
1.0
176
     1
 92
        8
176
     1
 66
     7
176
     1
 43
1.0
176
     1
 76
     1
176
     1
 77
     6
176
     1
 78
     2
176
     1
 67
     7
176
     1
 79
     5
176
     1
170
     0
176
     1
171
     0
176
     1
290
     0
176
     1
 93
        1
176
     1
 44
-50.0
176
     1
173
     0
176
     1
1001
ACAD
1000
AcDbSavedByObjectVersion
1070
     0
  0
VISUALSTYLE
  5
DB
102
{ACAD_XDICTIONARY
360
19D
102
}
102
{ACAD_REACTORS
330
C3
102
}
330
C3
100
AcDbVisualStyle
  2
EdgeColorOff
 70
    22
177
     2
291
     1
 71
     2
176
     0
 72
     2
176
     0
 73
     0
176
     0
 90
        0
176
     0
 40
0.6
176
     0
 41
30.0
176
     0
 63
     7
421
 16777215
176
     0
 74
     1
176
     0
 91
        4
176
     0
 64
     7
176
     0
 65
   257
176
     0
 75
     1
176
     0
175
     1
176
     0
 42
1.0
176
     0
 92
        8
176
     2
 66
     7
176
     0
 43
1.0
176
     0
 76
     1
176
     0
 77
     6
176
     0
 78
     2
176
     0
 67
     7
176
     0
 79
     5
176
     0
170
     0
176
     0
171
     0
176
     0
290
     0
176
     0
 93
        1
176
     0
 44
0.0
176
     0
173
     0
176
     0
1001
ACAD
1000
AcDbSavedByObjectVersion
1070
     0
  0
VISUALSTYLE
  5
D2
102
{ACAD_XDICTIONARY
360
18B
102
}
102
{ACAD_REACTORS
330
C3
102
}
330
C3
100
AcDbVisualStyle
  2
Facepattern
 70
    15
177
     2
291
     1
 71
     2
176
     1
 72
     2
176
     1
 73
     0
176
     1
 90
        0
176
     1
 40
0.6
176
     1
 41
30.0
176
     1
 63
     7
421
 16777215
176
     1
 74
     1
176
     1
 91
        4
176
     1
 64
     7
176
     1
 65
   257
176
     1
 75
     1
176
     1
175
     1
176
     1
 42
1.0
176
     1
 92
        8
176
     1
 66
     7
176
     1
 43
1.0
176
     1
 76
     1
176
     1
 77
     6
176
     1
 78
     2
176
     1
 67
     7
176
     1
 79
     5
176
     1
170
     0
176
     1
171
     0
176
     1
290
     0
176
     1
 93
        1
176
     1
 44
0.0
176
     1
173
     0
176
     1
1001
ACAD
1000
AcDbSavedByObjectVersion
1070
     0
  0
VISUALSTYLE
  5
C4
102
{ACAD_XDICTIONARY
360
16F
102
}
102
{ACAD_REACTORS
330
C3
102
}
330
C3
100
AcDbVisualStyle
  2
Flat
 70
     0
177
     2
291
     1
 71
     2
176
     1
 72
     1
176
     1
 73
     1
176
     1
 90
        2
176
     1
 40
0.6
176
     1
 41
30.0
176
     1
 63
     7
421
 16777215
176
     1
 74
     0
176
     1
 91
        0
176
     1
 64
     7
176
     1
 65
   257
176
     1
 75
     1
176
     1
175
     1
176
     1
 42
1.0
176
     1
 92
        8
176
     1
 66
     7
176
     1
 43
1.0
176
     1
 76
     1
176
     1
 77
     6
176
     1
 78
     2
176
     1
 67
     7
176
     1
 79
     5
176
     1
170
     0
176
     1
171
     0
176
     1
290
     0
176
     1
 93
       13
176
     1
 44
0.0
176
     1
173
     0
176
     1
1001
ACAD
1000
AcDbSavedByObjectVersion
1070
     0
  0
VISUALSTYLE
  5
C5
102
{ACAD_XDICTIONARY
360
171
102
}
102
{ACAD_REACTORS
330
C3
102
}
330
C3
100
AcDbVisualStyle
  2
FlatWithEdges
 70
     1
177
     2
291
     1
 71
     2
176
     1
 72
     1
176
     1
 73
     1
176
     1
 90
        2
176
     1
 40
0.6
176
     1
 41
30.0
176
     1
 63
     7
421
 16777215
176
     1
 74
     1
176
     1
 91
        0
176
     1
 64
     7
176
     1
 65
   257
176
     1
 75
     1
176
     1
175
     1
176
     1
 42
1.0
176
     1
 92
        0
176
     1
 66
   257
176
     1
 43
1.0
176
     1
 76
     1
176
     1
 77
     6
176
     1
 78
     2
176
     1
 67
     7
176
     1
 79
     5
176
     1
170
     0
176
     1
171
     0
176
     1
290
     0
176
     1
 93
       13
176
     1
 44
0.0
176
     1
173
     0
176
     1
1001
ACAD
1000
AcDbSavedByObjectVersion
1070
     0
  0
VISUALSTYLE
  5
C6
102
{ACAD_XDICTIONARY
360
173
102
}
102
{ACAD_REACTORS
330
C3
102
}
330
C3
100
AcDbVisualStyle
  2
Gouraud
 70
     2
177
     2
291
     1
 71
     2
176
     1
 72
     2
176
     1
 73
     1
176
     1
 90
        2
176
     1
 40
0.6
176
     1
 41
30.0
176
     1
 63
     7
421
 16777215
176
     1
 74
     0
176
     1
 91
        0
176
     1
 64
     7
176
     1
 65
   257
176
     1
 75
     1
176
     1
175
     1
176
     1
 42
1.0
176
     1
 92
        0
176
     1
 66
     7
176
     1
 43
1.0
176
     1
 76
     1
176
     1
 77
     6
176
     1
 78
     2
176
     1
 67
     7
176
     1
 79
     5
176
     1
170
     0
176
     1
171
     0
176
     1
290
     0
176
     1
 93
       13
176
     1
 44
0.0
176
     1
173
     0
176
     1
1001
ACAD
1000
AcDbSavedByObjectVersion
1070
     0
  0
VISUALSTYLE
  5
C7
102
{ACAD_XDICTIONARY
360
175
102
}
102
{ACAD_REACTORS
330
C3
102
}
330
C3
100
AcDbVisualStyle
  2
GouraudWithEdges
 70
     3
177
     2
291
     1
 71
     2
176
     1
 72
     2
176
     1
 73
     1
176
     1
 90
        2
176
     1
 40
0.6
176
     1
 41
30.0
176
     1
 63
     7
421
 16777215
176
     1
 74
     1
176
     1
 91
        0
176
     1
 64
     7
176
     1
 65
   257
176
     1
 75
     1
176
     1
175
     1
176
     1
 42
1.0
176
     1
 92
        0
176
     1
 66
   257
176
     1
 43
1.0
176
     1
 76
     1
176
     1
 77
     6
176
     1
 78
     2
176
     1
 67
     7
176
     1
 79
     5
176
     1
170
     0
176
     1
171
     0
176
     1
290
     0
176
     1
 93
       13
176
     1
 44
0.0
176
     1
173
     0
176
     1
1001
ACAD
1000
AcDbSavedByObjectVersion
1070
     0
  0
VISUALSTYLE
  5
CB
102
{ACAD_XDICTIONARY
360
17D
102
}
102
{ACAD_REACTORS
330
C3
102
}
330
C3
100
AcDbVisualStyle
  2
Hidden
 70
     6
177
     2
291
     0
 71
     1
176
     1
 72
     2
176
     1
 73
     2
176
     1
 90
        0
176
     1
 40
0.6
176
     1
 41
30.0
176
     1
 63
     7
421
 16777215
176
     1
 74
     2
176
     1
 91
        2
176
     1
 64
     7
176
     1
 65
   257
176
     1
 75
     2
176
     1
175
     1
176
     1
 42
40.0
176
     1
 92
        0
176
     1
 66
   257
176
     1
 43
1.0
176
     1
 76
     1
176
     1
 77
     6
176
     1
 78
     2
176
     1
 67
     7
176
     1
 79
     3
176
     1
170
     0
176
     1
171
     0
176
     1
290
     0
176
     1
 93
        1
176
     1
 44
0.0
176
     1
173
     0
176
     1
1001
ACAD
1000
AcDbSavedByObjectVersion
1070
     0
  0
VISUALSTYLE
  5
D9
102
{ACAD_XDICTIONARY
360
199
102
}
102
{ACAD_REACTORS
330
C3
102
}
330
C3
100
AcDbVisualStyle
  2
JitterOff
 70
    20
177
     2
291
     1
 71
     2
176
     0
 72
     2
176
     0
 73
     0
176
     0
 90
        0
176
     0
 40
0.6
176
     0
 41
30.0
176
     0
 63
     7
421
 16777215
176
     0
 74
     1
176
     0
 91
        4
176
     0
 64
     7
176
     0
 65
   257
176
     0
 75
     1
176
     0
175
     1
176
     0
 42
1.0
176
     0
 92
       10
176
     2
 66
     7
176
     0
 43
1.0
176
     0
 76
     1
176
     0
 77
     6
176
     0
 78
     2
176
     0
 67
     7
176
     0
 79
     5
176
     0
170
     0
176
     0
171
     0
176
     0
290
     0
176
     0
 93
        1
176
     0
 44
0.0
176
     0
173
     0
176
     0
1001
ACAD
1000
AcDbSavedByObjectVersion
1070
     0
  0
VISUALSTYLE
  5
D1
102
{ACAD_XDICTIONARY
360
189
102
}
102
{ACAD_REACTORS
330
C3
102
}
330
C3
100
AcDbVisualStyle
  2
Linepattern
 70
    14
177
     2
291
     1
 71
     2
176
     1
 72
     2
176
     1
 73
     0
176
     1
 90
        0
176
     1
 40
0.6
176
     1
 41
30.0
176
     1
 63
     7
421
 16777215
176
     1
 74
     1
176
     1
 91
        4
176
     1
 64
     7
176
     1
 65
   257
176
     1
 75
     7
176
     1
175
     7
176
     1
 42
1.0
176
     1
 92
        8
176
     1
 66
     7
176
     1
 43
1.0
176
     1
 76
     1
176
     1
 77
     6
176
     1
 78
     2
176
     1
 67
     7
176
     1
 79
     5
176
     1
170
     0
176
     1
171
     0
176
     1
290
     0
176
     1
 93
        1
176
     1
 44
0.0
176
     1
173
     0
176
     1
1001
ACAD
1000
AcDbSavedByObjectVersion
1070
     0
  0
VISUALSTYLE
  5
DA
102
{ACAD_XDICTIONARY
360
19B
102
}
102
{ACAD_REACTORS
330
C3
102
}
330
C3
100
AcDbVisualStyle
  2
OverhangOff
 70
    21
177
     2
291
     1
 71
     2
176
     0
 72
     2
176
     0
 73
     0
176
     0
 90
        0
176
     0
 40
0.6
176
     0
 41
30.0
176
     0
 63
     7
421
 16777215
176
     0
 74
     1
176
     0
 91
        4
176
     0
 64
     7
176
     0
 65
   257
176
     0
 75
     1
176
     0
175
     1
176
     0
 42
1.0
176
     0
 92
        9
176
     2
 66
     7
176
     0
 43
1.0
176
     0
 76
     1
176
     0
 77
     6
176
     0
 78
     2
176
     0
 67
     7
176
     0
 79
     5
176
     0
170
     0
176
     0
171
     0
176
     0
290
     0
176
     0
 93
        1
176
     0
 44
0.0
176
     0
173
     0
176
     0
1001
ACAD
1000
AcDbSavedByObjectVersion
1070
     0
  0
VISUALSTYLE
  5
CD
102
{ACAD_XDICTIONARY
360
181
102
}
102
{ACAD_REACTORS
330
C3
102
}
330
C3
100
AcDbVisualStyle
  2
Realistic
 70
     8
177
     2
291
     0
 71
     2
176
     1
 72
     3
176
     1
 73
     0
176
     1
 90
        2
176
     1
 40
0.6
176
     1
 41
30.0
176
     1
 63
     7
421
 16777215
176
     1
 74
     0
176
     1
 91
        0
176
     1
 64
     7
176
     1
 65
   257
176
     1
 75
     1
176
     1
175
     1
176
     1
 42
1.0
176
     1
 92
        8
176
     1
 66
   257
176
     1
 43
1.0
176
     1
 76
     1
176
     1
 77
     6
176
     1
 78
     2
176
     1
 67
     7
176
     1
 79
     3
176
     1
170
     0
176
     1
171
     0
176
     1
290
     0
176
     1
 93
       13
176
     1
 44
0.0
176
     1
173
     0
176
     1
1001
ACAD
1000
AcDbSavedByObjectVersion
1070
     0
  0
VISUALSTYLE
  5
D8
102
{ACAD_XDICTIONARY
360
197
102
}
102
{ACAD_REACTORS
330
C3
102
}
330
C3
100
AcDbVisualStyle
  2
Shaded
 70
    27
177
     2
291
     0
 71
     2
176
     1
 72
     2
176
     1
 73
     1
176
     1
 90
        2
176
     1
 40
0.6
176
     1
 41
30.0
176
     1
 63
     7
421
 16777215
176
     1
 74
     0
176
     1
 91
        4
176
     1
 64
     7
176
     1
 65
   257
176
     1
 75
     1
176
     1
175
     1
176
     1
 42
1.0
176
     1
 92
        8
176
     1
 66
   257
176
     1
 43
1.0
176
     1
 76
     1
176
     1
 77
     6
176
     1
 78
     2
176
     1
 67
     8
425
  7895160
176
     1
 79
     3
176
     1
170
     0
176
     1
171
     0
176
     1
290
     0
176
     1
 93
        5
176
     1
 44
0.0
176
     1
173
     0
176
     1
1001
ACAD
1000
AcDbSavedByObjectVersion
1070
     0
  0
VISUALSTYLE
  5
D7
102
{ACAD_XDICTIONARY
360
195
102
}
102
{ACAD_REACTORS
330
C3
102
}
330
C3
100
AcDbVisualStyle
  2
Shaded with edges
 70
    26
177
     2
291
     0
 71
     2
176
     1
 72
     2
176
     1
 73
     1
176
     1
 90
        2
176
     1
 40
0.6
176
     1
 41
30.0
176
     1
 63
     7
421
 16777215
176
     1
 74
     1
176
     1
 91
       10
176
     1
 64
     7
176
     1
 65
   257
176
     1
 75
     2
176
     1
175
     1
176
     1
 42
1.0
176
     1
 92
        8
176
     1
 66
   257
176
     1
 43
1.0
176
     1
 76
     1
176
     1
 77
     6
176
     1
 78
     2
176
     1
 67
     7
176
     1
 79
     3
176
     1
170
     0
176
     1
171
     0
176
     1
290
     0
176
     1
 93
        5
176
     1
 44
0.0
176
     1
173
     0
176
     1
1001
ACAD
1000
AcDbSavedByObjectVersion
1070
     0
  0
VISUALSTYLE
  5
D4
102
{ACAD_XDICTIONARY
360
18F
102
}
102
{ACAD_REACTORS
330
C3
102
}
330
C3
100
AcDbVisualStyle
  2
Shades of Gray
 70
    23
177
     2
291
     0
 71
     2
176
     1
 72
     2
176
     1
 73
     3
176
     1
 90
        0
176
     1
 40
0.6
176
     1
 41
30.0
176
     1
 63
     7
421
 16777215
176
     1
 74
     2
176
     1
 91
        2
176
     1
 64
     7
176
     1
 65
     7
176
     1
 75
     1
176
     1
175
     1
176
     1
 42
40.0
176
     1
 92
        8
176
     1
 66
     7
176
     1
 43
1.0
176
     1
 76
     1
176
     1
 77
     6
176
     1
 78
     2
176
     1
 67
     7
176
     1
 79
     3
176
     1
170
     0
176
     1
171
     0
176
     1
290
     0
176
     1
 93
        1
176
     1
 44
0.0
176
     1
173
     0
176
     1
1001
ACAD
1000
AcDbSavedByObjectVersion
1070
     0
  0
VISUALSTYLE
  5
D5
102
{ACAD_XDICTIONARY
360
191
102
}
102
{ACAD_REACTORS
330
C3
102
}
330
C3
100
AcDbVisualStyle
  2
Sketchy
 70
    24
177
     2
291
     0
 71
     1
176
     1
 72
     2
176
     1
 73
     2
176
     1
 90
        0
176
     1
 40
0.6
176
     1
 41
30.0
176
     1
 63
     7
421
 16777215
176
     1
 74
     2
176
     1
 91
        2
176
     1
 64
     7
176
     1
 65
     7
176
     1
 75
     1
176
     1
175
     1
176
     1
 42
40.0
176
     1
 92
       11
176
     1
 66
     7
176
     1
 43
1.0
176
     1
 76
     1
176
     1
 77
     6
176
     1
 78
     2
176
     1
 67
     7
176
     1
 79
     6
176
     1
170
     0
176
     1
171
     0
176
     1
290
     0
176
     1
 93
        1
176
     1
 44
0.0
176
     1
173
     0
176
     1
1001
ACAD
1000
AcDbSavedByObjectVersion
1070
     0
  0
VISUALSTYLE
  5
D0
102
{ACAD_XDICTIONARY
360
187
102
}
102
{ACAD_REACTORS
330
C3
102
}
330
C3
100
AcDbVisualStyle
  2
Thicken
 70
    13
177
     2
291
     1
 71
     2
176
     1
 72
     2
176
     1
 73
     0
176
     1
 90
        0
176
     1
 40
0.6
176
     1
 41
30.0
176
     1
 63
     7
421
 16777215
176
     1
 74
     1
176
     1
 91
        4
176
     1
 64
     7
176
     1
 65
   257
176
     1
 75
     1
176
     1
175
     1
176
     1
 42
1.0
176
     1
 92
       12
176
     1
 66
     7
176
     1
 43
1.0
176
     1
 76
     1
176
     1
 77
     6
176
     1
 78
     2
176
     1
 67
     7
176
     1
 79
     5
176
     1
170
     0
176
     1
171
     0
176
     1
290
     0
176
     1
 93
        1
176
     1
 44
0.0
176
     1
173
     0
176
     1
1001
ACAD
1000
AcDbSavedByObjectVersion
1070
     0
  0
VISUALSTYLE
  5
CA
102
{ACAD_XDICTIONARY
360
17B
102
}
102
{ACAD_REACTORS
330
C3
102
}
330
C3
100
AcDbVisualStyle
  2
Wireframe
 70
     5
177
     2
291
     0
 71
     0
176
     1
 72
     2
176
     1
 73
     0
176
     1
 90
        0
176
     1
 40
0.6
176
     1
 41
30.0
176
     1
 63
     7
421
 16777215
176
     1
 74
     1
176
     1
 91
        4
176
     1
 64
     7
176
     1
 65
   257
176
     1
 75
     1
176
     1
175
     1
176
     1
 42
1.0
176
     1
 92
        0
176
     1
 66
   257
176
     1
 43
1.0
176
     1
 76
     1
176
     1
 77
     6
176
     1
 78
     2
176
     1
 67
     7
176
     1
 79
     3
176
     1
170
     0
176
     1
171
     0
176
     1
290
     0
176
     1
 93
        1
176
     1
 44
0.0
176
     1
173
     0
176
     1
1001
ACAD
1000
AcDbSavedByObjectVersion
1070
     0
  0
VISUALSTYLE
  5
D6
102
{ACAD_XDICTIONARY
360
193
102
}
102
{ACAD_REACTORS
330
C3
102
}
330
C3
100
AcDbVisualStyle
  2
X-Ray
 70
    25
177
     2
291
     0
 71
     2
176
     1
 72
     2
176
     1
 73
     1
176
     1
 90
        1
176
     1
 40
0.5
176
     1
 41
30.0
176
     1
 63
     7
421
 16777215
176
     1
 74
     1
176
     1
 91
        0
176
     1
 64
     7
176
     1
 65
   257
176
     1
 75
     1
176
     1
175
     1
176
     1
 42
1.0
176
     1
 92
        8
176
     1
 66
     7
176
     1
 43
1.0
176
     1
 76
     1
176
     1
 77
     6
176
     1
 78
     2
176
     1
 67
     7
176
     1
 79
     3
176
     1
170
     0
176
     1
171
     0
176
     1
290
     0
176
     1
 93
       13
176
     1
 44
0.0
176
     1
173
     0
176
     1
1001
ACAD
1000
AcDbSavedByObjectVersion
1070
     0
  0
DICTIONARYVAR
  5
168
102
{ACAD_REACTORS
330
162
102
}
330
162
100
DictionaryVariables
280
     0
  1
1:1
  0
DICTIONARYVAR
  5
164
102
{ACAD_REACTORS
330
162
102
}
330
162
100
DictionaryVariables
280
     0
  1
STANDARD
  0
DICTIONARYVAR
  5
163
102
{ACAD_REACTORS
330
162
102
}
330
162
100
DictionaryVariables
280
     0
  1
STANDARD
  0
DICTIONARYVAR
  5
165
102
{ACAD_REACTORS
330
162
102
}
330
162
100
DictionaryVariables
280
     0
  1
Imperial24
  0
DICTIONARYVAR
  5
166
102
{ACAD_REACTORS
330
162
102
}
330
162
100
DictionaryVariables
280
     0
  1
Imperial24
  0
DICTIONARYVAR
  5
16A
102
{ACAD_REACTORS
330
162
102
}
330
162
100
DictionaryVariables
280
     0
  1
1
  0
DICTIONARYVAR
  5
16B
102
{ACAD_REACTORS
330
162
102
}
330
162
100
DictionaryVariables
280
     0
  1
15
  0
DICTIONARYVAR
  5
169
102
{ACAD_REACTORS
330
162
102
}
330
162
100
DictionaryVariables
280
     0
  1
0
  0
DICTIONARYVAR
  5
167
102
{ACAD_REACTORS
330
162
102
}
330
162
100
DictionaryVariables
280
     0
  1
0
  0
DICTIONARY
  5
1A3
330
F6
100
AcDbDictionary
280
     1
281
     1
  3
ACAD_XREC_ROUNDTRIP
360
1A4
  0
DICTIONARY
  5
B4
330
B3
100
AcDbDictionary
280
     1
281
     1
  3
BUMPTILE
360
B6
  3
DIFFUSETILE
360
B5
  3
OPACITYTILE
360
B9
  3
REFLECTIONTILE
360
B8
  3
REFRACTIONTILE
360
BA
  3
SPECULARTILE
360
B7
  0
DICTIONARY
  5
AC
330
AB
100
AcDbDictionary
280
     1
281
     1
  3
BUMPTILE
360
AE
  3
DIFFUSETILE
360
AD
  3
OPACITYTILE
360
B1
  3
REFLECTIONTILE
360
B0
  3
REFRACTIONTILE
360
B2
  3
SPECULARTILE
360
AF
  0
DICTIONARY
  5
BC
330
BB
100
AcDbDictionary
280
     1
281
     1
  3
BUMPTILE
360
BE
  3
DIFFUSETILE
360
BD
  3
OPACITYTILE
360
C1
  3
REFLECTIONTILE
360
C0
  3
REFRACTIONTILE
360
C2
  3
SPECULARTILE
360
BF
  0
DICTIONARY
  5
19F
330
F2
100
AcDbDictionary
280
     1
281
     1
  3
ACAD_XREC_ROUNDTRIP
360
1A0
  0
DICTIONARY
  5
1A1
330
F4
100
AcDbDictionary
280
     1
281
     1
  3
ACAD_XREC_ROUNDTRIP
360
1A2
  0
DICTIONARY
  5
16C
330
DE
100
AcDbDictionary
280
     1
281
     1
  3
ACAD_ROUNDTRIP_2008_TABLESTYLE_CELLSTYLEMAP
360
16D
  0
DICTIONARY
  5
179
330
C9
100
AcDbDictionary
280
     1
281
     1
  3
ACAD_XREC_ROUNDTRIP
360
17A
  0
DICTIONARY
  5
177
330
C8
100
AcDbDictionary
280
     1
281
     1
  3
ACAD_XREC_ROUNDTRIP
360
178
  0
DICTIONARY
  5
185
330
CF
100
AcDbDictionary
280
     1
281
     1
  3
ACAD_XREC_ROUNDTRIP
360
186
  0
DICTIONARY
  5
18D
330
D3
100
AcDbDictionary
280
     1
281
     1
  3
ACAD_XREC_ROUNDTRIP
360
18E
  0
DICTIONARY
  5
17F
330
CC
100
AcDbDictionary
280
     1
281
     1
  3
ACAD_XREC_ROUNDTRIP
360
180
  0
DICTIONARY
  5
183
330
CE
100
AcDbDictionary
280
     1
281
     1
  3
ACAD_XREC_ROUNDTRIP
360
184
  0
DICTIONARY
  5
19D
330
DB
100
AcDbDictionary
280
     1
281
     1
  3
ACAD_XREC_ROUNDTRIP
360
19E
  0
DICTIONARY
  5
18B
330
D2
100
AcDbDictionary
280
     1
281
     1
  3
ACAD_XREC_ROUNDTRIP
360
18C
  0
DICTIONARY
  5
16F
330
C4
100
AcDbDictionary
280
     1
281
     1
  3
ACAD_XREC_ROUNDTRIP
360
170
  0
DICTIONARY
  5
171
330
C5
100
AcDbDictionary
280
     1
281
     1
  3
ACAD_XREC_ROUNDTRIP
360
172
  0
DICTIONARY
  5
173
330
C6
100
AcDbDictionary
280
     1
281
     1
  3
ACAD_XREC_ROUNDTRIP
360
174
  0
DICTIONARY
  5
175
330
C7
100
AcDbDictionary
280
     1
281
     1
  3
ACAD_XREC_ROUNDTRIP
360
176
  0
DICTIONARY
  5
17D
330
CB
100
AcDbDictionary
280
     1
281
     1
  3
ACAD_XREC_ROUNDTRIP
360
17E
  0
DICTIONARY
  5
199
330
D9
100
AcDbDictionary
280
     1
281
     1
  3
ACAD_XREC_ROUNDTRIP
360
19A
  0
DICTIONARY
  5
189
330
D1
100
AcDbDictionary
280
     1
281
     1
  3
ACAD_XREC_ROUNDTRIP
360
18A
  0
DICTIONARY
  5
19B
330
DA
100
AcDbDictionary
280
     1
281
     1
  3
ACAD_XREC_ROUNDTRIP
360
19C
  0
DICTIONARY
  5
181
330
CD
100
AcDbDictionary
280
     1
281
     1
  3
ACAD_XREC_ROUNDTRIP
360
182
  0
DICTIONARY
  5
197
330
D8
100
AcDbDictionary
280
     1
281
     1
  3
ACAD_XREC_ROUNDTRIP
360
198
  0
DICTIONARY
  5
195
330
D7
100
AcDbDictionary
280
     1
281
     1
  3
ACAD_XREC_ROUNDTRIP
360
196
  0
DICTIONARY
  5
18F
330
D4
100
AcDbDictionary
280
     1
281
     1
  3
ACAD_XREC_ROUNDTRIP
360
190
  0
DICTIONARY
  5
191
330
D5
100
AcDbDictionary
280
     1
281
     1
  3
ACAD_XREC_ROUNDTRIP
360
192
  0
DICTIONARY
  5
187
330
D0
100
AcDbDictionary
280
     1
281
     1
  3
ACAD_XREC_ROUNDTRIP
360
188
  0
DICTIONARY
  5
17B
330
CA
100
AcDbDictionary
280
     1
281
     1
  3
ACAD_XREC_ROUNDTRIP
360
17C
  0
DICTIONARY
  5
193
330
D6
100
AcDbDictionary
280
     1
281
     1
  3
ACAD_XREC_ROUNDTRIP
360
194
  0
XRECORD
  5
1A4
102
{ACAD_REACTORS
330
1A3
102
}
330
1A3
100
AcDbXrecord
280
     1
102
DISPLAYNAME
  1
Imperial24
102
FLAGS
 90
        0
  0
XRECORD
  5
B6
102
{ACAD_REACTORS
330
B4
102
}
330
B4
100
AcDbXrecord
280
     1
270
     1
271
     1
  0
XRECORD
  5
B5
102
{ACAD_REACTORS
330
B4
102
}
330
B4
100
AcDbXrecord
280
     1
270
     1
271
     1
  0
XRECORD
  5
B9
102
{ACAD_REACTORS
330
B4
102
}
330
B4
100
AcDbXrecord
280
     1
270
     1
271
     1
  0
XRECORD
  5
B8
102
{ACAD_REACTORS
330
B4
102
}
330
B4
100
AcDbXrecord
280
     1
270
     1
271
     1
  0
XRECORD
  5
BA
102
{ACAD_REACTORS
330
B4
102
}
330
B4
100
AcDbXrecord
280
     1
270
     1
271
     1
  0
XRECORD
  5
B7
102
{ACAD_REACTORS
330
B4
102
}
330
B4
100
AcDbXrecord
280
     1
270
     1
271
     1
  0
XRECORD
  5
AE
102
{ACAD_REACTORS
330
AC
102
}
330
AC
100
AcDbXrecord
280
     1
270
     1
271
     1
  0
XRECORD
  5
AD
102
{ACAD_REACTORS
330
AC
102
}
330
AC
100
AcDbXrecord
280
     1
270
     1
271
     1
  0
XRECORD
  5
B1
102
{ACAD_REACTORS
330
AC
102
}
330
AC
100
AcDbXrecord
280
     1
270
     1
271
     1
  0
XRECORD
  5
B0
102
{ACAD_REACTORS
330
AC
102
}
330
AC
100
AcDbXrecord
280
     1
270
     1
271
     1
  0
XRECORD
  5
B2
102
{ACAD_REACTORS
330
AC
102
}
330
AC
100
AcDbXrecord
280
     1
270
     1
271
     1
  0
XRECORD
  5
AF
102
{ACAD_REACTORS
330
AC
102
}
330
AC
100
AcDbXrecord
280
     1
270
     1
271
     1
  0
XRECORD
  5
BE
102
{ACAD_REACTORS
330
BC
102
}
330
BC
100
AcDbXrecord
280
     1
270
     1
271
     1
  0
XRECORD
  5
BD
102
{ACAD_REACTORS
330
BC
102
}
330
BC
100
AcDbXrecord
280
     1
270
     1
271
     1
  0
XRECORD
  5
C1
102
{ACAD_REACTORS
330
BC
102
}
330
BC
100
AcDbXrecord
280
     1
270
     1
271
     1
  0
XRECORD
  5
C0
102
{ACAD_REACTORS
330
BC
102
}
330
BC
100
AcDbXrecord
280
     1
270
     1
271
     1
  0
XRECORD
  5
C2
102
{ACAD_REACTORS
330
BC
102
}
330
BC
100
AcDbXrecord
280
     1
270
     1
271
     1
  0
XRECORD
  5
BF
102
{ACAD_REACTORS
330
BC
102
}
330
BC
100
AcDbXrecord
280
     1
270
     1
271
     1
  0
XRECORD
  5
1A0
102
{ACAD_REACTORS
330
19F
102
}
330
19F
100
AcDbXrecord
280
     1
102
ACAD_ROUNDTRIP_2012_MLEADER_STYLE
298
     1
  0
XRECORD
  5
1A2
102
{ACAD_REACTORS
330
1A1
102
}
330
1A1
100
AcDbXrecord
280
     1
102
DISPLAYNAME
  1
Imperial24
102
FLAGS
 90
        0
  0
CELLSTYLEMAP
  5
16D
102
{ACAD_REACTORS
330
16C
102
}
330
16C
100
AcDbCellStyleMap
 90
        3
300
CELLSTYLE
  1
TABLEFORMAT_BEGIN
 90
        5
170
     1
 91
        0
 92
    32768
 62
   257
 93
        1
300
CONTENTFORMAT
  1
CONTENTFORMAT_BEGIN
 90
        0
 91
        0
 92
      512
 93
        0
300

 40
0.0
140
1.0
 94
        5
 62
     0
340
11
144
0.25
309
CONTENTFORMAT_END
171
     0
 94
        0
309
TABLEFORMAT_END
  1
CELLSTYLE_BEGIN
 90
        1
 91
        1
300
_TITLE
309
CELLSTYLE_END
300
CELLSTYLE
  1
TABLEFORMAT_BEGIN
 90
        5
170
     1
 91
        0
 92
        0
 62
   257
 93
        1
300
CONTENTFORMAT
  1
CONTENTFORMAT_BEGIN
 90
        0
 91
        0
 92
      512
 93
        0
300

 40
0.0
140
1.0
 94
        5
 62
     0
340
11
144
0.18
309
CONTENTFORMAT_END
171
     0
 94
        0
309
TABLEFORMAT_END
  1
CELLSTYLE_BEGIN
 90
        2
 91
        1
300
_HEADER
309
CELLSTYLE_END
300
CELLSTYLE
  1
TABLEFORMAT_BEGIN
 90
        5
170
     1
 91
        0
 92
        0
 62
   257
 93
        1
300
CONTENTFORMAT
  1
CONTENTFORMAT_BEGIN
 90
        0
 91
        0
 92
      512
 93
        0
300

 40
0.0
140
1.0
 94
        2
 62
     0
340
11
144
0.18
309
CONTENTFORMAT_END
171
     0
 94
        0
309
TABLEFORMAT_END
  1
CELLSTYLE_BEGIN
 90
        3
 91
        2
300
_DATA
309
CELLSTYLE_END
  0
XRECORD
  5
17A
102
{ACAD_REACTORS
330
179
102
}
330
179
100
AcDbXrecord
280
     1
102
RTVSPost2010Prop28
280
     1
102
RTVSPost2010PropOp28
 70
     1
102
RTVSPost2010Prop29
280
     1
102
RTVSPost2010PropOp29
 70
     1
102
RTVSPost2010Prop30
280
     0
102
RTVSPost2010PropOp30
 70
     1
102
RTVSPost2010Prop31
280
     0
102
RTVSPost2010PropOp31
 70
     1
102
RTVSPost2010Prop32
280
     0
102
RTVSPost2010PropOp32
 70
     1
102
RTVSPost2010Prop33
280
     0
102
RTVSPost2010PropOp33
 70
     1
102
RTVSPost2010Prop34
280
     0
102
RTVSPost2010PropOp34
 70
     1
102
RTVSPost2010Prop35
280
     0
102
RTVSPost2010PropOp35
 70
     1
102
RTVSPost2010Prop36
280
     0
102
RTVSPost2010PropOp36
 70
     1
102
RTVSPost2010Prop37
 90
       50
102
RTVSPost2010PropOp37
 70
     1
102
RTVSPost2010Prop38
140
0.0
102
RTVSPost2010PropOp38
 70
     1
102
RTVSPost2010Prop39
140
1.0
102
RTVSPost2010PropOp39
 70
     1
102
RTVSPost2010Prop40
 90
        0
102
RTVSPost2010PropOp40
 70
     1
102
RTVSPost2010Prop41ColorIndex
 90
       18
102
RTVSPost2010Prop41ColorRGB
 90
        0
102
RTVSPost2010PropOp41
 70
     1
102
RTVSPost2010Prop42
 90
       50
102
RTVSPost2010PropOp42
 70
     1
102
RTVSPost2010Prop43
 90
        3
102
RTVSPost2010PropOp43
 70
     1
102
RTVSPost2010Prop44ColorIndex
 90
        5
102
RTVSPost2010Prop44ColorRGB
 90
      255
102
RTVSPost2010PropOp44
 70
     1
102
RTVSPost2010Prop45
280
     0
102
RTVSPost2010PropOp45
 70
     1
102
RTVSPost2010Prop46
 90
       50
102
RTVSPost2010PropOp46
 70
     1
102
RTVSPost2010Prop47
 90
       50
102
RTVSPost2010PropOp47
 70
     1
102
RTVSPost2010Prop48
 90
       50
102
RTVSPost2010PropOp48
 70
     1
102
RTVSPost2010Prop49
280
     0
102
RTVSPost2010PropOp49
 70
     1
102
RTVSPost2010Prop50
 90
       50
102
RTVSPost2010PropOp50
 70
     1
102
RTVSPost2010Prop51ColorIndex
 90
      256
102
RTVSPost2010Prop51ColorRGB
 90
-16777216
102
RTVSPost2010PropOp51
 70
     0
102
RTVSPost2010Prop52
140
1.0
102
RTVSPost2010PropOp52
 70
     0
102
RTVSPost2010Prop53
 90
        2
102
RTVSPost2010PropOp53
 70
     1
102
RTVSPost2010Prop54
  1
strokes_ogs.tif
102
RTVSPost2010PropOp54
 70
     1
102
RTVSPost2010Prop55
280
     0
102
RTVSPost2010PropOp55
 70
     1
102
RTVSPost2010Prop56
140
1.0
102
RTVSPost2010PropOp56
 70
     1
102
RTVSPost2010Prop57
140
1.0
102
RTVSPost2010PropOp57
 70
     1
  0
XRECORD
  5
178
102
{ACAD_REACTORS
330
177
102
}
330
177
100
AcDbXrecord
280
     1
102
RTVSPost2010Prop28
280
     0
102
RTVSPost2010PropOp28
 70
     1
102
RTVSPost2010Prop29
280
     1
102
RTVSPost2010PropOp29
 70
     1
102
RTVSPost2010Prop30
280
     1
102
RTVSPost2010PropOp30
 70
     1
102
RTVSPost2010Prop31
280
     0
102
RTVSPost2010PropOp31
 70
     1
102
RTVSPost2010Prop32
280
     0
102
RTVSPost2010PropOp32
 70
     1
102
RTVSPost2010Prop33
280
     0
102
RTVSPost2010PropOp33
 70
     1
102
RTVSPost2010Prop34
280
     0
102
RTVSPost2010PropOp34
 70
     1
102
RTVSPost2010Prop35
280
     0
102
RTVSPost2010PropOp35
 70
     1
102
RTVSPost2010Prop36
280
     0
102
RTVSPost2010PropOp36
 70
     1
102
RTVSPost2010Prop37
 90
       50
102
RTVSPost2010PropOp37
 70
     1
102
RTVSPost2010Prop38
140
0.0
102
RTVSPost2010PropOp38
 70
     1
102
RTVSPost2010Prop39
140
1.0
102
RTVSPost2010PropOp39
 70
     1
102
RTVSPost2010Prop40
 90
        0
102
RTVSPost2010PropOp40
 70
     1
102
RTVSPost2010Prop41ColorIndex
 90
       18
102
RTVSPost2010Prop41ColorRGB
 90
        0
102
RTVSPost2010PropOp41
 70
     1
102
RTVSPost2010Prop42
 90
       50
102
RTVSPost2010PropOp42
 70
     1
102
RTVSPost2010Prop43
 90
        3
102
RTVSPost2010PropOp43
 70
     1
102
RTVSPost2010Prop44ColorIndex
 90
        5
102
RTVSPost2010Prop44ColorRGB
 90
      255
102
RTVSPost2010PropOp44
 70
     1
102
RTVSPost2010Prop45
280
     0
102
RTVSPost2010PropOp45
 70
     1
102
RTVSPost2010Prop46
 90
       50
102
RTVSPost2010PropOp46
 70
     1
102
RTVSPost2010Prop47
 90
       50
102
RTVSPost2010PropOp47
 70
     1
102
RTVSPost2010Prop48
 90
       50
102
RTVSPost2010PropOp48
 70
     1
102
RTVSPost2010Prop49
280
     0
102
RTVSPost2010PropOp49
 70
     1
102
RTVSPost2010Prop50
 90
       50
102
RTVSPost2010PropOp50
 70
     1
102
RTVSPost2010Prop51ColorIndex
 90
      256
102
RTVSPost2010Prop51ColorRGB
 90
-16777216
102
RTVSPost2010PropOp51
 70
     0
102
RTVSPost2010Prop52
140
1.0
102
RTVSPost2010PropOp52
 70
     0
102
RTVSPost2010Prop53
 90
        2
102
RTVSPost2010PropOp53
 70
     1
102
RTVSPost2010Prop54
  1
strokes_ogs.tif
102
RTVSPost2010PropOp54
 70
     1
102
RTVSPost2010Prop55
280
     0
102
RTVSPost2010PropOp55
 70
     1
102
RTVSPost2010Prop56
140
1.0
102
RTVSPost2010PropOp56
 70
     1
102
RTVSPost2010Prop57
140
1.0
102
RTVSPost2010PropOp57
 70
     1
  0
XRECORD
  5
186
102
{ACAD_REACTORS
330
185
102
}
330
185
100
AcDbXrecord
280
     1
102
RTVSPost2010Prop28
280
     0
102
RTVSPost2010PropOp28
 70
     1
102
RTVSPost2010Prop29
280
     1
102
RTVSPost2010PropOp29
 70
     1
102
RTVSPost2010Prop30
280
     1
102
RTVSPost2010PropOp30
 70
     1
102
RTVSPost2010Prop31
280
     0
102
RTVSPost2010PropOp31
 70
     1
102
RTVSPost2010Prop32
280
     0
102
RTVSPost2010PropOp32
 70
     1
102
RTVSPost2010Prop33
280
     0
102
RTVSPost2010PropOp33
 70
     1
102
RTVSPost2010Prop34
280
     0
102
RTVSPost2010PropOp34
 70
     1
102
RTVSPost2010Prop35
280
     0
102
RTVSPost2010PropOp35
 70
     1
102
RTVSPost2010Prop36
280
     0
102
RTVSPost2010PropOp36
 70
     1
102
RTVSPost2010Prop37
 90
       50
102
RTVSPost2010PropOp37
 70
     1
102
RTVSPost2010Prop38
140
0.0
102
RTVSPost2010PropOp38
 70
     1
102
RTVSPost2010Prop39
140
1.0
102
RTVSPost2010PropOp39
 70
     1
102
RTVSPost2010Prop40
 90
        0
102
RTVSPost2010PropOp40
 70
     1
102
RTVSPost2010Prop41ColorIndex
 90
       18
102
RTVSPost2010Prop41ColorRGB
 90
        0
102
RTVSPost2010PropOp41
 70
     1
102
RTVSPost2010Prop42
 90
       50
102
RTVSPost2010PropOp42
 70
     1
102
RTVSPost2010Prop43
 90
        3
102
RTVSPost2010PropOp43
 70
     1
102
RTVSPost2010Prop44ColorIndex
 90
        5
102
RTVSPost2010Prop44ColorRGB
 90
      255
102
RTVSPost2010PropOp44
 70
     1
102
RTVSPost2010Prop45
280
     0
102
RTVSPost2010PropOp45
 70
     1
102
RTVSPost2010Prop46
 90
       50
102
RTVSPost2010PropOp46
 70
     1
102
RTVSPost2010Prop47
 90
       50
102
RTVSPost2010PropOp47
 70
     1
102
RTVSPost2010Prop48
 90
       50
102
RTVSPost2010PropOp48
 70
     1
102
RTVSPost2010Prop49
280
     0
102
RTVSPost2010PropOp49
 70
     1
102
RTVSPost2010Prop50
 90
       50
102
RTVSPost2010PropOp50
 70
     1
102
RTVSPost2010Prop51ColorIndex
 90
      256
102
RTVSPost2010Prop51ColorRGB
 90
-16777216
102
RTVSPost2010PropOp51
 70
     0
102
RTVSPost2010Prop52
140
1.0
102
RTVSPost2010PropOp52
 70
     0
102
RTVSPost2010Prop53
 90
        2
102
RTVSPost2010PropOp53
 70
     1
102
RTVSPost2010Prop54
  1
strokes_ogs.tif
102
RTVSPost2010PropOp54
 70
     1
102
RTVSPost2010Prop55
280
     0
102
RTVSPost2010PropOp55
 70
     1
102
RTVSPost2010Prop56
140
1.0
102
RTVSPost2010PropOp56
 70
     1
102
RTVSPost2010Prop57
140
1.0
102
RTVSPost2010PropOp57
 70
     1
  0
XRECORD
  5
18E
102
{ACAD_REACTORS
330
18D
102
}
330
18D
100
AcDbXrecord
280
     1
102
RTVSPost2010Prop28
280
     0
102
RTVSPost2010PropOp28
 70
     1
102
RTVSPost2010Prop29
280
     1
102
RTVSPost2010PropOp29
 70
     1
102
RTVSPost2010Prop30
280
     1
102
RTVSPost2010PropOp30
 70
     1
102
RTVSPost2010Prop31
280
     0
102
RTVSPost2010PropOp31
 70
     1
102
RTVSPost2010Prop32
280
     0
102
RTVSPost2010PropOp32
 70
     1
102
RTVSPost2010Prop33
280
     0
102
RTVSPost2010PropOp33
 70
     1
102
RTVSPost2010Prop34
280
     0
102
RTVSPost2010PropOp34
 70
     1
102
RTVSPost2010Prop35
280
     0
102
RTVSPost2010PropOp35
 70
     1
102
RTVSPost2010Prop36
280
     0
102
RTVSPost2010PropOp36
 70
     1
102
RTVSPost2010Prop37
 90
       50
102
RTVSPost2010PropOp37
 70
     1
102
RTVSPost2010Prop38
140
0.0
102
RTVSPost2010PropOp38
 70
     1
102
RTVSPost2010Prop39
140
1.0
102
RTVSPost2010PropOp39
 70
     1
102
RTVSPost2010Prop40
 90
        0
102
RTVSPost2010PropOp40
 70
     1
102
RTVSPost2010Prop41ColorIndex
 90
       18
102
RTVSPost2010Prop41ColorRGB
 90
        0
102
RTVSPost2010PropOp41
 70
     1
102
RTVSPost2010Prop42
 90
       50
102
RTVSPost2010PropOp42
 70
     1
102
RTVSPost2010Prop43
 90
        3
102
RTVSPost2010PropOp43
 70
     1
102
RTVSPost2010Prop44ColorIndex
 90
        5
102
RTVSPost2010Prop44ColorRGB
 90
      255
102
RTVSPost2010PropOp44
 70
     1
102
RTVSPost2010Prop45
280
     0
102
RTVSPost2010PropOp45
 70
     1
102
RTVSPost2010Prop46
 90
       50
102
RTVSPost2010PropOp46
 70
     1
102
RTVSPost2010Prop47
 90
       50
102
RTVSPost2010PropOp47
 70
     1
102
RTVSPost2010Prop48
 90
       50
102
RTVSPost2010PropOp48
 70
     1
102
RTVSPost2010Prop49
280
     0
102
RTVSPost2010PropOp49
 70
     1
102
RTVSPost2010Prop50
 90
       50
102
RTVSPost2010PropOp50
 70
     1
102
RTVSPost2010Prop51ColorIndex
 90
      256
102
RTVSPost2010Prop51ColorRGB
 90
-16777216
102
RTVSPost2010PropOp51
 70
     0
102
RTVSPost2010Prop52
140
1.0
102
RTVSPost2010PropOp52
 70
     0
102
RTVSPost2010Prop53
 90
        2
102
RTVSPost2010PropOp53
 70
     1
102
RTVSPost2010Prop54
  1
strokes_ogs.tif
102
RTVSPost2010PropOp54
 70
     1
102
RTVSPost2010Prop55
280
     0
102
RTVSPost2010PropOp55
 70
     1
102
RTVSPost2010Prop56
140
1.0
102
RTVSPost2010PropOp56
 70
     1
102
RTVSPost2010Prop57
140
1.0
102
RTVSPost2010PropOp57
 70
     1
  0
XRECORD
  5
180
102
{ACAD_REACTORS
330
17F
102
}
330
17F
100
AcDbXrecord
280
     1
102
RTVSPost2010Prop28
280
     0
102
RTVSPost2010PropOp28
 70
     1
102
RTVSPost2010Prop29
280
     1
102
RTVSPost2010PropOp29
 70
     1
102
RTVSPost2010Prop30
280
     1
102
RTVSPost2010PropOp30
 70
     1
102
RTVSPost2010Prop31
280
     0
102
RTVSPost2010PropOp31
 70
     1
102
RTVSPost2010Prop32
280
     0
102
RTVSPost2010PropOp32
 70
     1
102
RTVSPost2010Prop33
280
     0
102
RTVSPost2010PropOp33
 70
     1
102
RTVSPost2010Prop34
280
     0
102
RTVSPost2010PropOp34
 70
     1
102
RTVSPost2010Prop35
280
     0
102
RTVSPost2010PropOp35
 70
     1
102
RTVSPost2010Prop36
280
     0
102
RTVSPost2010PropOp36
 70
     1
102
RTVSPost2010Prop37
 90
       50
102
RTVSPost2010PropOp37
 70
     1
102
RTVSPost2010Prop38
140
0.0
102
RTVSPost2010PropOp38
 70
     1
102
RTVSPost2010Prop39
140
1.0
102
RTVSPost2010PropOp39
 70
     1
102
RTVSPost2010Prop40
 90
        0
102
RTVSPost2010PropOp40
 70
     1
102
RTVSPost2010Prop41ColorIndex
 90
       18
102
RTVSPost2010Prop41ColorRGB
 90
        0
102
RTVSPost2010PropOp41
 70
     1
102
RTVSPost2010Prop42
 90
       50
102
RTVSPost2010PropOp42
 70
     1
102
RTVSPost2010Prop43
 90
        3
102
RTVSPost2010PropOp43
 70
     1
102
RTVSPost2010Prop44ColorIndex
 90
        5
102
RTVSPost2010Prop44ColorRGB
 90
      255
102
RTVSPost2010PropOp44
 70
     1
102
RTVSPost2010Prop45
280
     0
102
RTVSPost2010PropOp45
 70
     1
102
RTVSPost2010Prop46
 90
       50
102
RTVSPost2010PropOp46
 70
     1
102
RTVSPost2010Prop47
 90
       50
102
RTVSPost2010PropOp47
 70
     1
102
RTVSPost2010Prop48
 90
       50
102
RTVSPost2010PropOp48
 70
     1
102
RTVSPost2010Prop49
280
     0
102
RTVSPost2010PropOp49
 70
     1
102
RTVSPost2010Prop50
 90
       50
102
RTVSPost2010PropOp50
 70
     1
102
RTVSPost2010Prop51ColorIndex
 90
      256
102
RTVSPost2010Prop51ColorRGB
 90
-16777216
102
RTVSPost2010PropOp51
 70
     0
102
RTVSPost2010Prop52
140
1.0
102
RTVSPost2010PropOp52
 70
     0
102
RTVSPost2010Prop53
 90
        2
102
RTVSPost2010PropOp53
 70
     1
102
RTVSPost2010Prop54
  1
strokes_ogs.tif
102
RTVSPost2010PropOp54
 70
     1
102
RTVSPost2010Prop55
280
     0
102
RTVSPost2010PropOp55
 70
     1
102
RTVSPost2010Prop56
140
1.0
102
RTVSPost2010PropOp56
 70
     1
102
RTVSPost2010Prop57
140
1.0
102
RTVSPost2010PropOp57
 70
     1
  0
XRECORD
  5
184
102
{ACAD_REACTORS
330
183
102
}
330
183
100
AcDbXrecord
280
     1
102
RTVSPost2010Prop28
280
     0
102
RTVSPost2010PropOp28
 70
     1
102
RTVSPost2010Prop29
280
     1
102
RTVSPost2010PropOp29
 70
     1
102
RTVSPost2010Prop30
280
     1
102
RTVSPost2010PropOp30
 70
     1
102
RTVSPost2010Prop31
280
     0
102
RTVSPost2010PropOp31
 70
     1
102
RTVSPost2010Prop32
280
     0
102
RTVSPost2010PropOp32
 70
     1
102
RTVSPost2010Prop33
280
     0
102
RTVSPost2010PropOp33
 70
     1
102
RTVSPost2010Prop34
280
     0
102
RTVSPost2010PropOp34
 70
     1
102
RTVSPost2010Prop35
280
     0
102
RTVSPost2010PropOp35
 70
     1
102
RTVSPost2010Prop36
280
     0
102
RTVSPost2010PropOp36
 70
     1
102
RTVSPost2010Prop37
 90
       50
102
RTVSPost2010PropOp37
 70
     1
102
RTVSPost2010Prop38
140
0.0
102
RTVSPost2010PropOp38
 70
     1
102
RTVSPost2010Prop39
140
1.0
102
RTVSPost2010PropOp39
 70
     1
102
RTVSPost2010Prop40
 90
        0
102
RTVSPost2010PropOp40
 70
     1
102
RTVSPost2010Prop41ColorIndex
 90
       18
102
RTVSPost2010Prop41ColorRGB
 90
        0
102
RTVSPost2010PropOp41
 70
     1
102
RTVSPost2010Prop42
 90
       50
102
RTVSPost2010PropOp42
 70
     1
102
RTVSPost2010Prop43
 90
        3
102
RTVSPost2010PropOp43
 70
     1
102
RTVSPost2010Prop44ColorIndex
 90
        5
102
RTVSPost2010Prop44ColorRGB
 90
      255
102
RTVSPost2010PropOp44
 70
     1
102
RTVSPost2010Prop45
280
     0
102
RTVSPost2010PropOp45
 70
     1
102
RTVSPost2010Prop46
 90
       50
102
RTVSPost2010PropOp46
 70
     1
102
RTVSPost2010Prop47
 90
       50
102
RTVSPost2010PropOp47
 70
     1
102
RTVSPost2010Prop48
 90
       50
102
RTVSPost2010PropOp48
 70
     1
102
RTVSPost2010Prop49
280
     0
102
RTVSPost2010PropOp49
 70
     1
102
RTVSPost2010Prop50
 90
       50
102
RTVSPost2010PropOp50
 70
     1
102
RTVSPost2010Prop51ColorIndex
 90
      256
102
RTVSPost2010Prop51ColorRGB
 90
-16777216
102
RTVSPost2010PropOp51
 70
     0
102
RTVSPost2010Prop52
140
1.0
102
RTVSPost2010PropOp52
 70
     0
102
RTVSPost2010Prop53
 90
        2
102
RTVSPost2010PropOp53
 70
     1
102
RTVSPost2010Prop54
  1
strokes_ogs.tif
102
RTVSPost2010PropOp54
 70
     1
102
RTVSPost2010Prop55
280
     0
102
RTVSPost2010PropOp55
 70
     1
102
RTVSPost2010Prop56
140
1.0
102
RTVSPost2010PropOp56
 70
     1
102
RTVSPost2010Prop57
140
1.0
102
RTVSPost2010PropOp57
 70
     1
  0
XRECORD
  5
19E
102
{ACAD_REACTORS
330
19D
102
}
330
19D
100
AcDbXrecord
280
     1
102
RTVSPost2010Prop28
280
     0
102
RTVSPost2010PropOp28
 70
     0
102
RTVSPost2010Prop29
280
     1
102
RTVSPost2010PropOp29
 70
     0
102
RTVSPost2010Prop30
280
     1
102
RTVSPost2010PropOp30
 70
     0
102
RTVSPost2010Prop31
280
     0
102
RTVSPost2010PropOp31
 70
     0
102
RTVSPost2010Prop32
280
     0
102
RTVSPost2010PropOp32
 70
     0
102
RTVSPost2010Prop33
280
     0
102
RTVSPost2010PropOp33
 70
     0
102
RTVSPost2010Prop34
280
     0
102
RTVSPost2010PropOp34
 70
     0
102
RTVSPost2010Prop35
280
     0
102
RTVSPost2010PropOp35
 70
     0
102
RTVSPost2010Prop36
280
     0
102
RTVSPost2010PropOp36
 70
     0
102
RTVSPost2010Prop37
 90
       50
102
RTVSPost2010PropOp37
 70
     0
102
RTVSPost2010Prop38
140
0.0
102
RTVSPost2010PropOp38
 70
     0
102
RTVSPost2010Prop39
140
1.0
102
RTVSPost2010PropOp39
 70
     0
102
RTVSPost2010Prop40
 90
        0
102
RTVSPost2010PropOp40
 70
     0
102
RTVSPost2010Prop41ColorIndex
 90
       18
102
RTVSPost2010Prop41ColorRGB
 90
        0
102
RTVSPost2010PropOp41
 70
     0
102
RTVSPost2010Prop42
 90
       50
102
RTVSPost2010PropOp42
 70
     0
102
RTVSPost2010Prop43
 90
        3
102
RTVSPost2010PropOp43
 70
     0
102
RTVSPost2010Prop44ColorIndex
 90
        5
102
RTVSPost2010Prop44ColorRGB
 90
      255
102
RTVSPost2010PropOp44
 70
     0
102
RTVSPost2010Prop45
280
     0
102
RTVSPost2010PropOp45
 70
     0
102
RTVSPost2010Prop46
 90
       50
102
RTVSPost2010PropOp46
 70
     0
102
RTVSPost2010Prop47
 90
       50
102
RTVSPost2010PropOp47
 70
     0
102
RTVSPost2010Prop48
 90
       50
102
RTVSPost2010PropOp48
 70
     0
102
RTVSPost2010Prop49
280
     0
102
RTVSPost2010PropOp49
 70
     0
102
RTVSPost2010Prop50
 90
       50
102
RTVSPost2010PropOp50
 70
     0
102
RTVSPost2010Prop51ColorIndex
 90
      256
102
RTVSPost2010Prop51ColorRGB
 90
-16777216
102
RTVSPost2010PropOp51
 70
     0
102
RTVSPost2010Prop52
140
1.0
102
RTVSPost2010PropOp52
 70
     0
102
RTVSPost2010Prop53
 90
        2
102
RTVSPost2010PropOp53
 70
     0
102
RTVSPost2010Prop54
  1
strokes_ogs.tif
102
RTVSPost2010PropOp54
 70
     0
102
RTVSPost2010Prop55
280
     0
102
RTVSPost2010PropOp55
 70
     0
102
RTVSPost2010Prop56
140
1.0
102
RTVSPost2010PropOp56
 70
     0
102
RTVSPost2010Prop57
140
1.0
102
RTVSPost2010PropOp57
 70
     0
  0
XRECORD
  5
18C
102
{ACAD_REACTORS
330
18B
102
}
330
18B
100
AcDbXrecord
280
     1
102
RTVSPost2010Prop28
280
     0
102
RTVSPost2010PropOp28
 70
     1
102
RTVSPost2010Prop29
280
     1
102
RTVSPost2010PropOp29
 70
     1
102
RTVSPost2010Prop30
280
     1
102
RTVSPost2010PropOp30
 70
     1
102
RTVSPost2010Prop31
280
     0
102
RTVSPost2010PropOp31
 70
     1
102
RTVSPost2010Prop32
280
     0
102
RTVSPost2010PropOp32
 70
     1
102
RTVSPost2010Prop33
280
     0
102
RTVSPost2010PropOp33
 70
     1
102
RTVSPost2010Prop34
280
     0
102
RTVSPost2010PropOp34
 70
     1
102
RTVSPost2010Prop35
280
     0
102
RTVSPost2010PropOp35
 70
     1
102
RTVSPost2010Prop36
280
     0
102
RTVSPost2010PropOp36
 70
     1
102
RTVSPost2010Prop37
 90
       50
102
RTVSPost2010PropOp37
 70
     1
102
RTVSPost2010Prop38
140
0.0
102
RTVSPost2010PropOp38
 70
     1
102
RTVSPost2010Prop39
140
1.0
102
RTVSPost2010PropOp39
 70
     1
102
RTVSPost2010Prop40
 90
        0
102
RTVSPost2010PropOp40
 70
     1
102
RTVSPost2010Prop41ColorIndex
 90
       18
102
RTVSPost2010Prop41ColorRGB
 90
        0
102
RTVSPost2010PropOp41
 70
     1
102
RTVSPost2010Prop42
 90
       50
102
RTVSPost2010PropOp42
 70
     1
102
RTVSPost2010Prop43
 90
        3
102
RTVSPost2010PropOp43
 70
     1
102
RTVSPost2010Prop44ColorIndex
 90
        5
102
RTVSPost2010Prop44ColorRGB
 90
      255
102
RTVSPost2010PropOp44
 70
     1
102
RTVSPost2010Prop45
280
     0
102
RTVSPost2010PropOp45
 70
     1
102
RTVSPost2010Prop46
 90
       50
102
RTVSPost2010PropOp46
 70
     1
102
RTVSPost2010Prop47
 90
       50
102
RTVSPost2010PropOp47
 70
     1
102
RTVSPost2010Prop48
 90
       50
102
RTVSPost2010PropOp48
 70
     1
102
RTVSPost2010Prop49
280
     0
102
RTVSPost2010PropOp49
 70
     1
102
RTVSPost2010Prop50
 90
       50
102
RTVSPost2010PropOp50
 70
     1
102
RTVSPost2010Prop51ColorIndex
 90
      256
102
RTVSPost2010Prop51ColorRGB
 90
-16777216
102
RTVSPost2010PropOp51
 70
     0
102
RTVSPost2010Prop52
140
1.0
102
RTVSPost2010PropOp52
 70
     0
102
RTVSPost2010Prop53
 90
        2
102
RTVSPost2010PropOp53
 70
     1
102
RTVSPost2010Prop54
  1
strokes_ogs.tif
102
RTVSPost2010PropOp54
 70
     1
102
RTVSPost2010Prop55
280
     0
102
RTVSPost2010PropOp55
 70
     1
102
RTVSPost2010Prop56
140
1.0
102
RTVSPost2010PropOp56
 70
     1
102
RTVSPost2010Prop57
140
1.0
102
RTVSPost2010PropOp57
 70
     1
  0
XRECORD
  5
170
102
{ACAD_REACTORS
330
16F
102
}
330
16F
100
AcDbXrecord
280
     1
102
RTVSPost2010Prop28
280
     0
102
RTVSPost2010PropOp28
 70
     1
102
RTVSPost2010Prop29
280
     1
102
RTVSPost2010PropOp29
 70
     1
102
RTVSPost2010Prop30
280
     1
102
RTVSPost2010PropOp30
 70
     1
102
RTVSPost2010Prop31
280
     0
102
RTVSPost2010PropOp31
 70
     1
102
RTVSPost2010Prop32
280
     0
102
RTVSPost2010PropOp32
 70
     1
102
RTVSPost2010Prop33
280
     0
102
RTVSPost2010PropOp33
 70
     1
102
RTVSPost2010Prop34
280
     0
102
RTVSPost2010PropOp34
 70
     1
102
RTVSPost2010Prop35
280
     0
102
RTVSPost2010PropOp35
 70
     1
102
RTVSPost2010Prop36
280
     0
102
RTVSPost2010PropOp36
 70
     1
102
RTVSPost2010Prop37
 90
       50
102
RTVSPost2010PropOp37
 70
     1
102
RTVSPost2010Prop38
140
0.0
102
RTVSPost2010PropOp38
 70
     1
102
RTVSPost2010Prop39
140
1.0
102
RTVSPost2010PropOp39
 70
     1
102
RTVSPost2010Prop40
 90
        0
102
RTVSPost2010PropOp40
 70
     1
102
RTVSPost2010Prop41ColorIndex
 90
       18
102
RTVSPost2010Prop41ColorRGB
 90
        0
102
RTVSPost2010PropOp41
 70
     1
102
RTVSPost2010Prop42
 90
       50
102
RTVSPost2010PropOp42
 70
     1
102
RTVSPost2010Prop43
 90
        3
102
RTVSPost2010PropOp43
 70
     1
102
RTVSPost2010Prop44ColorIndex
 90
        5
102
RTVSPost2010Prop44ColorRGB
 90
      255
102
RTVSPost2010PropOp44
 70
     1
102
RTVSPost2010Prop45
280
     0
102
RTVSPost2010PropOp45
 70
     1
102
RTVSPost2010Prop46
 90
       50
102
RTVSPost2010PropOp46
 70
     1
102
RTVSPost2010Prop47
 90
       50
102
RTVSPost2010PropOp47
 70
     1
102
RTVSPost2010Prop48
 90
       50
102
RTVSPost2010PropOp48
 70
     1
102
RTVSPost2010Prop49
280
     0
102
RTVSPost2010PropOp49
 70
     1
102
RTVSPost2010Prop50
 90
       50
102
RTVSPost2010PropOp50
 70
     1
102
RTVSPost2010Prop51ColorIndex
 90
      256
102
RTVSPost2010Prop51ColorRGB
 90
-16777216
102
RTVSPost2010PropOp51
 70
     0
102
RTVSPost2010Prop52
140
1.0
102
RTVSPost2010PropOp52
 70
     0
102
RTVSPost2010Prop53
 90
        2
102
RTVSPost2010PropOp53
 70
     1
102
RTVSPost2010Prop54
  1
strokes_ogs.tif
102
RTVSPost2010PropOp54
 70
     1
102
RTVSPost2010Prop55
280
     0
102
RTVSPost2010PropOp55
 70
     1
102
RTVSPost2010Prop56
140
1.0
102
RTVSPost2010PropOp56
 70
     1
102
RTVSPost2010Prop57
140
1.0
102
RTVSPost2010PropOp57
 70
     1
  0
XRECORD
  5
172
102
{ACAD_REACTORS
330
171
102
}
330
171
100
AcDbXrecord
280
     1
102
RTVSPost2010Prop28
280
     0
102
RTVSPost2010PropOp28
 70
     1
102
RTVSPost2010Prop29
280
     1
102
RTVSPost2010PropOp29
 70
     1
102
RTVSPost2010Prop30
280
     1
102
RTVSPost2010PropOp30
 70
     1
102
RTVSPost2010Prop31
280
     0
102
RTVSPost2010PropOp31
 70
     1
102
RTVSPost2010Prop32
280
     0
102
RTVSPost2010PropOp32
 70
     1
102
RTVSPost2010Prop33
280
     0
102
RTVSPost2010PropOp33
 70
     1
102
RTVSPost2010Prop34
280
     0
102
RTVSPost2010PropOp34
 70
     1
102
RTVSPost2010Prop35
280
     0
102
RTVSPost2010PropOp35
 70
     1
102
RTVSPost2010Prop36
280
     0
102
RTVSPost2010PropOp36
 70
     1
102
RTVSPost2010Prop37
 90
       50
102
RTVSPost2010PropOp37
 70
     1
102
RTVSPost2010Prop38
140
0.0
102
RTVSPost2010PropOp38
 70
     1
102
RTVSPost2010Prop39
140
1.0
102
RTVSPost2010PropOp39
 70
     1
102
RTVSPost2010Prop40
 90
        0
102
RTVSPost2010PropOp40
 70
     1
102
RTVSPost2010Prop41ColorIndex
 90
       18
102
RTVSPost2010Prop41ColorRGB
 90
        0
102
RTVSPost2010PropOp41
 70
     1
102
RTVSPost2010Prop42
 90
       50
102
RTVSPost2010PropOp42
 70
     1
102
RTVSPost2010Prop43
 90
        3
102
RTVSPost2010PropOp43
 70
     1
102
RTVSPost2010Prop44ColorIndex
 90
        5
102
RTVSPost2010Prop44ColorRGB
 90
      255
102
RTVSPost2010PropOp44
 70
     1
102
RTVSPost2010Prop45
280
     0
102
RTVSPost2010PropOp45
 70
     1
102
RTVSPost2010Prop46
 90
       50
102
RTVSPost2010PropOp46
 70
     1
102
RTVSPost2010Prop47
 90
       50
102
RTVSPost2010PropOp47
 70
     1
102
RTVSPost2010Prop48
 90
       50
102
RTVSPost2010PropOp48
 70
     1
102
RTVSPost2010Prop49
280
     0
102
RTVSPost2010PropOp49
 70
     1
102
RTVSPost2010Prop50
 90
       50
102
RTVSPost2010PropOp50
 70
     1
102
RTVSPost2010Prop51ColorIndex
 90
      256
102
RTVSPost2010Prop51ColorRGB
 90
-16777216
102
RTVSPost2010PropOp51
 70
     0
102
RTVSPost2010Prop52
140
1.0
102
RTVSPost2010PropOp52
 70
     0
102
RTVSPost2010Prop53
 90
        2
102
RTVSPost2010PropOp53
 70
     1
102
RTVSPost2010Prop54
  1
strokes_ogs.tif
102
RTVSPost2010PropOp54
 70
     1
102
RTVSPost2010Prop55
280
     0
102
RTVSPost2010PropOp55
 70
     1
102
RTVSPost2010Prop56
140
1.0
102
RTVSPost2010PropOp56
 70
     1
102
RTVSPost2010Prop57
140
1.0
102
RTVSPost2010PropOp57
 70
     1
  0
XRECORD
  5
174
102
{ACAD_REACTORS
330
173
102
}
330
173
100
AcDbXrecord
280
     1
102
RTVSPost2010Prop28
280
     0
102
RTVSPost2010PropOp28
 70
     1
102
RTVSPost2010Prop29
280
     1
102
RTVSPost2010PropOp29
 70
     1
102
RTVSPost2010Prop30
280
     1
102
RTVSPost2010PropOp30
 70
     1
102
RTVSPost2010Prop31
280
     0
102
RTVSPost2010PropOp31
 70
     1
102
RTVSPost2010Prop32
280
     0
102
RTVSPost2010PropOp32
 70
     1
102
RTVSPost2010Prop33
280
     0
102
RTVSPost2010PropOp33
 70
     1
102
RTVSPost2010Prop34
280
     0
102
RTVSPost2010PropOp34
 70
     1
102
RTVSPost2010Prop35
280
     0
102
RTVSPost2010PropOp35
 70
     1
102
RTVSPost2010Prop36
280
     0
102
RTVSPost2010PropOp36
 70
     1
102
RTVSPost2010Prop37
 90
       50
102
RTVSPost2010PropOp37
 70
     1
102
RTVSPost2010Prop38
140
0.0
102
RTVSPost2010PropOp38
 70
     1
102
RTVSPost2010Prop39
140
1.0
102
RTVSPost2010PropOp39
 70
     1
102
RTVSPost2010Prop40
 90
        0
102
RTVSPost2010PropOp40
 70
     1
102
RTVSPost2010Prop41ColorIndex
 90
       18
102
RTVSPost2010Prop41ColorRGB
 90
        0
102
RTVSPost2010PropOp41
 70
     1
102
RTVSPost2010Prop42
 90
       50
102
RTVSPost2010PropOp42
 70
     1
102
RTVSPost2010Prop43
 90
        3
102
RTVSPost2010PropOp43
 70
     1
102
RTVSPost2010Prop44ColorIndex
 90
        5
102
RTVSPost2010Prop44ColorRGB
 90
      255
102
RTVSPost2010PropOp44
 70
     1
102
RTVSPost2010Prop45
280
     0
102
RTVSPost2010PropOp45
 70
     1
102
RTVSPost2010Prop46
 90
       50
102
RTVSPost2010PropOp46
 70
     1
102
RTVSPost2010Prop47
 90
       50
102
RTVSPost2010PropOp47
 70
     1
102
RTVSPost2010Prop48
 90
       50
102
RTVSPost2010PropOp48
 70
     1
102
RTVSPost2010Prop49
280
     0
102
RTVSPost2010PropOp49
 70
     1
102
RTVSPost2010Prop50
 90
       50
102
RTVSPost2010PropOp50
 70
     1
102
RTVSPost2010Prop51ColorIndex
 90
      256
102
RTVSPost2010Prop51ColorRGB
 90
-16777216
102
RTVSPost2010PropOp51
 70
     0
102
RTVSPost2010Prop52
140
1.0
102
RTVSPost2010PropOp52
 70
     0
102
RTVSPost2010Prop53
 90
        2
102
RTVSPost2010PropOp53
 70
     1
102
RTVSPost2010Prop54
  1
strokes_ogs.tif
102
RTVSPost2010PropOp54
 70
     1
102
RTVSPost2010Prop55
280
     0
102
RTVSPost2010PropOp55
 70
     1
102
RTVSPost2010Prop56
140
1.0
102
RTVSPost2010PropOp56
 70
     1
102
RTVSPost2010Prop57
140
1.0
102
RTVSPost2010PropOp57
 70
     1
  0
XRECORD
  5
176
102
{ACAD_REACTORS
330
175
102
}
330
175
100
AcDbXrecord
280
     1
102
RTVSPost2010Prop28
280
     0
102
RTVSPost2010PropOp28
 70
     1
102
RTVSPost2010Prop29
280
     1
102
RTVSPost2010PropOp29
 70
     1
102
RTVSPost2010Prop30
280
     1
102
RTVSPost2010PropOp30
 70
     1
102
RTVSPost2010Prop31
280
     0
102
RTVSPost2010PropOp31
 70
     1
102
RTVSPost2010Prop32
280
     0
102
RTVSPost2010PropOp32
 70
     1
102
RTVSPost2010Prop33
280
     0
102
RTVSPost2010PropOp33
 70
     1
102
RTVSPost2010Prop34
280
     0
102
RTVSPost2010PropOp34
 70
     1
102
RTVSPost2010Prop35
280
     0
102
RTVSPost2010PropOp35
 70
     1
102
RTVSPost2010Prop36
280
     0
102
RTVSPost2010PropOp36
 70
     1
102
RTVSPost2010Prop37
 90
       50
102
RTVSPost2010PropOp37
 70
     1
102
RTVSPost2010Prop38
140
0.0
102
RTVSPost2010PropOp38
 70
     1
102
RTVSPost2010Prop39
140
1.0
102
RTVSPost2010PropOp39
 70
     1
102
RTVSPost2010Prop40
 90
        0
102
RTVSPost2010PropOp40
 70
     1
102
RTVSPost2010Prop41ColorIndex
 90
       18
102
RTVSPost2010Prop41ColorRGB
 90
        0
102
RTVSPost2010PropOp41
 70
     1
102
RTVSPost2010Prop42
 90
       50
102
RTVSPost2010PropOp42
 70
     1
102
RTVSPost2010Prop43
 90
        3
102
RTVSPost2010PropOp43
 70
     1
102
RTVSPost2010Prop44ColorIndex
 90
        5
102
RTVSPost2010Prop44ColorRGB
 90
      255
102
RTVSPost2010PropOp44
 70
     1
102
RTVSPost2010Prop45
280
     0
102
RTVSPost2010PropOp45
 70
     1
102
RTVSPost2010Prop46
 90
       50
102
RTVSPost2010PropOp46
 70
     1
102
RTVSPost2010Prop47
 90
       50
102
RTVSPost2010PropOp47
 70
     1
102
RTVSPost2010Prop48
 90
       50
102
RTVSPost2010PropOp48
 70
     1
102
RTVSPost2010Prop49
280
     0
102
RTVSPost2010PropOp49
 70
     1
102
RTVSPost2010Prop50
 90
       50
102
RTVSPost2010PropOp50
 70
     1
102
RTVSPost2010Prop51ColorIndex
 90
      256
102
RTVSPost2010Prop51ColorRGB
 90
-16777216
102
RTVSPost2010PropOp51
 70
     0
102
RTVSPost2010Prop52
140
1.0
102
RTVSPost2010PropOp52
 70
     0
102
RTVSPost2010Prop53
 90
        2
102
RTVSPost2010PropOp53
 70
     1
102
RTVSPost2010Prop54
  1
strokes_ogs.tif
102
RTVSPost2010PropOp54
 70
     1
102
RTVSPost2010Prop55
280
     0
102
RTVSPost2010PropOp55
 70
     1
102
RTVSPost2010Prop56
140
1.0
102
RTVSPost2010PropOp56
 70
     1
102
RTVSPost2010Prop57
140
1.0
102
RTVSPost2010PropOp57
 70
     1
  0
XRECORD
  5
17E
102
{ACAD_REACTORS
330
17D
102
}
330
17D
100
AcDbXrecord
280
     1
102
RTVSPost2010Prop28
280
     0
102
RTVSPost2010PropOp28
 70
     1
102
RTVSPost2010Prop29
280
     1
102
RTVSPost2010PropOp29
 70
     1
102
RTVSPost2010Prop30
280
     1
102
RTVSPost2010PropOp30
 70
     1
102
RTVSPost2010Prop31
280
     0
102
RTVSPost2010PropOp31
 70
     1
102
RTVSPost2010Prop32
280
     0
102
RTVSPost2010PropOp32
 70
     1
102
RTVSPost2010Prop33
280
     0
102
RTVSPost2010PropOp33
 70
     1
102
RTVSPost2010Prop34
280
     0
102
RTVSPost2010PropOp34
 70
     1
102
RTVSPost2010Prop35
280
     0
102
RTVSPost2010PropOp35
 70
     1
102
RTVSPost2010Prop36
280
     0
102
RTVSPost2010PropOp36
 70
     1
102
RTVSPost2010Prop37
 90
       50
102
RTVSPost2010PropOp37
 70
     1
102
RTVSPost2010Prop38
140
0.0
102
RTVSPost2010PropOp38
 70
     1
102
RTVSPost2010Prop39
140
1.0
102
RTVSPost2010PropOp39
 70
     1
102
RTVSPost2010Prop40
 90
        0
102
RTVSPost2010PropOp40
 70
     1
102
RTVSPost2010Prop41ColorIndex
 90
       18
102
RTVSPost2010Prop41ColorRGB
 90
        0
102
RTVSPost2010PropOp41
 70
     1
102
RTVSPost2010Prop42
 90
       50
102
RTVSPost2010PropOp42
 70
     1
102
RTVSPost2010Prop43
 90
        3
102
RTVSPost2010PropOp43
 70
     1
102
RTVSPost2010Prop44ColorIndex
 90
        5
102
RTVSPost2010Prop44ColorRGB
 90
      255
102
RTVSPost2010PropOp44
 70
     1
102
RTVSPost2010Prop45
280
     0
102
RTVSPost2010PropOp45
 70
     1
102
RTVSPost2010Prop46
 90
       50
102
RTVSPost2010PropOp46
 70
     1
102
RTVSPost2010Prop47
 90
       50
102
RTVSPost2010PropOp47
 70
     1
102
RTVSPost2010Prop48
 90
       50
102
RTVSPost2010PropOp48
 70
     1
102
RTVSPost2010Prop49
280
     0
102
RTVSPost2010PropOp49
 70
     1
102
RTVSPost2010Prop50
 90
       50
102
RTVSPost2010PropOp50
 70
     1
102
RTVSPost2010Prop51ColorIndex
 90
      256
102
RTVSPost2010Prop51ColorRGB
 90
-16777216
102
RTVSPost2010PropOp51
 70
     0
102
RTVSPost2010Prop52
140
1.0
102
RTVSPost2010PropOp52
 70
     0
102
RTVSPost2010Prop53
 90
        2
102
RTVSPost2010PropOp53
 70
     1
102
RTVSPost2010Prop54
  1
strokes_ogs.tif
102
RTVSPost2010PropOp54
 70
     1
102
RTVSPost2010Prop55
280
     0
102
RTVSPost2010PropOp55
 70
     1
102
RTVSPost2010Prop56
140
1.0
102
RTVSPost2010PropOp56
 70
     1
102
RTVSPost2010Prop57
140
1.0
102
RTVSPost2010PropOp57
 70
     1
  0
XRECORD
  5
19A
102
{ACAD_REACTORS
330
199
102
}
330
199
100
AcDbXrecord
280
     1
102
RTVSPost2010Prop28
280
     0
102
RTVSPost2010PropOp28
 70
     0
102
RTVSPost2010Prop29
280
     1
102
RTVSPost2010PropOp29
 70
     0
102
RTVSPost2010Prop30
280
     1
102
RTVSPost2010PropOp30
 70
     0
102
RTVSPost2010Prop31
280
     0
102
RTVSPost2010PropOp31
 70
     0
102
RTVSPost2010Prop32
280
     0
102
RTVSPost2010PropOp32
 70
     0
102
RTVSPost2010Prop33
280
     0
102
RTVSPost2010PropOp33
 70
     0
102
RTVSPost2010Prop34
280
     0
102
RTVSPost2010PropOp34
 70
     0
102
RTVSPost2010Prop35
280
     0
102
RTVSPost2010PropOp35
 70
     0
102
RTVSPost2010Prop36
280
     0
102
RTVSPost2010PropOp36
 70
     0
102
RTVSPost2010Prop37
 90
       50
102
RTVSPost2010PropOp37
 70
     0
102
RTVSPost2010Prop38
140
0.0
102
RTVSPost2010PropOp38
 70
     0
102
RTVSPost2010Prop39
140
1.0
102
RTVSPost2010PropOp39
 70
     0
102
RTVSPost2010Prop40
 90
        0
102
RTVSPost2010PropOp40
 70
     0
102
RTVSPost2010Prop41ColorIndex
 90
       18
102
RTVSPost2010Prop41ColorRGB
 90
        0
102
RTVSPost2010PropOp41
 70
     0
102
RTVSPost2010Prop42
 90
       50
102
RTVSPost2010PropOp42
 70
     0
102
RTVSPost2010Prop43
 90
        3
102
RTVSPost2010PropOp43
 70
     0
102
RTVSPost2010Prop44ColorIndex
 90
        5
102
RTVSPost2010Prop44ColorRGB
 90
      255
102
RTVSPost2010PropOp44
 70
     0
102
RTVSPost2010Prop45
280
     0
102
RTVSPost2010PropOp45
 70
     0
102
RTVSPost2010Prop46
 90
       50
102
RTVSPost2010PropOp46
 70
     0
102
RTVSPost2010Prop47
 90
       50
102
RTVSPost2010PropOp47
 70
     0
102
RTVSPost2010Prop48
 90
       50
102
RTVSPost2010PropOp48
 70
     0
102
RTVSPost2010Prop49
280
     0
102
RTVSPost2010PropOp49
 70
     0
102
RTVSPost2010Prop50
 90
       50
102
RTVSPost2010PropOp50
 70
     0
102
RTVSPost2010Prop51ColorIndex
 90
      256
102
RTVSPost2010Prop51ColorRGB
 90
-16777216
102
RTVSPost2010PropOp51
 70
     0
102
RTVSPost2010Prop52
140
1.0
102
RTVSPost2010PropOp52
 70
     0
102
RTVSPost2010Prop53
 90
        2
102
RTVSPost2010PropOp53
 70
     0
102
RTVSPost2010Prop54
  1
strokes_ogs.tif
102
RTVSPost2010PropOp54
 70
     0
102
RTVSPost2010Prop55
280
     0
102
RTVSPost2010PropOp55
 70
     0
102
RTVSPost2010Prop56
140
1.0
102
RTVSPost2010PropOp56
 70
     0
102
RTVSPost2010Prop57
140
1.0
102
RTVSPost2010PropOp57
 70
     0
  0
XRECORD
  5
18A
102
{ACAD_REACTORS
330
189
102
}
330
189
100
AcDbXrecord
280
     1
102
RTVSPost2010Prop28
280
     0
102
RTVSPost2010PropOp28
 70
     1
102
RTVSPost2010Prop29
280
     1
102
RTVSPost2010PropOp29
 70
     1
102
RTVSPost2010Prop30
280
     1
102
RTVSPost2010PropOp30
 70
     1
102
RTVSPost2010Prop31
280
     0
102
RTVSPost2010PropOp31
 70
     1
102
RTVSPost2010Prop32
280
     0
102
RTVSPost2010PropOp32
 70
     1
102
RTVSPost2010Prop33
280
     0
102
RTVSPost2010PropOp33
 70
     1
102
RTVSPost2010Prop34
280
     0
102
RTVSPost2010PropOp34
 70
     1
102
RTVSPost2010Prop35
280
     0
102
RTVSPost2010PropOp35
 70
     1
102
RTVSPost2010Prop36
280
     0
102
RTVSPost2010PropOp36
 70
     1
102
RTVSPost2010Prop37
 90
       50
102
RTVSPost2010PropOp37
 70
     1
102
RTVSPost2010Prop38
140
0.0
102
RTVSPost2010PropOp38
 70
     1
102
RTVSPost2010Prop39
140
1.0
102
RTVSPost2010PropOp39
 70
     1
102
RTVSPost2010Prop40
 90
        0
102
RTVSPost2010PropOp40
 70
     1
102
RTVSPost2010Prop41ColorIndex
 90
       18
102
RTVSPost2010Prop41ColorRGB
 90
        0
102
RTVSPost2010PropOp41
 70
     1
102
RTVSPost2010Prop42
 90
       50
102
RTVSPost2010PropOp42
 70
     1
102
RTVSPost2010Prop43
 90
        3
102
RTVSPost2010PropOp43
 70
     1
102
RTVSPost2010Prop44ColorIndex
 90
        5
102
RTVSPost2010Prop44ColorRGB
 90
      255
102
RTVSPost2010PropOp44
 70
     1
102
RTVSPost2010Prop45
280
     0
102
RTVSPost2010PropOp45
 70
     1
102
RTVSPost2010Prop46
 90
       50
102
RTVSPost2010PropOp46
 70
     1
102
RTVSPost2010Prop47
 90
       50
102
RTVSPost2010PropOp47
 70
     1
102
RTVSPost2010Prop48
 90
       50
102
RTVSPost2010PropOp48
 70
     1
102
RTVSPost2010Prop49
280
     0
102
RTVSPost2010PropOp49
 70
     1
102
RTVSPost2010Prop50
 90
       50
102
RTVSPost2010PropOp50
 70
     1
102
RTVSPost2010Prop51ColorIndex
 90
      256
102
RTVSPost2010Prop51ColorRGB
 90
-16777216
102
RTVSPost2010PropOp51
 70
     0
102
RTVSPost2010Prop52
140
1.0
102
RTVSPost2010PropOp52
 70
     0
102
RTVSPost2010Prop53
 90
        2
102
RTVSPost2010PropOp53
 70
     1
102
RTVSPost2010Prop54
  1
strokes_ogs.tif
102
RTVSPost2010PropOp54
 70
     1
102
RTVSPost2010Prop55
280
     0
102
RTVSPost2010PropOp55
 70
     1
102
RTVSPost2010Prop56
140
1.0
102
RTVSPost2010PropOp56
 70
     1
102
RTVSPost2010Prop57
140
1.0
102
RTVSPost2010PropOp57
 70
     1
  0
XRECORD
  5
19C
102
{ACAD_REACTORS
330
19B
102
}
330
19B
100
AcDbXrecord
280
     1
102
RTVSPost2010Prop28
280
     0
102
RTVSPost2010PropOp28
 70
     0
102
RTVSPost2010Prop29
280
     1
102
RTVSPost2010PropOp29
 70
     0
102
RTVSPost2010Prop30
280
     1
102
RTVSPost2010PropOp30
 70
     0
102
RTVSPost2010Prop31
280
     0
102
RTVSPost2010PropOp31
 70
     0
102
RTVSPost2010Prop32
280
     0
102
RTVSPost2010PropOp32
 70
     0
102
RTVSPost2010Prop33
280
     0
102
RTVSPost2010PropOp33
 70
     0
102
RTVSPost2010Prop34
280
     0
102
RTVSPost2010PropOp34
 70
     0
102
RTVSPost2010Prop35
280
     0
102
RTVSPost2010PropOp35
 70
     0
102
RTVSPost2010Prop36
280
     0
102
RTVSPost2010PropOp36
 70
     0
102
RTVSPost2010Prop37
 90
       50
102
RTVSPost2010PropOp37
 70
     0
102
RTVSPost2010Prop38
140
0.0
102
RTVSPost2010PropOp38
 70
     0
102
RTVSPost2010Prop39
140
1.0
102
RTVSPost2010PropOp39
 70
     0
102
RTVSPost2010Prop40
 90
        0
102
RTVSPost2010PropOp40
 70
     0
102
RTVSPost2010Prop41ColorIndex
 90
       18
102
RTVSPost2010Prop41ColorRGB
 90
        0
102
RTVSPost2010PropOp41
 70
     0
102
RTVSPost2010Prop42
 90
       50
102
RTVSPost2010PropOp42
 70
     0
102
RTVSPost2010Prop43
 90
        3
102
RTVSPost2010PropOp43
 70
     0
102
RTVSPost2010Prop44ColorIndex
 90
        5
102
RTVSPost2010Prop44ColorRGB
 90
      255
102
RTVSPost2010PropOp44
 70
     0
102
RTVSPost2010Prop45
280
     0
102
RTVSPost2010PropOp45
 70
     0
102
RTVSPost2010Prop46
 90
       50
102
RTVSPost2010PropOp46
 70
     0
102
RTVSPost2010Prop47
 90
       50
102
RTVSPost2010PropOp47
 70
     0
102
RTVSPost2010Prop48
 90
       50
102
RTVSPost2010PropOp48
 70
     0
102
RTVSPost2010Prop49
280
     0
102
RTVSPost2010PropOp49
 70
     0
102
RTVSPost2010Prop50
 90
       50
102
RTVSPost2010PropOp50
 70
     0
102
RTVSPost2010Prop51ColorIndex
 90
      256
102
RTVSPost2010Prop51ColorRGB
 90
-16777216
102
RTVSPost2010PropOp51
 70
     0
102
RTVSPost2010Prop52
140
1.0
102
RTVSPost2010PropOp52
 70
     0
102
RTVSPost2010Prop53
 90
        2
102
RTVSPost2010PropOp53
 70
     0
102
RTVSPost2010Prop54
  1
strokes_ogs.tif
102
RTVSPost2010PropOp54
 70
     0
102
RTVSPost2010Prop55
280
     0
102
RTVSPost2010PropOp55
 70
     0
102
RTVSPost2010Prop56
140
1.0
102
RTVSPost2010PropOp56
 70
     0
102
RTVSPost2010Prop57
140
1.0
102
RTVSPost2010PropOp57
 70
     0
  0
XRECORD
  5
182
102
{ACAD_REACTORS
330
181
102
}
330
181
100
AcDbXrecord
280
     1
102
RTVSPost2010Prop28
280
     0
102
RTVSPost2010PropOp28
 70
     1
102
RTVSPost2010Prop29
280
     1
102
RTVSPost2010PropOp29
 70
     1
102
RTVSPost2010Prop30
280
     1
102
RTVSPost2010PropOp30
 70
     1
102
RTVSPost2010Prop31
280
     0
102
RTVSPost2010PropOp31
 70
     1
102
RTVSPost2010Prop32
280
     0
102
RTVSPost2010PropOp32
 70
     1
102
RTVSPost2010Prop33
280
     0
102
RTVSPost2010PropOp33
 70
     1
102
RTVSPost2010Prop34
280
     0
102
RTVSPost2010PropOp34
 70
     1
102
RTVSPost2010Prop35
280
     0
102
RTVSPost2010PropOp35
 70
     1
102
RTVSPost2010Prop36
280
     0
102
RTVSPost2010PropOp36
 70
     1
102
RTVSPost2010Prop37
 90
       50
102
RTVSPost2010PropOp37
 70
     1
102
RTVSPost2010Prop38
140
0.0
102
RTVSPost2010PropOp38
 70
     1
102
RTVSPost2010Prop39
140
1.0
102
RTVSPost2010PropOp39
 70
     1
102
RTVSPost2010Prop40
 90
        0
102
RTVSPost2010PropOp40
 70
     1
102
RTVSPost2010Prop41ColorIndex
 90
       18
102
RTVSPost2010Prop41ColorRGB
 90
        0
102
RTVSPost2010PropOp41
 70
     1
102
RTVSPost2010Prop42
 90
       50
102
RTVSPost2010PropOp42
 70
     1
102
RTVSPost2010Prop43
 90
        3
102
RTVSPost2010PropOp43
 70
     1
102
RTVSPost2010Prop44ColorIndex
 90
        5
102
RTVSPost2010Prop44ColorRGB
 90
      255
102
RTVSPost2010PropOp44
 70
     1
102
RTVSPost2010Prop45
280
     0
102
RTVSPost2010PropOp45
 70
     1
102
RTVSPost2010Prop46
 90
       50
102
RTVSPost2010PropOp46
 70
     1
102
RTVSPost2010Prop47
 90
       50
102
RTVSPost2010PropOp47
 70
     1
102
RTVSPost2010Prop48
 90
       50
102
RTVSPost2010PropOp48
 70
     1
102
RTVSPost2010Prop49
280
     0
102
RTVSPost2010PropOp49
 70
     1
102
RTVSPost2010Prop50
 90
       50
102
RTVSPost2010PropOp50
 70
     1
102
RTVSPost2010Prop51ColorIndex
 90
      256
102
RTVSPost2010Prop51ColorRGB
 90
-16777216
102
RTVSPost2010PropOp51
 70
     0
102
RTVSPost2010Prop52
140
1.0
102
RTVSPost2010PropOp52
 70
     0
102
RTVSPost2010Prop53
 90
        2
102
RTVSPost2010PropOp53
 70
     1
102
RTVSPost2010Prop54
  1
strokes_ogs.tif
102
RTVSPost2010PropOp54
 70
     1
102
RTVSPost2010Prop55
280
     0
102
RTVSPost2010PropOp55
 70
     1
102
RTVSPost2010Prop56
140
1.0
102
RTVSPost2010PropOp56
 70
     1
102
RTVSPost2010Prop57
140
1.0
102
RTVSPost2010PropOp57
 70
     1
  0
XRECORD
  5
198
102
{ACAD_REACTORS
330
197
102
}
330
197
100
AcDbXrecord
280
     1
102
RTVSPost2010Prop28
280
     0
102
RTVSPost2010PropOp28
 70
     1
102
RTVSPost2010Prop29
280
     1
102
RTVSPost2010PropOp29
 70
     1
102
RTVSPost2010Prop30
280
     1
102
RTVSPost2010PropOp30
 70
     1
102
RTVSPost2010Prop31
280
     0
102
RTVSPost2010PropOp31
 70
     1
102
RTVSPost2010Prop32
280
     0
102
RTVSPost2010PropOp32
 70
     1
102
RTVSPost2010Prop33
280
     0
102
RTVSPost2010PropOp33
 70
     1
102
RTVSPost2010Prop34
280
     0
102
RTVSPost2010PropOp34
 70
     1
102
RTVSPost2010Prop35
280
     0
102
RTVSPost2010PropOp35
 70
     1
102
RTVSPost2010Prop36
280
     0
102
RTVSPost2010PropOp36
 70
     1
102
RTVSPost2010Prop37
 90
       50
102
RTVSPost2010PropOp37
 70
     1
102
RTVSPost2010Prop38
140
0.0
102
RTVSPost2010PropOp38
 70
     1
102
RTVSPost2010Prop39
140
1.0
102
RTVSPost2010PropOp39
 70
     1
102
RTVSPost2010Prop40
 90
        0
102
RTVSPost2010PropOp40
 70
     1
102
RTVSPost2010Prop41ColorIndex
 90
       18
102
RTVSPost2010Prop41ColorRGB
 90
        0
102
RTVSPost2010PropOp41
 70
     1
102
RTVSPost2010Prop42
 90
       50
102
RTVSPost2010PropOp42
 70
     1
102
RTVSPost2010Prop43
 90
        3
102
RTVSPost2010PropOp43
 70
     1
102
RTVSPost2010Prop44ColorIndex
 90
        5
102
RTVSPost2010Prop44ColorRGB
 90
      255
102
RTVSPost2010PropOp44
 70
     1
102
RTVSPost2010Prop45
280
     0
102
RTVSPost2010PropOp45
 70
     1
102
RTVSPost2010Prop46
 90
       50
102
RTVSPost2010PropOp46
 70
     1
102
RTVSPost2010Prop47
 90
       50
102
RTVSPost2010PropOp47
 70
     1
102
RTVSPost2010Prop48
 90
       50
102
RTVSPost2010PropOp48
 70
     1
102
RTVSPost2010Prop49
280
     0
102
RTVSPost2010PropOp49
 70
     1
102
RTVSPost2010Prop50
 90
       50
102
RTVSPost2010PropOp50
 70
     1
102
RTVSPost2010Prop51ColorIndex
 90
      256
102
RTVSPost2010Prop51ColorRGB
 90
-16777216
102
RTVSPost2010PropOp51
 70
     0
102
RTVSPost2010Prop52
140
1.0
102
RTVSPost2010PropOp52
 70
     0
102
RTVSPost2010Prop53
 90
        2
102
RTVSPost2010PropOp53
 70
     1
102
RTVSPost2010Prop54
  1
strokes_ogs.tif
102
RTVSPost2010PropOp54
 70
     1
102
RTVSPost2010Prop55
280
     0
102
RTVSPost2010PropOp55
 70
     1
102
RTVSPost2010Prop56
140
1.0
102
RTVSPost2010PropOp56
 70
     1
102
RTVSPost2010Prop57
140
1.0
102
RTVSPost2010PropOp57
 70
     1
  0
XRECORD
  5
196
102
{ACAD_REACTORS
330
195
102
}
330
195
100
AcDbXrecord
280
     1
102
RTVSPost2010Prop28
280
     0
102
RTVSPost2010PropOp28
 70
     1
102
RTVSPost2010Prop29
280
     1
102
RTVSPost2010PropOp29
 70
     1
102
RTVSPost2010Prop30
280
     1
102
RTVSPost2010PropOp30
 70
     1
102
RTVSPost2010Prop31
280
     0
102
RTVSPost2010PropOp31
 70
     1
102
RTVSPost2010Prop32
280
     0
102
RTVSPost2010PropOp32
 70
     1
102
RTVSPost2010Prop33
280
     0
102
RTVSPost2010PropOp33
 70
     1
102
RTVSPost2010Prop34
280
     0
102
RTVSPost2010PropOp34
 70
     1
102
RTVSPost2010Prop35
280
     0
102
RTVSPost2010PropOp35
 70
     1
102
RTVSPost2010Prop36
280
     0
102
RTVSPost2010PropOp36
 70
     1
102
RTVSPost2010Prop37
 90
       50
102
RTVSPost2010PropOp37
 70
     1
102
RTVSPost2010Prop38
140
0.0
102
RTVSPost2010PropOp38
 70
     1
102
RTVSPost2010Prop39
140
1.0
102
RTVSPost2010PropOp39
 70
     1
102
RTVSPost2010Prop40
 90
        0
102
RTVSPost2010PropOp40
 70
     1
102
RTVSPost2010Prop41ColorIndex
 90
       18
102
RTVSPost2010Prop41ColorRGB
 90
        0
102
RTVSPost2010PropOp41
 70
     1
102
RTVSPost2010Prop42
 90
       50
102
RTVSPost2010PropOp42
 70
     1
102
RTVSPost2010Prop43
 90
        3
102
RTVSPost2010PropOp43
 70
     1
102
RTVSPost2010Prop44ColorIndex
 90
        5
102
RTVSPost2010Prop44ColorRGB
 90
      255
102
RTVSPost2010PropOp44
 70
     1
102
RTVSPost2010Prop45
280
     0
102
RTVSPost2010PropOp45
 70
     1
102
RTVSPost2010Prop46
 90
       50
102
RTVSPost2010PropOp46
 70
     1
102
RTVSPost2010Prop47
 90
       50
102
RTVSPost2010PropOp47
 70
     1
102
RTVSPost2010Prop48
 90
       50
102
RTVSPost2010PropOp48
 70
     1
102
RTVSPost2010Prop49
280
     0
102
RTVSPost2010PropOp49
 70
     1
102
RTVSPost2010Prop50
 90
       50
102
RTVSPost2010PropOp50
 70
     1
102
RTVSPost2010Prop51ColorIndex
 90
      256
102
RTVSPost2010Prop51ColorRGB
 90
-16777216
102
RTVSPost2010PropOp51
 70
     0
102
RTVSPost2010Prop52
140
1.0
102
RTVSPost2010PropOp52
 70
     0
102
RTVSPost2010Prop53
 90
        2
102
RTVSPost2010PropOp53
 70
     1
102
RTVSPost2010Prop54
  1
strokes_ogs.tif
102
RTVSPost2010PropOp54
 70
     1
102
RTVSPost2010Prop55
280
     0
102
RTVSPost2010PropOp55
 70
     1
102
RTVSPost2010Prop56
140
1.0
102
RTVSPost2010PropOp56
 70
     1
102
RTVSPost2010Prop57
140
1.0
102
RTVSPost2010PropOp57
 70
     1
  0
XRECORD
  5
190
102
{ACAD_REACTORS
330
18F
102
}
330
18F
100
AcDbXrecord
280
     1
102
RTVSPost2010Prop28
280
     0
102
RTVSPost2010PropOp28
 70
     1
102
RTVSPost2010Prop29
280
     1
102
RTVSPost2010PropOp29
 70
     1
102
RTVSPost2010Prop30
280
     1
102
RTVSPost2010PropOp30
 70
     1
102
RTVSPost2010Prop31
280
     0
102
RTVSPost2010PropOp31
 70
     1
102
RTVSPost2010Prop32
280
     0
102
RTVSPost2010PropOp32
 70
     1
102
RTVSPost2010Prop33
280
     0
102
RTVSPost2010PropOp33
 70
     1
102
RTVSPost2010Prop34
280
     0
102
RTVSPost2010PropOp34
 70
     1
102
RTVSPost2010Prop35
280
     0
102
RTVSPost2010PropOp35
 70
     1
102
RTVSPost2010Prop36
280
     0
102
RTVSPost2010PropOp36
 70
     1
102
RTVSPost2010Prop37
 90
       50
102
RTVSPost2010PropOp37
 70
     1
102
RTVSPost2010Prop38
140
0.0
102
RTVSPost2010PropOp38
 70
     1
102
RTVSPost2010Prop39
140
1.0
102
RTVSPost2010PropOp39
 70
     1
102
RTVSPost2010Prop40
 90
        0
102
RTVSPost2010PropOp40
 70
     1
102
RTVSPost2010Prop41ColorIndex
 90
       18
102
RTVSPost2010Prop41ColorRGB
 90
        0
102
RTVSPost2010PropOp41
 70
     1
102
RTVSPost2010Prop42
 90
       50
102
RTVSPost2010PropOp42
 70
     1
102
RTVSPost2010Prop43
 90
        3
102
RTVSPost2010PropOp43
 70
     1
102
RTVSPost2010Prop44ColorIndex
 90
        5
102
RTVSPost2010Prop44ColorRGB
 90
      255
102
RTVSPost2010PropOp44
 70
     1
102
RTVSPost2010Prop45
280
     0
102
RTVSPost2010PropOp45
 70
     1
102
RTVSPost2010Prop46
 90
       50
102
RTVSPost2010PropOp46
 70
     1
102
RTVSPost2010Prop47
 90
       50
102
RTVSPost2010PropOp47
 70
     1
102
RTVSPost2010Prop48
 90
       50
102
RTVSPost2010PropOp48
 70
     1
102
RTVSPost2010Prop49
280
     0
102
RTVSPost2010PropOp49
 70
     1
102
RTVSPost2010Prop50
 90
       50
102
RTVSPost2010PropOp50
 70
     1
102
RTVSPost2010Prop51ColorIndex
 90
      256
102
RTVSPost2010Prop51ColorRGB
 90
-16777216
102
RTVSPost2010PropOp51
 70
     0
102
RTVSPost2010Prop52
140
1.0
102
RTVSPost2010PropOp52
 70
     0
102
RTVSPost2010Prop53
 90
        2
102
RTVSPost2010PropOp53
 70
     1
102
RTVSPost2010Prop54
  1
strokes_ogs.tif
102
RTVSPost2010PropOp54
 70
     1
102
RTVSPost2010Prop55
280
     0
102
RTVSPost2010PropOp55
 70
     1
102
RTVSPost2010Prop56
140
1.0
102
RTVSPost2010PropOp56
 70
     1
102
RTVSPost2010Prop57
140
1.0
102
RTVSPost2010PropOp57
 70
     1
  0
XRECORD
  5
192
102
{ACAD_REACTORS
330
191
102
}
330
191
100
AcDbXrecord
280
     1
102
RTVSPost2010Prop28
280
     0
102
RTVSPost2010PropOp28
 70
     1
102
RTVSPost2010Prop29
280
     1
102
RTVSPost2010PropOp29
 70
     1
102
RTVSPost2010Prop30
280
     1
102
RTVSPost2010PropOp30
 70
     1
102
RTVSPost2010Prop31
280
     0
102
RTVSPost2010PropOp31
 70
     1
102
RTVSPost2010Prop32
280
     0
102
RTVSPost2010PropOp32
 70
     1
102
RTVSPost2010Prop33
280
     0
102
RTVSPost2010PropOp33
 70
     1
102
RTVSPost2010Prop34
280
     0
102
RTVSPost2010PropOp34
 70
     1
102
RTVSPost2010Prop35
280
     0
102
RTVSPost2010PropOp35
 70
     1
102
RTVSPost2010Prop36
280
     0
102
RTVSPost2010PropOp36
 70
     1
102
RTVSPost2010Prop37
 90
       50
102
RTVSPost2010PropOp37
 70
     1
102
RTVSPost2010Prop38
140
0.0
102
RTVSPost2010PropOp38
 70
     1
102
RTVSPost2010Prop39
140
1.0
102
RTVSPost2010PropOp39
 70
     1
102
RTVSPost2010Prop40
 90
        0
102
RTVSPost2010PropOp40
 70
     1
102
RTVSPost2010Prop41ColorIndex
 90
       18
102
RTVSPost2010Prop41ColorRGB
 90
        0
102
RTVSPost2010PropOp41
 70
     1
102
RTVSPost2010Prop42
 90
       50
102
RTVSPost2010PropOp42
 70
     1
102
RTVSPost2010Prop43
 90
        3
102
RTVSPost2010PropOp43
 70
     1
102
RTVSPost2010Prop44ColorIndex
 90
        5
102
RTVSPost2010Prop44ColorRGB
 90
      255
102
RTVSPost2010PropOp44
 70
     1
102
RTVSPost2010Prop45
280
     0
102
RTVSPost2010PropOp45
 70
     1
102
RTVSPost2010Prop46
 90
       50
102
RTVSPost2010PropOp46
 70
     1
102
RTVSPost2010Prop47
 90
       50
102
RTVSPost2010PropOp47
 70
     1
102
RTVSPost2010Prop48
 90
       50
102
RTVSPost2010PropOp48
 70
     1
102
RTVSPost2010Prop49
280
     0
102
RTVSPost2010PropOp49
 70
     1
102
RTVSPost2010Prop50
 90
       50
102
RTVSPost2010PropOp50
 70
     1
102
RTVSPost2010Prop51ColorIndex
 90
      256
102
RTVSPost2010Prop51ColorRGB
 90
-16777216
102
RTVSPost2010PropOp51
 70
     0
102
RTVSPost2010Prop52
140
1.0
102
RTVSPost2010PropOp52
 70
     0
102
RTVSPost2010Prop53
 90
        2
102
RTVSPost2010PropOp53
 70
     1
102
RTVSPost2010Prop54
  1
strokes_ogs.tif
102
RTVSPost2010PropOp54
 70
     1
102
RTVSPost2010Prop55
280
     0
102
RTVSPost2010PropOp55
 70
     1
102
RTVSPost2010Prop56
140
1.0
102
RTVSPost2010PropOp56
 70
     1
102
RTVSPost2010Prop57
140
1.0
102
RTVSPost2010PropOp57
 70
     1
  0
XRECORD
  5
188
102
{ACAD_REACTORS
330
187
102
}
330
187
100
AcDbXrecord
280
     1
102
RTVSPost2010Prop28
280
     0
102
RTVSPost2010PropOp28
 70
     1
102
RTVSPost2010Prop29
280
     1
102
RTVSPost2010PropOp29
 70
     1
102
RTVSPost2010Prop30
280
     1
102
RTVSPost2010PropOp30
 70
     1
102
RTVSPost2010Prop31
280
     0
102
RTVSPost2010PropOp31
 70
     1
102
RTVSPost2010Prop32
280
     0
102
RTVSPost2010PropOp32
 70
     1
102
RTVSPost2010Prop33
280
     0
102
RTVSPost2010PropOp33
 70
     1
102
RTVSPost2010Prop34
280
     0
102
RTVSPost2010PropOp34
 70
     1
102
RTVSPost2010Prop35
280
     0
102
RTVSPost2010PropOp35
 70
     1
102
RTVSPost2010Prop36
280
     0
102
RTVSPost2010PropOp36
 70
     1
102
RTVSPost2010Prop37
 90
       50
102
RTVSPost2010PropOp37
 70
     1
102
RTVSPost2010Prop38
140
0.0
102
RTVSPost2010PropOp38
 70
     1
102
RTVSPost2010Prop39
140
1.0
102
RTVSPost2010PropOp39
 70
     1
102
RTVSPost2010Prop40
 90
        0
102
RTVSPost2010PropOp40
 70
     1
102
RTVSPost2010Prop41ColorIndex
 90
       18
102
RTVSPost2010Prop41ColorRGB
 90
        0
102
RTVSPost2010PropOp41
 70
     1
102
RTVSPost2010Prop42
 90
       50
102
RTVSPost2010PropOp42
 70
     1
102
RTVSPost2010Prop43
 90
        3
102
RTVSPost2010PropOp43
 70
     1
102
RTVSPost2010Prop44ColorIndex
 90
        5
102
RTVSPost2010Prop44ColorRGB
 90
      255
102
RTVSPost2010PropOp44
 70
     1
102
RTVSPost2010Prop45
280
     0
102
RTVSPost2010PropOp45
 70
     1
102
RTVSPost2010Prop46
 90
       50
102
RTVSPost2010PropOp46
 70
     1
102
RTVSPost2010Prop47
 90
       50
102
RTVSPost2010PropOp47
 70
     1
102
RTVSPost2010Prop48
 90
       50
102
RTVSPost2010PropOp48
 70
     1
102
RTVSPost2010Prop49
280
     0
102
RTVSPost2010PropOp49
 70
     1
102
RTVSPost2010Prop50
 90
       50
102
RTVSPost2010PropOp50
 70
     1
102
RTVSPost2010Prop51ColorIndex
 90
      256
102
RTVSPost2010Prop51ColorRGB
 90
-16777216
102
RTVSPost2010PropOp51
 70
     0
102
RTVSPost2010Prop52
140
1.0
102
RTVSPost2010PropOp52
 70
     0
102
RTVSPost2010Prop53
 90
        2
102
RTVSPost2010PropOp53
 70
     1
102
RTVSPost2010Prop54
  1
strokes_ogs.tif
102
RTVSPost2010PropOp54
 70
     1
102
RTVSPost2010Prop55
280
     0
102
RTVSPost2010PropOp55
 70
     1
102
RTVSPost2010Prop56
140
1.0
102
RTVSPost2010PropOp56
 70
     1
102
RTVSPost2010Prop57
140
1.0
102
RTVSPost2010PropOp57
 70
     1
  0
XRECORD
  5
17C
102
{ACAD_REACTORS
330
17B
102
}
330
17B
100
AcDbXrecord
280
     1
102
RTVSPost2010Prop28
280
     0
102
RTVSPost2010PropOp28
 70
     1
102
RTVSPost2010Prop29
280
     1
102
RTVSPost2010PropOp29
 70
     1
102
RTVSPost2010Prop30
280
     1
102
RTVSPost2010PropOp30
 70
     1
102
RTVSPost2010Prop31
280
     0
102
RTVSPost2010PropOp31
 70
     1
102
RTVSPost2010Prop32
280
     0
102
RTVSPost2010PropOp32
 70
     1
102
RTVSPost2010Prop33
280
     0
102
RTVSPost2010PropOp33
 70
     1
102
RTVSPost2010Prop34
280
     0
102
RTVSPost2010PropOp34
 70
     1
102
RTVSPost2010Prop35
280
     0
102
RTVSPost2010PropOp35
 70
     1
102
RTVSPost2010Prop36
280
     0
102
RTVSPost2010PropOp36
 70
     1
102
RTVSPost2010Prop37
 90
       50
102
RTVSPost2010PropOp37
 70
     1
102
RTVSPost2010Prop38
140
0.0
102
RTVSPost2010PropOp38
 70
     1
102
RTVSPost2010Prop39
140
1.0
102
RTVSPost2010PropOp39
 70
     1
102
RTVSPost2010Prop40
 90
        0
102
RTVSPost2010PropOp40
 70
     1
102
RTVSPost2010Prop41ColorIndex
 90
       18
102
RTVSPost2010Prop41ColorRGB
 90
        0
102
RTVSPost2010PropOp41
 70
     1
102
RTVSPost2010Prop42
 90
       50
102
RTVSPost2010PropOp42
 70
     1
102
RTVSPost2010Prop43
 90
        3
102
RTVSPost2010PropOp43
 70
     1
102
RTVSPost2010Prop44ColorIndex
 90
        5
102
RTVSPost2010Prop44ColorRGB
 90
      255
102
RTVSPost2010PropOp44
 70
     1
102
RTVSPost2010Prop45
280
     0
102
RTVSPost2010PropOp45
 70
     1
102
RTVSPost2010Prop46
 90
       50
102
RTVSPost2010PropOp46
 70
     1
102
RTVSPost2010Prop47
 90
       50
102
RTVSPost2010PropOp47
 70
     1
102
RTVSPost2010Prop48
 90
       50
102
RTVSPost2010PropOp48
 70
     1
102
RTVSPost2010Prop49
280
     0
102
RTVSPost2010PropOp49
 70
     1
102
RTVSPost2010Prop50
 90
       50
102
RTVSPost2010PropOp50
 70
     1
102
RTVSPost2010Prop51ColorIndex
 90
      256
102
RTVSPost2010Prop51ColorRGB
 90
-16777216
102
RTVSPost2010PropOp51
 70
     0
102
RTVSPost2010Prop52
140
1.0
102
RTVSPost2010PropOp52
 70
     0
102
RTVSPost2010Prop53
 90
        2
102
RTVSPost2010PropOp53
 70
     1
102
RTVSPost2010Prop54
  1
strokes_ogs.tif
102
RTVSPost2010PropOp54
 70
     1
102
RTVSPost2010Prop55
280
     0
102
RTVSPost2010PropOp55
 70
     1
102
RTVSPost2010Prop56
140
1.0
102
RTVSPost2010PropOp56
 70
     1
102
RTVSPost2010Prop57
140
1.0
102
RTVSPost2010PropOp57
 70
     1
  0
XRECORD
  5
194
102
{ACAD_REACTORS
330
193
102
}
330
193
100
AcDbXrecord
280
     1
102
RTVSPost2010Prop28
280
     0
102
RTVSPost2010PropOp28
 70
     1
102
RTVSPost2010Prop29
280
     1
102
RTVSPost2010PropOp29
 70
     1
102
RTVSPost2010Prop30
280
     1
102
RTVSPost2010PropOp30
 70
     1
102
RTVSPost2010Prop31
280
     0
102
RTVSPost2010PropOp31
 70
     1
102
RTVSPost2010Prop32
280
     0
102
RTVSPost2010PropOp32
 70
     1
102
RTVSPost2010Prop33
280
     0
102
RTVSPost2010PropOp33
 70
     1
102
RTVSPost2010Prop34
280
     0
102
RTVSPost2010PropOp34
 70
     1
102
RTVSPost2010Prop35
280
     0
102
RTVSPost2010PropOp35
 70
     1
102
RTVSPost2010Prop36
280
     0
102
RTVSPost2010PropOp36
 70
     1
102
RTVSPost2010Prop37
 90
       50
102
RTVSPost2010PropOp37
 70
     1
102
RTVSPost2010Prop38
140
0.0
102
RTVSPost2010PropOp38
 70
     1
102
RTVSPost2010Prop39
140
1.0
102
RTVSPost2010PropOp39
 70
     1
102
RTVSPost2010Prop40
 90
        0
102
RTVSPost2010PropOp40
 70
     1
102
RTVSPost2010Prop41ColorIndex
 90
       18
102
RTVSPost2010Prop41ColorRGB
 90
        0
102
RTVSPost2010PropOp41
 70
     1
102
RTVSPost2010Prop42
 90
       50
102
RTVSPost2010PropOp42
 70
     1
102
RTVSPost2010Prop43
 90
        3
102
RTVSPost2010PropOp43
 70
     1
102
RTVSPost2010Prop44ColorIndex
 90
        5
102
RTVSPost2010Prop44ColorRGB
 90
      255
102
RTVSPost2010PropOp44
 70
     1
102
RTVSPost2010Prop45
280
     0
102
RTVSPost2010PropOp45
 70
     1
102
RTVSPost2010Prop46
 90
       50
102
RTVSPost2010PropOp46
 70
     1
102
RTVSPost2010Prop47
 90
       50
102
RTVSPost2010PropOp47
 70
     1
102
RTVSPost2010Prop48
 90
       50
102
RTVSPost2010PropOp48
 70
     1
102
RTVSPost2010Prop49
280
     0
102
RTVSPost2010PropOp49
 70
     1
102
RTVSPost2010Prop50
 90
       50
102
RTVSPost2010PropOp50
 70
     1
102
RTVSPost2010Prop51ColorIndex
 90
      256
102
RTVSPost2010Prop51ColorRGB
 90
-16777216
102
RTVSPost2010PropOp51
 70
     0
102
RTVSPost2010Prop52
140
1.0
102
RTVSPost2010PropOp52
 70
     0
102
RTVSPost2010Prop53
 90
        2
102
RTVSPost2010PropOp53
 70
     1
102
RTVSPost2010Prop54
  1
strokes_ogs.tif
102
RTVSPost2010PropOp54
 70
     1
102
RTVSPost2010Prop55
280
     0
102
RTVSPost2010PropOp55
 70
     1
102
RTVSPost2010Prop56
140
1.0
102
RTVSPost2010PropOp56
 70
     1
102
RTVSPost2010Prop57
140
1.0
102
RTVSPost2010PropOp57
 70
     1
  0
ENDSEC
  0
EOF
