  0
SECTION
  2
HEADER
  9
$ACADVER
  1
AC1024
  9
$ACADMAINTVER
 70
   205
  9
$DWGCODEPAGE
  3
ANSI_1251
  9
$INSBASE
 10
0.0
 20
0.0
 30
0.0
  9
$EXTMIN
 10
1.000000000000000E+20
 20
1.000000000000000E+20
 30
1.000000000000000E+20
  9
$EXTMAX
 10
-1.000000000000000E+20
 20
-1.000000000000000E+20
 30
-1.000000000000000E+20
  9
$LIMMIN
 10
0.0
 20
0.0
  9
$LIMMAX
 10
12.0
 20
9.0
  9
$ORTHOMODE
 70
     0
  9
$REGENMODE
 70
     1
  9
$FILLMODE
 70
     1
  9
$QTEXTMODE
 70
     0
  9
$MIRRTEXT
 70
     1
  9
$LTSCALE
 40
1.0
  9
$ATTMODE
 70
     1
  9
$TEXTSIZE
 40
0.2
  9
$TRACEWID
 40
0.05
  9
$TEXTSTYLE
  7
Standard
  9
$CLAYER
  8
OracDecor_cornice_mouldings
  9
$CELTYPE
  6
ByLayer
  9
$CECOLOR
 62
   256
  9
$CELTSCALE
 40
1.0
  9
$DISPSILH
 70
     0
  9
$DIMSCALE
 40
1.0
  9
$DIMASZ
 40
0.18
  9
$DIMEXO
 40
0.0625
  9
$DIMDLI
 40
0.38
  9
$DIMRND
 40
0.0
  9
$DIMDLE
 40
0.0
  9
$DIMEXE
 40
0.18
  9
$DIMTP
 40
0.0
  9
$DIMTM
 40
0.0
  9
$DIMTXT
 40
0.18
  9
$DIMCEN
 40
0.09
  9
$DIMTSZ
 40
0.0
  9
$DIMTOL
 70
     0
  9
$DIMLIM
 70
     0
  9
$DIMTIH
 70
     1
  9
$DIMTOH
 70
     1
  9
$DIMSE1
 70
     0
  9
$DIMSE2
 70
     0
  9
$DIMTAD
 70
     0
  9
$DIMZIN
 70
     0
  9
$DIMBLK
  1

  9
$DIMASO
 70
     1
  9
$DIMSHO
 70
     1
  9
$DIMPOST
  1

  9
$DIMAPOST
  1

  9
$DIMALT
 70
     0
  9
$DIMALTD
 70
     2
  9
$DIMALTF
 40
25.4
  9
$DIMLFAC
 40
1.0
  9
$DIMTOFL
 70
     0
  9
$DIMTVP
 40
0.0
  9
$DIMTIX
 70
     0
  9
$DIMSOXD
 70
     0
  9
$DIMSAH
 70
     0
  9
$DIMBLK1
  1

  9
$DIMBLK2
  1

  9
$DIMSTYLE
  2
Standard
  9
$DIMCLRD
 70
     0
  9
$DIMCLRE
 70
     0
  9
$DIMCLRT
 70
     0
  9
$DIMTFAC
 40
1.0
  9
$DIMGAP
 40
0.09
  9
$DIMJUST
 70
     0
  9
$DIMSD1
 70
     0
  9
$DIMSD2
 70
     0
  9
$DIMTOLJ
 70
     1
  9
$DIMTZIN
 70
     0
  9
$DIMALTZ
 70
     0
  9
$DIMALTTZ
 70
     0
  9
$DIMUPT
 70
     0
  9
$DIMDEC
 70
     4
  9
$DIMTDEC
 70
     4
  9
$DIMALTU
 70
     2
  9
$DIMALTTD
 70
     2
  9
$DIMTXSTY
  7
Standard
  9
$DIMAUNIT
 70
     0
  9
$DIMADEC
 70
     0
  9
$DIMALTRND
 40
0.0
  9
$DIMAZIN
 70
     0
  9
$DIMDSEP
 70
    46
  9
$DIMATFIT
 70
     3
  9
$DIMFRAC
 70
     0
  9
$DIMLDRBLK
  1

  9
$DIMLUNIT
 70
     2
  9
$DIMLWD
 70
    -2
  9
$DIMLWE
 70
    -2
  9
$DIMTMOVE
 70
     0
  9
$DIMFXL
 40
1.0
  9
$DIMFXLON
 70
     0
  9
$DIMJOGANG
 40
0.7853981633974483
  9
$DIMTFILL
 70
     0
  9
$DIMTFILLCLR
 70
     0
  9
$DIMARCSYM
 70
     0
  9
$DIMLTYPE
  6

  9
$DIMLTEX1
  6

  9
$DIMLTEX2
  6

  9
$DIMTXTDIRECTION
 70
     0
  9
$LUNITS
 70
     2
  9
$LUPREC
 70
     4
  9
$SKETCHINC
 40
0.1
  9
$FILLETRAD
 40
0.5
  9
$AUNITS
 70
     0
  9
$AUPREC
 70
     0
  9
$MENU
  1
.
  9
$ELEVATION
 40
0.0
  9
$PELEVATION
 40
0.0
  9
$THICKNESS
 40
0.0
  9
$LIMCHECK
 70
     0
  9
$CHAMFERA
 40
0.5
  9
$CHAMFERB
 40
0.5
  9
$CHAMFERC
 40
1.0
  9
$CHAMFERD
 40
0.0
  9
$SKPOLY
 70
     0
  9
$TDCREATE
 40
2451380.930432396
  9
$TDUCREATE
 40
2451380.805432396
  9
$TDUPDATE
 40
2451380.966180555
  9
$TDUUPDATE
 40
2451380.841180556
  9
$TDINDWG
 40
0.0075636227
  9
$TDUSRTIMER
 40
0.0075545833
  9
$USRTIMER
 70
     1
  9
$ANGBASE
 50
0.0
  9
$ANGDIR
 70
     0
  9
$PDMODE
 70
     0
  9
$PDSIZE
 40
0.0
  9
$PLINEWID
 40
0.0
  9
$SPLFRAME
 70
     0
  9
$SPLINETYPE
 70
     6
  9
$SPLINESEGS
 70
     8
  9
$HANDSEED
  5
19A
  9
$SURFTAB1
 70
     6
  9
$SURFTAB2
 70
     6
  9
$SURFTYPE
 70
     6
  9
$SURFU
 70
     6
  9
$SURFV
 70
     6
  9
$UCSBASE
  2

  9
$UCSNAME
  2

  9
$UCSORG
 10
0.0
 20
0.0
 30
0.0
  9
$UCSXDIR
 10
1.0
 20
0.0
 30
0.0
  9
$UCSYDIR
 10
0.0
 20
1.0
 30
0.0
  9
$UCSORTHOREF
  2

  9
$UCSORTHOVIEW
 70
     0
  9
$UCSORGTOP
 10
0.0
 20
0.0
 30
0.0
  9
$UCSORGBOTTOM
 10
0.0
 20
0.0
 30
0.0
  9
$UCSORGLEFT
 10
0.0
 20
0.0
 30
0.0
  9
$UCSORGRIGHT
 10
0.0
 20
0.0
 30
0.0
  9
$UCSORGFRONT
 10
0.0
 20
0.0
 30
0.0
  9
$UCSORGBACK
 10
0.0
 20
0.0
 30
0.0
  9
$PUCSBASE
  2

  9
$PUCSNAME
  2

  9
$PUCSORG
 10
0.0
 20
0.0
 30
0.0
  9
$PUCSXDIR
 10
1.0
 20
0.0
 30
0.0
  9
$PUCSYDIR
 10
0.0
 20
1.0
 30
0.0
  9
$PUCSORTHOREF
  2

  9
$PUCSORTHOVIEW
 70
     0
  9
$PUCSORGTOP
 10
0.0
 20
0.0
 30
0.0
  9
$PUCSORGBOTTOM
 10
0.0
 20
0.0
 30
0.0
  9
$PUCSORGLEFT
 10
0.0
 20
0.0
 30
0.0
  9
$PUCSORGRIGHT
 10
0.0
 20
0.0
 30
0.0
  9
$PUCSORGFRONT
 10
0.0
 20
0.0
 30
0.0
  9
$PUCSORGBACK
 10
0.0
 20
0.0
 30
0.0
  9
$USERI1
 70
     0
  9
$USERI2
 70
     0
  9
$USERI3
 70
     0
  9
$USERI4
 70
     0
  9
$USERI5
 70
     0
  9
$USERR1
 40
0.0
  9
$USERR2
 40
0.0
  9
$USERR3
 40
0.0
  9
$USERR4
 40
0.0
  9
$USERR5
 40
0.0
  9
$WORLDVIEW
 70
     1
  9
$SHADEDGE
 70
     3
  9
$SHADEDIF
 70
    70
  9
$TILEMODE
 70
     1
  9
$MAXACTVP
 70
    64
  9
$PINSBASE
 10
0.0
 20
0.0
 30
0.0
  9
$PLIMCHECK
 70
     0
  9
$PEXTMIN
 10
1.000000000000000E+20
 20
1.000000000000000E+20
 30
1.000000000000000E+20
  9
$PEXTMAX
 10
-1.000000000000000E+20
 20
-1.000000000000000E+20
 30
-1.000000000000000E+20
  9
$PLIMMIN
 10
0.0
 20
0.0
  9
$PLIMMAX
 10
12.0
 20
9.0
  9
$UNITMODE
 70
     0
  9
$VISRETAIN
 70
     1
  9
$PLINEGEN
 70
     0
  9
$PSLTSCALE
 70
     1
  9
$TREEDEPTH
 70
  3020
  9
$CMLSTYLE
  2
Standard
  9
$CMLJUST
 70
     0
  9
$CMLSCALE
 40
1.0
  9
$PROXYGRAPHICS
 70
     1
  9
$MEASUREMENT
 70
     1
  9
$CELWEIGHT
370
    -1
  9
$ENDCAPS
280
     0
  9
$JOINSTYLE
280
     0
  9
$LWDISPLAY
290
     0
  9
$INSUNITS
 70
     4
  9
$HYPERLINKBASE
  1

  9
$STYLESHEET
  1

  9
$XEDIT
290
     1
  9
$CEPSNTYPE
380
     0
  9
$PSTYLEMODE
290
     1
  9
$FINGERPRINTGUID
  2
{12F50282-3ED8-11D3-A8B7-0060B0F84BC6}
  9
$VERSIONGUID
  2
{12F50293-3ED8-11D3-A8B7-0060B0F84BC6}
  9
$EXTNAMES
290
     1
  9
$PSVPSCALE
 40
0.0
  9
$OLESTARTUP
290
     0
  9
$SORTENTS
280
   127
  9
$INDEXCTL
280
     0
  9
$HIDETEXT
280
     0
  9
$XCLIPFRAME
280
     2
  9
$HALOGAP
280
     0
  9
$OBSCOLOR
 70
   257
  9
$OBSLTYPE
280
     0
  9
$INTERSECTIONDISPLAY
280
     0
  9
$INTERSECTIONCOLOR
 70
   257
  9
$DIMASSOC
280
     1
  9
$PROJECTNAME
  1

  9
$CAMERADISPLAY
290
     0
  9
$LENSLENGTH
 40
50.0
  9
$CAMERAHEIGHT
 40
0.0
  9
$STEPSPERSEC
 40
2.0
  9
$STEPSIZE
 40
6.0
  9
$3DDWFPREC
 40
2.0
  9
$PSOLWIDTH
 40
0.25
  9
$PSOLHEIGHT
 40
4.0
  9
$LOFTANG1
 40
1.570796326794896
  9
$LOFTANG2
 40
1.570796326794896
  9
$LOFTMAG1
 40
0.0
  9
$LOFTMAG2
 40
0.0
  9
$LOFTPARAM
 70
     7
  9
$LOFTNORMALS
280
     1
  9
$LATITUDE
 40
37.795
  9
$LONGITUDE
 40
-122.394
  9
$NORTHDIRECTION
 40
0.0
  9
$TIMEZONE
 70
 -8000
  9
$LIGHTGLYPHDISPLAY
280
     1
  9
$TILEMODELIGHTSYNCH
280
     1
  9
$CMATERIAL
347
AB
  9
$SOLIDHIST
280
     0
  9
$SHOWHIST
280
     1
  9
$DWFFRAME
280
     2
  9
$DGNFRAME
280
     0
  9
$REALWORLDSCALE
290
     1
  9
$INTERFERECOLOR
 62
     1
  9
$INTERFEREOBJVS
345
CD
  9
$INTERFEREVPVS
346
CA
  9
$CSHADOW
280
     0
  9
$SHADOWPLANELOCATION
 40
0.0
  0
ENDSEC
  0
SECTION
  2
CLASSES
  0
CLASS
  1
ACDBDICTIONARYWDFLT
  2
AcDbDictionaryWithDefault
  3
ObjectDBX Classes
 90
        0
 91
        1
280
     0
281
     0
  0
CLASS
  1
ACDBPLACEHOLDER
  2
AcDbPlaceHolder
  3
ObjectDBX Classes
 90
        0
 91
        2
280
     0
281
     0
  0
CLASS
  1
LAYOUT
  2
AcDbLayout
  3
ObjectDBX Classes
 90
        0
 91
        3
280
     0
281
     0
  0
CLASS
  1
MATERIAL
  2
AcDbMaterial
  3
ObjectDBX Classes
 90
     1153
 91
        3
280
     0
281
     0
  0
CLASS
  1
VISUALSTYLE
  2
AcDbVisualStyle
  3
ObjectDBX Classes
 90
     4095
 91
       24
280
     0
281
     0
  0
CLASS
  1
TABLESTYLE
  2
AcDbTableStyle
  3
ObjectDBX Classes
 90
     4095
 91
        1
280
     0
281
     0
  0
CLASS
  1
SCALE
  2
AcDbScale
  3
ObjectDBX Classes
 90
     1153
 91
       17
280
     0
281
     0
  0
CLASS
  1
MLEADERSTYLE
  2
AcDbMLeaderStyle
  3
ACDB_MLEADERSTYLE_CLASS
 90
     4095
 91
        1
280
     0
281
     0
  0
CLASS
  1
ACDBSECTIONVIEWSTYLE
  2
AcDbSectionViewStyle
  3
ObjectDBX Classes
 90
     1025
 91
        1
280
     0
281
     0
  0
CLASS
  1
ACDBDETAILVIEWSTYLE
  2
AcDbDetailViewStyle
  3
ObjectDBX Classes
 90
     1025
 91
        1
280
     0
281
     0
  0
CLASS
  1
MESH
  2
AcDbSubDMesh
  3
ObjectDBX Classes
 90
        0
 91
        1
280
     0
281
     1
  0
CLASS
  1
DICTIONARYVAR
  2
AcDbDictionaryVar
  3
ObjectDBX Classes
 90
        0
 91
        9
280
     0
281
     0
  0
CLASS
  1
CELLSTYLEMAP
  2
AcDbCellStyleMap
  3
ObjectDBX Classes
 90
     1152
 91
        1
280
     0
281
     0
  0
ENDSEC
  0
SECTION
  2
TABLES
  0
TABLE
  2
VPORT
  5
8
330
0
100
AcDbSymbolTable
 70
     1
  0
VPORT
  5
A8
330
8
100
AcDbSymbolTableRecord
100
AcDbViewportTableRecord
  2
*Active
 70
     0
 10
0.0
 20
0.0
 11
1.0
 21
1.0
 12
-0.0000188817903108
 22
-32.5782356262207
 13
0.0
 23
0.0
 14
0.5
 24
0.5
 15
0.5
 25
0.5
 16
-1.0
 26
-1.0
 36
1.0
 17
0.0
 27
0.0
 37
0.0
 40
1159.599906240341
 41
1.612856548253256
 42
50.0
 43
0.0
 44
0.0
 50
0.0
 51
0.0
 71
     0
 72
   100
 73
     1
 74
     3
 75
     0
 76
     0
 77
     0
 78
     0
281
     0
 65
     1
110
0.0
120
0.0
130
0.0
111
1.0
121
0.0
131
0.0
112
0.0
122
1.0
132
0.0
 79
     0
146
0.0
348
C9
 60
     3
 61
     5
292
     1
282
     1
141
0.0
142
0.0
 63
   250
421
  3355443
  0
ENDTAB
  0
TABLE
  2
LTYPE
  5
5
330
0
100
AcDbSymbolTable
 70
     1
  0
LTYPE
  5
14
330
5
100
AcDbSymbolTableRecord
100
AcDbLinetypeTableRecord
  2
ByBlock
 70
     0
  3

 72
    65
 73
     0
 40
0.0
  0
LTYPE
  5
15
330
5
100
AcDbSymbolTableRecord
100
AcDbLinetypeTableRecord
  2
ByLayer
 70
     0
  3

 72
    65
 73
     0
 40
0.0
  0
LTYPE
  5
16
330
5
100
AcDbSymbolTableRecord
100
AcDbLinetypeTableRecord
  2
Continuous
 70
     0
  3
Solid line
 72
    65
 73
     0
 40
0.0
  0
ENDTAB
  0
TABLE
  2
LAYER
  5
2
330
0
100
AcDbSymbolTable
 70
     3
  0
LAYER
  5
10
330
2
100
AcDbSymbolTableRecord
100
AcDbLayerTableRecord
  2
0
 70
     0
 62
     7
  6
Continuous
370
    -3
390
F
347
BB
  0
LAYER
  5
2B
330
2
100
AcDbSymbolTableRecord
100
AcDbLayerTableRecord
  2
ASHADE
 70
     4
 62
     7
  6
Continuous
370
    -3
390
2D
347
BB
  0
LAYER
  5
F8
330
2
100
AcDbSymbolTableRecord
100
AcDbLayerTableRecord
  2
OracDecor_cornice_mouldings
 70
     0
 62
   114
420
  1814872
  6
Continuous
370
    -3
390
F
347
BB
  0
ENDTAB
  0
TABLE
  2
STYLE
  5
3
330
0
100
AcDbSymbolTable
 70
     2
  0
STYLE
  5
11
330
3
100
AcDbSymbolTableRecord
100
AcDbTextStyleTableRecord
  2
Standard
 70
     0
 40
0.0
 41
1.0
 50
0.0
 71
     0
 42
0.2
  3
txt
  4

  0
STYLE
  5
2C
330
3
100
AcDbSymbolTableRecord
100
AcDbTextStyleTableRecord
  2
ASHADE
 70
     0
 40
0.2
 41
1.0
 50
0.0
 71
     0
 42
0.2
  3
simplex
  4

  0
ENDTAB
  0
TABLE
  2
VIEW
  5
6
330
0
100
AcDbSymbolTable
 70
     0
  0
ENDTAB
  0
TABLE
  2
UCS
  5
7
330
0
100
AcDbSymbolTable
 70
     0
  0
ENDTAB
  0
TABLE
  2
APPID
  5
9
330
0
100
AcDbSymbolTable
 70
     6
  0
APPID
  5
12
330
9
100
AcDbSymbolTableRecord
100
AcDbRegAppTableRecord
  2
ACAD
 70
     0
  0
APPID
  5
8F
330
9
100
AcDbSymbolTableRecord
100
AcDbRegAppTableRecord
  2
AVE_RENDER
 70
     0
  0
APPID
  5
90
330
9
100
AcDbSymbolTableRecord
100
AcDbRegAppTableRecord
  2
AVE_ENTITY_MATERIAL
 70
     0
  0
APPID
  5
9C
330
9
100
AcDbSymbolTableRecord
100
AcDbRegAppTableRecord
  2
AVE_FINISH
 70
     0
  0
APPID
  5
9D
330
9
100
AcDbSymbolTableRecord
100
AcDbRegAppTableRecord
  2
AVE_MATERIAL
 70
     0
  0
APPID
  5
9E
330
9
100
AcDbSymbolTableRecord
100
AcDbRegAppTableRecord
  2
AVE_GLOBAL
 70
     0
  0
ENDTAB
  0
TABLE
  2
DIMSTYLE
  5
A
330
0
100
AcDbSymbolTable
 70
     1
100
AcDbDimStyleTable
 71
     0
  0
DIMSTYLE
105
27
330
A
100
AcDbSymbolTableRecord
100
AcDbDimStyleTableRecord
  2
Standard
 70
     0
340
11
  0
ENDTAB
  0
TABLE
  2
BLOCK_RECORD
  5
1
330
0
100
AcDbSymbolTable
 70
     6
  0
BLOCK_RECORD
  5
1F
330
1
100
AcDbSymbolTableRecord
100
AcDbBlockTableRecord
  2
*Model_Space
340
22
 70
     0
280
     1
281
     0
  0
BLOCK_RECORD
  5
1B
330
1
100
AcDbSymbolTableRecord
100
AcDbBlockTableRecord
  2
*Paper_Space
340
1E
 70
     0
280
     1
281
     0
  0
BLOCK_RECORD
  5
23
330
1
100
AcDbSymbolTableRecord
100
AcDbBlockTableRecord
  2
*Paper_Space0
340
26
 70
     0
280
     1
281
     0
  0
BLOCK_RECORD
  5
2E
330
1
100
AcDbSymbolTableRecord
100
AcDbBlockTableRecord
  2
direct
340
0
 70
     0
280
     1
281
     0
  0
BLOCK_RECORD
  5
42
330
1
100
AcDbSymbolTableRecord
100
AcDbBlockTableRecord
  2
overhead
340
0
 70
     0
280
     1
281
     0
  0
BLOCK_RECORD
  5
5F
330
1
100
AcDbSymbolTableRecord
100
AcDbBlockTableRecord
  2
sh_spot
340
0
 70
     0
280
     1
281
     0
  0
BLOCK_RECORD
  5
91
330
1
100
AcDbSymbolTableRecord
100
AcDbBlockTableRecord
  2
AVE_RENDER
340
0
102
{BLKREFS
331
94
331
95
331
96
331
97
331
98
331
99
331
9A
331
9B
102
}
 70
     0
280
     1
281
     0
  0
BLOCK_RECORD
  5
9F
330
1
100
AcDbSymbolTableRecord
100
AcDbBlockTableRecord
  2
AVE_GLOBAL
340
0
102
{BLKREFS
331
A2
102
}
 70
     0
280
     1
281
     0
  0
ENDTAB
  0
ENDSEC
  0
SECTION
  2
BLOCKS
  0
BLOCK
  5
20
330
1F
100
AcDbEntity
  8
0
100
AcDbBlockBegin
  2
*Model_Space
 70
     0
 10
0.0
 20
0.0
 30
0.0
  3
*Model_Space
  1

  0
ENDBLK
  5
21
330
1F
100
AcDbEntity
  8
0
100
AcDbBlockEnd
  0
BLOCK
  5
1C
330
1B
100
AcDbEntity
 67
     1
  8
0
100
AcDbBlockBegin
  2
*Paper_Space
 70
     0
 10
0.0
 20
0.0
 30
0.0
  3
*Paper_Space
  1

  0
ENDBLK
  5
1D
330
1B
100
AcDbEntity
 67
     1
  8
0
100
AcDbBlockEnd
  0
BLOCK
  5
24
330
23
100
AcDbEntity
 67
     1
  8
0
100
AcDbBlockBegin
  2
*Paper_Space0
 70
     0
 10
0.0
 20
0.0
 30
0.0
  3
*Paper_Space0
  1

  0
ENDBLK
  5
25
330
23
100
AcDbEntity
 67
     1
  8
0
100
AcDbBlockEnd
  0
BLOCK
  5
40
330
2E
100
AcDbEntity
  8
0
100
AcDbBlockBegin
  2
direct
 70
     2
 10
0.0
 20
0.0
 30
0.0
  3
direct
  1

  0
ATTDEF
  5
2F
330
2E
100
AcDbEntity
  8
ASHADE
  6
Continuous
 62
     1
100
AcDbText
 10
0.0
 20
-0.1
 30
0.0
 40
0.2
  1

  7
ASHADE
 72
     1
 11
0.0
 21
-0.1
 31
0.0
100
AcDbAttributeDefinition
280
     0
  3
Light Name
  2
SNAME
 70
     0
280
     0
  0
ARC
  5
30
330
2E
100
AcDbEntity
  8
ASHADE
  6
Continuous
 62
     7
100
AcDbCircle
 10
0.0
 20
0.0
 30
0.0
 40
0.3
100
AcDbArc
 50
205.6792886194569
 51
334.3207113805431
  0
ARC
  5
31
330
2E
100
AcDbEntity
  8
ASHADE
  6
Continuous
 62
     7
100
AcDbCircle
 10
0.0
 20
0.0
 30
0.0
 40
0.3
100
AcDbArc
 50
25.67928861945685
 51
154.3207113805431
  0
LINE
  5
32
330
2E
100
AcDbEntity
  8
ASHADE
  6
Continuous
 62
     7
100
AcDbLine
 10
-0.21
 20
0.2142428528562855
 30
0.0
 11
-0.21
 21
0.5
 31
0.0
  0
LINE
  5
33
330
2E
100
AcDbEntity
  8
ASHADE
  6
Continuous
 62
     7
100
AcDbLine
 10
-0.11
 20
0.2791057147390572
 30
0.0
 11
-0.11
 21
0.5
 31
0.0
  0
LINE
  5
34
330
2E
100
AcDbEntity
  8
ASHADE
  6
Continuous
 62
     7
100
AcDbLine
 10
0.21
 20
0.2142428528562855
 30
0.0
 11
0.21
 21
0.5
 31
0.0
  0
ATTDEF
  5
35
330
2E
100
AcDbEntity
  8
ASHADE
  6
Continuous
 62
     7
100
AcDbText
 10
0.0
 20
0.25
 30
0.0
 40
0.01
  1

100
AcDbAttributeDefinition
280
     0
  3
Look-at Y
  2
LAY
 70
     1
280
     0
  0
ATTDEF
  5
36
330
2E
100
AcDbEntity
  8
ASHADE
  6
Continuous
 62
     7
100
AcDbText
 10
0.0
 20
0.22
 30
0.0
 40
0.01
  1
1
100
AcDbAttributeDefinition
280
     0
  3
Light Intensity
  2
INTENSITY
 70
     1
280
     0
  0
ATTDEF
  5
37
330
2E
100
AcDbEntity
  8
ASHADE
  6
Continuous
 62
     7
100
AcDbText
 10
0.0
 20
0.16
 30
0.0
 40
0.01
  1
-1
100
AcDbAttributeDefinition
280
     0
  3
*not used*
  2
BEAMD
 70
     1
280
     0
  0
ATTDEF
  5
38
330
2E
100
AcDbEntity
  8
ASHADE
  6
Continuous
 62
     7
100
AcDbText
 10
0.0
 20
0.175
 30
0.0
 40
0.01
  1
-1
100
AcDbAttributeDefinition
280
     0
  3
*not used*
  2
CONED
 70
     1
280
     0
  0
ATTDEF
  5
39
330
2E
100
AcDbEntity
  8
ASHADE
  6
Continuous
 62
     7
100
AcDbText
 10
0.0
 20
0.19
 30
0.0
 40
0.01
  1
0
100
AcDbAttributeDefinition
280
     0
  3
Depth Map Size
  2
CONEA
 70
     1
280
     0
  0
ATTDEF
  5
3A
330
2E
100
AcDbEntity
  8
ASHADE
  6
Continuous
 62
     7
100
AcDbText
 10
0.0
 20
0.2050000000000001
 30
0.0
 40
0.01
  1
1,1,1
100
AcDbAttributeDefinition
280
     0
  3
Light Color (RGB)
  2
COLOR
 70
     1
280
     0
  0
ATTDEF
  5
3B
330
2E
100
AcDbEntity
  8
ASHADE
  6
Continuous
 62
     7
100
AcDbText
 10
0.0
 20
0.235
 30
0.0
 40
0.01
  1

100
AcDbAttributeDefinition
280
     0
  3
Look-at Z
  2
LAZ
 70
     1
280
     0
  0
LINE
  5
3C
330
2E
100
AcDbEntity
  8
ASHADE
  6
Continuous
 62
     7
100
AcDbLine
 10
0.0
 20
0.3
 30
0.0
 11
0.0
 21
0.5
 31
0.0
  0
LINE
  5
3D
330
2E
100
AcDbEntity
  8
ASHADE
  6
Continuous
 62
     7
100
AcDbLine
 10
0.11
 20
0.2791057147390572
 30
0.0
 11
0.11
 21
0.5
 31
0.0
  0
ATTDEF
  5
3E
330
2E
100
AcDbEntity
  8
ASHADE
  6
Continuous
 62
     7
100
AcDbText
 10
0.0
 20
0.265
 30
0.0
 40
0.01
  1

100
AcDbAttributeDefinition
280
     0
  3
Look-at X
  2
LAX
 70
     1
280
     0
  0
ATTDEF
  5
3F
330
2E
100
AcDbEntity
  8
ASHADE
  6
Continuous
 62
     7
100
AcDbText
 10
0.0
 20
0.28
 30
0.0
 40
0.01
  1

100
AcDbAttributeDefinition
280
     0
  3

  2
GNAME
 70
     1
280
     0
  0
ENDBLK
  5
41
330
2E
100
AcDbEntity
  8
0
100
AcDbBlockEnd
  0
BLOCK
  5
5D
330
42
100
AcDbEntity
  8
0
100
AcDbBlockBegin
  2
overhead
 70
     2
 10
0.0
 20
0.0
 30
0.0
  3
overhead
  1

  0
ATTDEF
  5
43
330
42
100
AcDbEntity
  8
ASHADE
  6
Continuous
 62
     1
100
AcDbText
 10
0.0
 20
-0.1
 30
0.0
 40
0.2
  1

  7
ASHADE
 72
     1
 11
0.0
 21
-0.1
 31
0.0
100
AcDbAttributeDefinition
280
     0
  3
Light Name
  2
SNAME
 70
     0
280
     0
  0
ARC
  5
44
330
42
100
AcDbEntity
  8
ASHADE
  6
Continuous
 62
     7
100
AcDbCircle
 10
0.0
 20
0.0
 30
0.0
 40
0.3
100
AcDbArc
 50
205.6792886194569
 51
334.3207113805431
  0
LINE
  5
45
330
42
100
AcDbEntity
  8
ASHADE
  6
Continuous
 62
     7
100
AcDbLine
 10
-0.2041413561583015
 20
-0.2198324514393848
 30
0.0
 11
-0.2721884748777353
 21
-0.2931099352525131
 31
0.0
  0
LINE
  5
46
330
42
100
AcDbEntity
  8
ASHADE
  6
Continuous
 62
     7
100
AcDbLine
 10
-0.1096591641591904
 20
-0.2792398032442862
 30
0.0
 11
-0.1279356915190555
 21
-0.3257797704516673
 31
0.0
  0
LINE
  5
47
330
42
100
AcDbEntity
  8
ASHADE
  6
Continuous
 62
     7
100
AcDbLine
 10
0.0
 20
-0.2999999999999999
 30
0.0
 11
0.0
 21
-0.4
 31
0.0
  0
LINE
  5
48
330
42
100
AcDbEntity
  8
ASHADE
  6
Continuous
 62
     7
100
AcDbLine
 10
0.1096591641591904
 20
-0.2792398032442862
 30
0.0
 11
0.1279356915190555
 21
-0.3257797704516673
 31
0.0
  0
LINE
  5
49
330
42
100
AcDbEntity
  8
ASHADE
  6
Continuous
 62
     7
100
AcDbLine
 10
0.2041413561583015
 20
-0.2198324514393848
 30
0.0
 11
0.2721884748777353
 21
-0.2931099352525131
 31
0.0
  0
ARC
  5
4A
330
42
100
AcDbEntity
  8
ASHADE
  6
Continuous
 62
     7
100
AcDbCircle
 10
0.0
 20
0.0
 30
0.0
 40
0.3
100
AcDbArc
 50
25.67928861945685
 51
154.3207113805431
  0
LINE
  5
4B
330
42
100
AcDbEntity
  8
ASHADE
  6
Continuous
 62
     7
100
AcDbLine
 10
-0.2703701166919155
 20
0.13
 30
0.0
 11
-0.3154318028072347
 21
0.1516666666666666
 31
0.0
  0
LINE
  5
4C
330
42
100
AcDbEntity
  8
ASHADE
  6
Continuous
 62
     7
100
AcDbLine
 10
-0.2703701166919155
 20
-0.13
 30
0.0
 11
-0.3154318028072347
 21
-0.1516666666666666
 31
0.0
  0
LINE
  5
4D
330
42
100
AcDbEntity
  8
ASHADE
  6
Continuous
 62
     7
100
AcDbLine
 10
-0.2041413561583015
 20
0.2198324514393849
 30
0.0
 11
-0.2721884748777353
 21
0.2931099352525131
 31
0.0
  0
LINE
  5
4E
330
42
100
AcDbEntity
  8
ASHADE
  6
Continuous
 62
     7
100
AcDbLine
 10
-0.1096591641591904
 20
0.2792398032442862
 30
0.0
 11
-0.1279356915190555
 21
0.3257797704516674
 31
0.0
  0
LINE
  5
4F
330
42
100
AcDbEntity
  8
ASHADE
  6
Continuous
 62
     7
100
AcDbLine
 10
0.2703701166919155
 20
-0.13
 30
0.0
 11
0.3154318028072347
 21
-0.1516666666666666
 31
0.0
  0
LINE
  5
50
330
42
100
AcDbEntity
  8
ASHADE
  6
Continuous
 62
     7
100
AcDbLine
 10
0.2703701166919155
 20
0.13
 30
0.0
 11
0.3154318028072347
 21
0.1516666666666666
 31
0.0
  0
LINE
  5
51
330
42
100
AcDbEntity
  8
ASHADE
  6
Continuous
 62
     7
100
AcDbLine
 10
0.0
 20
0.3
 30
0.0
 11
0.0
 21
0.4
 31
0.0
  0
ATTDEF
  5
52
330
42
100
AcDbEntity
  8
ASHADE
  6
Continuous
 62
     7
100
AcDbText
 10
0.0
 20
0.22
 30
0.0
 40
0.01
  1
1
100
AcDbAttributeDefinition
280
     0
  3
Light Intensity
  2
INTENSITY
 70
     1
280
     0
  0
ATTDEF
  5
53
330
42
100
AcDbEntity
  8
ASHADE
  6
Continuous
 62
     7
100
AcDbText
 10
0.0
 20
0.16
 30
0.0
 40
0.01
  1
-1
100
AcDbAttributeDefinition
280
     0
  3
*not used*
  2
BEAMD
 70
     1
280
     0
  0
ATTDEF
  5
54
330
42
100
AcDbEntity
  8
ASHADE
  6
Continuous
 62
     7
100
AcDbText
 10
0.0
 20
0.175
 30
0.0
 40
0.01
  1
-1
100
AcDbAttributeDefinition
280
     0
  3
*not used*
  2
CONED
 70
     1
280
     0
  0
ATTDEF
  5
55
330
42
100
AcDbEntity
  8
ASHADE
  6
Continuous
 62
     7
100
AcDbText
 10
0.0
 20
0.19
 30
0.0
 40
0.01
  1
0
100
AcDbAttributeDefinition
280
     0
  3
Depth Map Size
  2
CONEA
 70
     1
280
     0
  0
ATTDEF
  5
56
330
42
100
AcDbEntity
  8
ASHADE
  6
Continuous
 62
     7
100
AcDbText
 10
0.0
 20
0.2050000000000001
 30
0.0
 40
0.01
  1
1,1,1
100
AcDbAttributeDefinition
280
     0
  3
Light Color (RGB)
  2
COLOR
 70
     1
280
     0
  0
ATTDEF
  5
57
330
42
100
AcDbEntity
  8
ASHADE
  6
Continuous
 62
     7
100
AcDbText
 10
0.0
 20
0.235
 30
0.0
 40
0.01
  1

100
AcDbAttributeDefinition
280
     0
  3
Look-at Z
  2
LAZ
 70
     1
280
     0
  0
ATTDEF
  5
58
330
42
100
AcDbEntity
  8
ASHADE
  6
Continuous
 62
     7
100
AcDbText
 10
0.0
 20
0.25
 30
0.0
 40
0.01
  1

100
AcDbAttributeDefinition
280
     0
  3
Look-at Y
  2
LAY
 70
     1
280
     0
  0
ATTDEF
  5
59
330
42
100
AcDbEntity
  8
ASHADE
  6
Continuous
 62
     7
100
AcDbText
 10
0.0
 20
0.265
 30
0.0
 40
0.01
  1

100
AcDbAttributeDefinition
280
     0
  3
Look-at X
  2
LAX
 70
     1
280
     0
  0
ATTDEF
  5
5A
330
42
100
AcDbEntity
  8
ASHADE
  6
Continuous
 62
     7
100
AcDbText
 10
0.0
 20
0.28
 30
0.0
 40
0.01
  1

100
AcDbAttributeDefinition
280
     0
  3

  2
GNAME
 70
     1
280
     0
  0
LINE
  5
5B
330
42
100
AcDbEntity
  8
ASHADE
  6
Continuous
 62
     7
100
AcDbLine
 10
0.1096591641591904
 20
0.2792398032442862
 30
0.0
 11
0.1279356915190555
 21
0.3257797704516674
 31
0.0
  0
LINE
  5
5C
330
42
100
AcDbEntity
  8
ASHADE
  6
Continuous
 62
     7
100
AcDbLine
 10
0.2041413561583015
 20
0.2198324514393849
 30
0.0
 11
0.2721884748777353
 21
0.2931099352525131
 31
0.0
  0
ENDBLK
  5
5E
330
42
100
AcDbEntity
  8
0
100
AcDbBlockEnd
  0
BLOCK
  5
85
330
5F
100
AcDbEntity
  8
0
100
AcDbBlockBegin
  2
sh_spot
 70
     2
 10
0.0
 20
0.0
 30
0.0
  3
sh_spot
  1

  0
LINE
  5
60
330
5F
100
AcDbEntity
  8
ASHADE
  6
Continuous
 62
     7
100
AcDbLine
 10
0.25
 20
0.26
 30
0.0
 11
-0.25
 21
0.26
 31
0.0
  0
LINE
  5
61
330
5F
100
AcDbEntity
  8
ASHADE
  6
Continuous
 62
     7
100
AcDbLine
 10
-0.25
 20
-0.3399999999999999
 30
0.0
 11
0.25
 21
-0.3399999999999999
 31
0.0
  0
ATTDEF
  5
62
330
5F
100
AcDbEntity
  8
ASHADE
  6
Continuous
 62
     1
100
AcDbText
 10
0.0
 20
-0.1
 30
0.0
 40
0.2
  1

  7
ASHADE
 72
     1
 11
0.0
 21
-0.1
 31
0.0
100
AcDbAttributeDefinition
280
     0
  3
Light Name
  2
SNAME
 70
     0
280
     0
  0
LINE
  5
63
330
5F
100
AcDbEntity
  8
ASHADE
  6
Continuous
 62
     7
100
AcDbLine
 10
-0.25
 20
-0.13
 30
0.0
 11
-0.25
 21
-0.3399999999999999
 31
0.0
  0
LINE
  5
64
330
5F
100
AcDbEntity
  8
ASHADE
  6
Continuous
 62
     7
100
AcDbLine
 10
-0.25
 20
-0.18
 30
0.0
 11
-0.29
 21
-0.18
 31
0.0
  0
LINE
  5
65
330
5F
100
AcDbEntity
  8
ASHADE
  6
Continuous
 62
     7
100
AcDbLine
 10
-0.29
 20
-0.22
 30
0.0
 11
-0.25
 21
-0.22
 31
0.0
  0
LINE
  5
66
330
5F
100
AcDbEntity
  8
ASHADE
  6
Continuous
 62
     7
100
AcDbLine
 10
-0.29
 20
-0.18
 30
0.0
 11
-0.29
 21
-0.22
 31
0.0
  0
LINE
  5
67
330
5F
100
AcDbEntity
  8
ASHADE
  6
Continuous
 62
     7
100
AcDbLine
 10
-0.1045454545454545
 20
0.26
 30
0.0
 11
-0.15
 21
0.46
 31
0.0
  0
LINE
  5
68
330
5F
100
AcDbEntity
  8
ASHADE
  6
Continuous
 62
     7
100
AcDbLine
 10
-0.21
 20
0.26
 30
0.0
 11
-0.301304347826087
 21
0.46
 31
0.0
  0
LINE
  5
69
330
5F
100
AcDbEntity
  8
ASHADE
  6
Continuous
 62
     7
100
AcDbLine
 10
-0.25
 20
0.26
 30
0.0
 11
-0.25
 21
0.13
 31
0.0
  0
LINE
  5
6A
330
5F
100
AcDbEntity
  8
ASHADE
  6
Continuous
 62
     7
100
AcDbLine
 10
-0.25
 20
0.22
 30
0.0
 11
-0.29
 21
0.22
 31
0.0
  0
LINE
  5
6B
330
5F
100
AcDbEntity
  8
ASHADE
  6
Continuous
 62
     7
100
AcDbLine
 10
-0.29
 20
0.1799999999999999
 30
0.0
 11
-0.25
 21
0.1799999999999999
 31
0.0
  0
LINE
  5
6C
330
5F
100
AcDbEntity
  8
ASHADE
  6
Continuous
 62
     7
100
AcDbLine
 10
-0.29
 20
0.22
 30
0.0
 11
-0.29
 21
0.1799999999999999
 31
0.0
  0
ATTDEF
  5
6D
330
5F
100
AcDbEntity
  8
ASHADE
  6
Continuous
 62
     7
100
AcDbText
 10
0.0
 20
-0.24
 30
0.0
 40
0.01
  1
0
100
AcDbAttributeDefinition
280
     0
  3
Depth Map Size
  2
ZSIZE
 70
     1
280
     0
  0
ATTDEF
  5
6E
330
5F
100
AcDbEntity
  8
ASHADE
  6
Continuous
 62
     7
100
AcDbText
 10
0.0
 20
-0.3300000000000001
 30
0.0
 40
0.01
  1
0,0,0
100
AcDbAttributeDefinition
280
     0
  3
Look-from XYZ
  2
LFXYZ
 70
     1
280
     0
  0
ATTDEF
  5
6F
330
5F
100
AcDbEntity
  8
ASHADE
  6
Continuous
 62
     7
100
AcDbText
 10
0.0
 20
-0.315
 30
0.0
 40
0.01
  1
0.0
100
AcDbAttributeDefinition
280
     0
  3
Beam Distribution
  2
BEAMDI
 70
     1
280
     0
  0
ATTDEF
  5
70
330
5F
100
AcDbEntity
  8
ASHADE
  6
Continuous
 62
     7
100
AcDbText
 10
0.0
 20
-0.3
 30
0.0
 40
0.01
  1
0.0
100
AcDbAttributeDefinition
280
     0
  3
Cone Delta
  2
CONEDE
 70
     1
280
     0
  0
ATTDEF
  5
71
330
5F
100
AcDbEntity
  8
ASHADE
  6
Continuous
 62
     7
100
AcDbText
 10
0.0
 20
-0.2850000000000001
 30
0.0
 40
0.01
  1
10.0
100
AcDbAttributeDefinition
280
     0
  3
Cone Angle
  2
CONEAN
 70
     1
280
     0
  0
ATTDEF
  5
72
330
5F
100
AcDbEntity
  8
ASHADE
  6
Continuous
 62
     7
100
AcDbText
 10
0.0
 20
-0.27
 30
0.0
 40
0.01
  1
-1
100
AcDbAttributeDefinition
280
     0
  3
*not used*
  2
BIASMAX
 70
     1
280
     0
  0
ATTDEF
  5
73
330
5F
100
AcDbEntity
  8
ASHADE
  6
Continuous
 62
     7
100
AcDbText
 10
0.0
 20
-0.255
 30
0.0
 40
0.01
  1
-1
100
AcDbAttributeDefinition
280
     0
  3
*not used*
  2
BIASMIN
 70
     1
280
     0
  0
ATTDEF
  5
74
330
5F
100
AcDbEntity
  8
ASHADE
  6
Continuous
 62
     7
100
AcDbText
 10
0.0
 20
-0.225
 30
0.0
 40
0.01
  1
1,1,1
100
AcDbAttributeDefinition
280
     0
  3
Light Color (RGB)
  2
COLOR
 70
     1
280
     0
  0
ATTDEF
  5
75
330
5F
100
AcDbEntity
  8
ASHADE
  6
Continuous
 62
     7
100
AcDbText
 10
0.0
 20
-0.21
 30
0.0
 40
0.01
  1
1
100
AcDbAttributeDefinition
280
     0
  3
Light Intensity
  2
INTENSITY
 70
     1
280
     0
  0
ATTDEF
  5
76
330
5F
100
AcDbEntity
  8
ASHADE
  6
Continuous
 62
     7
100
AcDbText
 10
0.0
 20
-0.15
 30
0.0
 40
0.01
  1

100
AcDbAttributeDefinition
280
     0
  3

  2
GNAME
 70
     1
280
     0
  0
ATTDEF
  5
77
330
5F
100
AcDbEntity
  8
ASHADE
  6
Continuous
 62
     7
100
AcDbText
 10
0.0
 20
-0.195
 30
0.0
 40
0.01
  1

100
AcDbAttributeDefinition
280
     0
  3
Look-at Z
  2
LAZ
 70
     1
280
     0
  0
ATTDEF
  5
78
330
5F
100
AcDbEntity
  8
ASHADE
  6
Continuous
 62
     7
100
AcDbText
 10
0.0
 20
-0.18
 30
0.0
 40
0.01
  1

100
AcDbAttributeDefinition
280
     0
  3
Look-at Y
  2
LAY
 70
     1
280
     0
  0
ATTDEF
  5
79
330
5F
100
AcDbEntity
  8
ASHADE
  6
Continuous
 62
     7
100
AcDbText
 10
0.0
 20
-0.165
 30
0.0
 40
0.01
  1

100
AcDbAttributeDefinition
280
     0
  3
Look-at X
  2
LAX
 70
     1
280
     0
  0
LINE
  5
7A
330
5F
100
AcDbEntity
  8
ASHADE
  6
Continuous
 62
     7
100
AcDbLine
 10
0.25
 20
-0.3399999999999999
 30
0.0
 11
0.25
 21
-0.13
 31
0.0
  0
LINE
  5
7B
330
5F
100
AcDbEntity
  8
ASHADE
  6
Continuous
 62
     7
100
AcDbLine
 10
0.25
 20
-0.18
 30
0.0
 11
0.29
 21
-0.18
 31
0.0
  0
LINE
  5
7C
330
5F
100
AcDbEntity
  8
ASHADE
  6
Continuous
 62
     7
100
AcDbLine
 10
0.29
 20
-0.22
 30
0.0
 11
0.25
 21
-0.22
 31
0.0
  0
LINE
  5
7D
330
5F
100
AcDbEntity
  8
ASHADE
  6
Continuous
 62
     7
100
AcDbLine
 10
0.29
 20
-0.18
 30
0.0
 11
0.29
 21
-0.22
 31
0.0
  0
LINE
  5
7E
330
5F
100
AcDbEntity
  8
ASHADE
  6
Continuous
 62
     7
100
AcDbLine
 10
0.21
 20
0.26
 30
0.0
 11
0.301304347826087
 21
0.46
 31
0.0
  0
LINE
  5
7F
330
5F
100
AcDbEntity
  8
ASHADE
  6
Continuous
 62
     7
100
AcDbLine
 10
0.1045454545454545
 20
0.26
 30
0.0
 11
0.15
 21
0.46
 31
0.0
  0
LINE
  5
80
330
5F
100
AcDbEntity
  8
ASHADE
  6
Continuous
 62
     7
100
AcDbLine
 10
0.0
 20
0.26
 30
0.0
 11
0.0
 21
0.46
 31
0.0
  0
LINE
  5
81
330
5F
100
AcDbEntity
  8
ASHADE
  6
Continuous
 62
     7
100
AcDbLine
 10
0.25
 20
0.13
 30
0.0
 11
0.25
 21
0.26
 31
0.0
  0
LINE
  5
82
330
5F
100
AcDbEntity
  8
ASHADE
  6
Continuous
 62
     7
100
AcDbLine
 10
0.25
 20
0.22
 30
0.0
 11
0.29
 21
0.22
 31
0.0
  0
LINE
  5
83
330
5F
100
AcDbEntity
  8
ASHADE
  6
Continuous
 62
     7
100
AcDbLine
 10
0.29
 20
0.1799999999999999
 30
0.0
 11
0.25
 21
0.1799999999999999
 31
0.0
  0
LINE
  5
84
330
5F
100
AcDbEntity
  8
ASHADE
  6
Continuous
 62
     7
100
AcDbLine
 10
0.29
 20
0.22
 30
0.0
 11
0.29
 21
0.1799999999999999
 31
0.0
  0
ENDBLK
  5
86
330
5F
100
AcDbEntity
  8
0
100
AcDbBlockEnd
  0
BLOCK
  5
92
330
91
100
AcDbEntity
  8
ASHADE
100
AcDbBlockBegin
  2
AVE_RENDER
 70
     0
 10
0.0
 20
0.0
 30
0.0
  3
AVE_RENDER
  1
AVE_RENDER
  0
ENDBLK
  5
93
330
91
100
AcDbEntity
  8
0
100
AcDbBlockEnd
  0
BLOCK
  5
A0
330
9F
100
AcDbEntity
  8
ASHADE
100
AcDbBlockBegin
  2
AVE_GLOBAL
 70
     0
 10
0.0
 20
0.0
 30
0.0
  3
AVE_GLOBAL
  1
AVE_GLOBAL
  0
ENDBLK
  5
A1
330
9F
100
AcDbEntity
  8
0
100
AcDbBlockEnd
  0
ENDSEC
  0
SECTION
  2
ENTITIES
  0
INSERT
  5
94
330
1F
100
AcDbEntity
  8
ASHADE
 62
     1
100
AcDbBlockReference
  2
AVE_RENDER
 10
0.0
 20
0.0
 30
0.0
1001
AVE_RENDER
1002
{
1070
     7
1000
Pref
1070
    30
1070
    20
1070
     1
1070
     0
1000

1070
    10
1070
     1
1070
    10
1040
1.0
1070
     1
1040
0.3
1040
0.7
1040
0.0
1040
10.0
1010
-1.0
1020
-1.0
1030
-1.0
1040
0.3
1070
    49
1070
     0
1070
     0
1010
1.0
1020
1.0
1030
1.0
1040
45.0
1070
     1
1070
     0
1000
WCS
1040
0.0
1070
     0
1040
10.0
1002
}
  0
INSERT
  5
95
330
1F
100
AcDbEntity
  8
ASHADE
 62
     3
100
AcDbBlockReference
  2
AVE_RENDER
 10
0.0
 20
0.0
 30
0.0
1001
AVE_RENDER
1002
{
1070
     0
1000
Full Opt
1070
     0
1070
     1
1070
     1
1070
     1
1070
     0
1070
     0
1070
     0
1070
     1
1070
     1
1040
0.0001
1040
0.0001
1002
}
  0
INSERT
  5
96
330
1F
100
AcDbEntity
  8
ASHADE
 62
     4
100
AcDbBlockReference
  2
AVE_RENDER
 10
0.0
 20
0.0
 30
0.0
1001
AVE_RENDER
1002
{
1070
     0
1000
Quick Opt
1070
     0
1070
     1
1070
     1
1070
     1
1070
     0
1070
     0
1070
     1
1002
}
  0
INSERT
  5
97
330
1F
100
AcDbEntity
  8
ASHADE
 62
     5
100
AcDbBlockReference
  2
AVE_RENDER
 10
0.0
 20
0.0
 30
0.0
1001
AVE_RENDER
1002
{
1070
     1
1000
Scanl Opt
1070
     2
1070
     0
1070
     2
1040
2.0
1040
4.0
1070
     0
1070
     1
1070
     0
1040
0.03
1002
}
  0
INSERT
  5
98
330
1F
100
AcDbEntity
  8
ASHADE
 62
     6
100
AcDbBlockReference
  2
AVE_RENDER
 10
0.0
 20
0.0
 30
0.0
1001
AVE_RENDER
1002
{
1070
     2
1000
Raytr Opt
1070
     2
1070
     0
1070
     2
1040
2.0
1040
4.0
1070
     0
1070
     1
1070
     1
1040
0.03
1070
     3
1040
0.03
1002
}
  0
INSERT
  5
99
330
1F
100
AcDbEntity
  8
ASHADE
 62
     7
100
AcDbBlockReference
  2
AVE_RENDER
 10
0.0
 20
0.0
 30
0.0
1001
AVE_RENDER
1002
{
1070
     0
1000
RFile Opt
1070
     1
1070
   640
1070
   480
1070
 10000
1070
     1
1070
     8
1070
     8
1070
     0
1070
     0
1070
     0
1070
     0
1070
     0
1070
     0
1070
     0
1002
}
  0
INSERT
  5
9A
330
1F
100
AcDbEntity
  8
ASHADE
 62
     8
100
AcDbBlockReference
  2
AVE_RENDER
 10
0.0
 20
0.0
 30
0.0
1001
AVE_RENDER
1002
{
1070
     0
1000
Fog Opt
1070
     0
1070
     0
1040
0.0
1040
1.0
1040
0.0
1040
1.0
1010
0.5
1020
0.5
1030
0.5
1002
}
  0
INSERT
  5
9B
330
1F
100
AcDbEntity
  8
ASHADE
 62
     9
100
AcDbBlockReference
  2
AVE_RENDER
 10
0.0
 20
0.0
 30
0.0
1001
AVE_RENDER
1002
{
1070
     0
1000
BG Opt
1070
     0
1070
     1
1010
0.0
1020
0.0
1030
0.0
1010
1.0
1020
0.0
1030
0.0
1010
0.0
1020
1.0
1030
0.0
1010
0.0
1020
0.0
1030
1.0
1040
0.5
1040
0.33
1040
0.0
1000

1070
     1
1000

1070
     1
1070
     1
1040
1.0
1040
1.0
1040
0.0
1040
0.0
1070
     0
1002
}
  0
INSERT
  5
A2
330
1F
100
AcDbEntity
  8
ASHADE
 62
     1
100
AcDbBlockReference
  2
AVE_GLOBAL
 10
0.0
 20
0.0
 30
0.0
1001
AVE_MATERIAL
1002
{
1000
*GLOBAL*
1000
2
1000
Global finish.
1002
{
1002
}
1002
{
1070
    63
1002
{
1002
{
1010
-1.0
1020
-1.0
1030
-1.0
1002
}
1040
0.1000000014901161
1000

1040
0.0
1002
{
1002
}
1040
0.0
1002
{
1002
}
1040
0.0
1002
}
1002
{
1002
{
1010
-1.0
1020
-1.0
1030
-1.0
1002
}
1040
0.6999999880790711
1000

1040
0.0
1002
{
1002
}
1040
0.0
1002
{
1002
}
1040
0.0
1002
}
1002
{
1002
{
1010
-1.0
1020
-1.0
1030
-1.0
1002
}
1040
0.2000000029802322
1000

1040
0.0
1002
{
1002
}
1040
0.0
1002
{
1002
}
1040
0.0
1002
}
1002
{
1070
     0
1002
{
1070
     1
1002
{
1040
1.0
1040
1.0
1000

1040
0.0
1002
{
1002
}
1040
0.0
1002
{
1002
}
1040
0.0
1002
}
1002
}
1040
1.0
1040
0.0
1040
0.0
1002
}
1002
{
1040
1.0
1040
1.0
1000

1040
0.0
1002
{
1002
}
1040
0.0
1002
{
1002
}
1040
0.0
1002
}
1002
{
1040
0.5
1040
1.0
1000

1040
0.0
1002
{
1002
}
1040
0.0
1002
{
1002
}
1040
0.0
1002
}
1002
{
1070
     0
1040
0.0
1002
{
1002
}
1040
1.0
1002
{
1002
}
1040
0.0
1002
}
1002
{
1040
0.0
1002
{
1002
{
1010
0.0
1020
0.0
1030
0.0
1002
}
1040
1.0
1000

1040
0.0
1002
{
1002
}
1040
0.0
1002
{
1002
}
1040
0.0
1002
}
1002
}
1002
{
1002
{
1070
     1
1002
{
1040
0.0
1040
1.0
1000

1040
0.0
1002
{
1002
}
1040
0.0
1002
{
1002
}
1040
0.0
1002
}
1002
}
1040
0.0
1002
{
1002
}
1010
1.0
1020
0.0
1030
0.0
1010
0.0
1020
1.0
1030
0.0
1010
0.0
1020
0.0
1030
1.0
1070
     0
1002
}
1002
{
1002
{
1040
1.0
1040
1.0
1002
{
1070
     1
1002
{
1040
1.0
1040
1.0
1000

1040
0.0
1002
{
1002
}
1040
0.0
1002
{
1002
}
1040
0.0
1002
}
1002
}
1002
}
1070
     0
1040
0.0
1002
{
1002
}
1002
}
1002
{
1002
}
1002
}
1002
{
1071
        3
1070
     3
1070
     0
1002
{
1070
     2
1070
     0
1070
     0
1040
0.0
1002
}
1070
     0
1070
     2
1002
{
1002
}
1002
}
1002
{
1040
8030.0
1040
190.3000030517578
1040
0.3050000071525574
1040
228.0
1040
545.0
1040
14.0
1040
17.39999961853027
1040
0.4560000002384186
1002
}
1002
}
  0
MESH
  5
F9
330
1F
100
AcDbEntity
  8
OracDecor_cornice_mouldings
 62
   214
420
  9510065
160
             28880
310
D0700000220300000C00000013000000020000003C0000000600000002000000000000E0FF3F8FC0000000007AB952C0000000000000F0BE000000E0FF3F8FC00000004033F353C0000000000000E8BE0C000000130000000A0000003C0000000600000002000000000000E0FF3F8FC00000004033F353C0000000000000E8
310
BE000000C0FF3F8F400000004033F353C0000000000000E8BE0C00000013000000120000003C0000000600000002000000000000C0FF3F8F400000004033F353C0000000000000E8BE000000C0FF3F8F40000000007AB952C0000000000000F0BE0C000000130000001A0000003C0000000600000002000000000000E0FF3F
310
8FC0000000007AB952C0000000000000F0BE000000C0FF3F8F40000000007AB952C0000000000000F0BE0C00000013000000220000003C0000000600000002000000000000E0FF3F8FC00000004033F353C0000000000000E8BE000000E0FF3F8FC00000004033F353C000000000CFCC20C00C000000130000002A0000003C
310
0000000600000002000000000000E0FF3F8FC00000004033F353C000000000CFCC20C0000000C0FF3F8F400000004033F353C000000000CFCC20C00C00000013000000320000003C0000000600000002000000000000C0FF3F8F400000004033F353C000000000CFCC20C0000000C0FF3F8F400000004033F353C000000000
310
0000E8BE0C000000130000003A0000003C0000000600000002000000000000E0FF3F8FC00000004033F353C000000000CFCC20C0000000E0FF3F8FC000000000C84C52C000000080CECC20C00C00000013000000420000003C0000000600000002000000000000E0FF3F8FC000000000C84C52C000000080CECC20C0000000
310
C0FF3F8F4000000000C84C52C000000080CECC20C00C000000130000004A0000003C0000000600000002000000000000C0FF3F8F4000000000C84C52C000000080CECC20C0000000C0FF3F8F400000004033F353C000000000CFCC20C00C00000013000000520000003C0000000600000002000000000000E0FF3F8FC00000
310
0000C84C52C000000080CECC20C0000000E0FF3F8FC0000000C0C54152C00000008090E820C00C000000130000005A0000003C0000000600000002000000000000E0FF3F8FC0000000C0C54152C00000008090E820C0000000C0FF3F8F40000000C0C54152C00000008090E820C00C00000013000000620000003C00000006
310
00000002000000000000C0FF3F8F40000000C0C54152C00000008090E820C0000000C0FF3F8F4000000000C84C52C000000080CECC20C00C000000130000006A0000003C0000000600000002000000000000E0FF3F8FC0000000C0C54152C00000008090E820C0000000E0FF3F8FC000000080BC3A52C000000040EF3121C0
310
0C00000013000000720000003C0000000600000002000000000000E0FF3F8FC000000080BC3A52C000000040EF3121C0000000C0FF3F8F4000000080BC3A52C000000040EF3121C00C000000130000007A0000003C0000000600000002000000000000C0FF3F8F4000000080BC3A52C000000040EF3121C0000000C0FF3F8F
310
40000000C0C54152C00000008090E820C00C00000013000000820000003C0000000600000002000000000000E0FF3F8FC000000080BC3A52C000000040EF3121C0000000E0FF3F8FC0000000803C3A52C0000000C0308E21C00C000000130000008A0000003C0000000600000002000000000000E0FF3F8FC0000000803C3A
310
52C0000000C0308E21C0000000C0FF3F8F40000000803C3A52C0000000C0308E21C00C00000013000000920000003C0000000600000002000000000000C0FF3F8F40000000803C3A52C0000000C0308E21C0000000C0FF3F8F4000000080BC3A52C000000040EF3121C00C000000130000009A0000003C0000000600000002
310
000000000000E0FF3F8FC0000000803C3A52C0000000C0308E21C0000000E0FF3F8FC0000000C0584E52C000000040FC9F26C00C00000013000000A20000003C0000000600000002000000000000E0FF3F8FC0000000C0584E52C000000040FC9F26C0000000C0FF3F8F40000000C0584E52C000000040FC9F26C00C000000
310
13000000AA0000003C0000000600000002000000000000C0FF3F8F40000000C0584E52C000000040FC9F26C0000000C0FF3F8F40000000803C3A52C0000000C0308E21C00C00000013000000B20000003C0000000600000002000000000000E0FF3F8FC0000000C0584E52C000000040FC9F26C0000000E0FF3F8FC0000000
310
C0433552C0000000C093AC2BC00C00000013000000BA0000003C0000000600000002000000000000E0FF3F8FC0000000C0433552C0000000C093AC2BC0000000C0FF3F8F40000000C0433552C0000000C093AC2BC00C00000013000000C20000003C0000000600000002000000000000C0FF3F8F40000000C0433552C00000
310
00C093AC2BC0000000C0FF3F8F40000000C0584E52C000000040FC9F26C00C00000013000000CA0000003C0000000600000002000000000000E0FF3F8FC0000000C0433552C0000000C093AC2BC0000000E0FF3F8FC000000040EEF051C0000000602E2830C00C00000013000000D20000003C000000060000000200000000
310
0000E0FF3F8FC000000040EEF051C0000000602E2830C0000000C0FF3F8F4000000040EEF051C0000000602E2830C00C00000013000000DA0000003C0000000600000002000000000000C0FF3F8F4000000040EEF051C0000000602E2830C0000000C0FF3F8F40000000C0433552C0000000C093AC2BC00C00000013000000
310
E20000003C0000000600000002000000000000E0FF3F8FC000000040EEF051C0000000602E2830C0000000E0FF3F8FC000000040868651C000000020B51832C00C00000013000000EA0000003C0000000600000002000000000000E0FF3F8FC000000040868651C000000020B51832C0000000C0FF3F8F4000000040868651
310
C000000020B51832C00C00000013000000F20000003C0000000600000002000000000000C0FF3F8F4000000040868651C000000020B51832C0000000C0FF3F8F4000000040EEF051C0000000602E2830C00C00000013000000FA0000003C0000000600000002000000000000E0FF3F8FC000000040868651C000000020B518
310
32C0000000E0FF3F8FC00000004032FE50C0000000A0B68133C00C00000013000000020100003C0000000600000002000000000000E0FF3F8FC00000004032FE50C0000000A0B68133C0000000C0FF3F8F400000004032FE50C0000000A0B68133C00C000000130000000A0100003C0000000600000002000000000000C0FF
310
3F8F400000004032FE50C0000000A0B68133C0000000C0FF3F8F4000000040868651C000000020B51832C00C00000013000000120100003C0000000600000002000000000000E0FF3F8FC00000004032FE50C0000000A0B68133C0000000E0FF3F8FC0000000006B6250C0000000E0914734C00C000000130000001A010000
310
3C0000000600000002000000000000E0FF3F8FC0000000006B6250C0000000E0914734C0000000C0FF3F8F40000000006B6250C0000000E0914734C00C00000013000000220100003C0000000600000002000000000000C0FF3F8F40000000006B6250C0000000E0914734C0000000C0FF3F8F400000004032FE50C0000000
310
A0B68133C00C000000130000002A0100003C0000000600000002000000000000E0FF3F8FC0000000006B6250C0000000E0914734C0000000E0FF3F8FC0000000E0F67D4FC0000000C0455B34C00C00000013000000320100003C0000000600000002000000000000E0FF3F8FC0000000E0F67D4FC0000000C0455B34C00000
310
00C0FF3F8F40000000E0F67D4FC0000000C0455B34C00C000000130000003A0100003C0000000600000002000000000000C0FF3F8F40000000E0F67D4FC0000000C0455B34C0000000C0FF3F8F40000000006B6250C0000000E0914734C00C00000013000000420100003C0000000600000002000000000000E0FF3F8FC000
310
0000E0F67D4FC0000000C0455B34C0000000E0FF3F8FC0000000E0F8404EC00000000044BB33C00C000000130000004A0100003C0000000600000002000000000000E0FF3F8FC0000000E0F8404EC00000000044BB33C0000000C0FF3F8F40000000E0F8404EC00000000044BB33C00C00000013000000520100003C000000
310
0600000002000000000000C0FF3F8F40000000E0F8404EC00000000044BB33C0000000C0FF3F8F40000000E0F67D4FC0000000C0455B34C00C000000130000005A0100003C0000000600000002000000000000E0FF3F8FC0000000E0F8404EC00000000044BB33C0000000E0FF3F8FC0000000E0DF2B4EC000000080CBB633
310
C00C00000013000000620100003C0000000600000002000000000000E0FF3F8FC0000000E0DF2B4EC000000080CBB633C0000000C0FF3F8F40000000E0DF2B4EC000000080CBB633C00C000000130000006A0100003C0000000600000002000000000000C0FF3F8F40000000E0DF2B4EC000000080CBB633C0000000C0FF3F
310
8F40000000E0F8404EC00000000044BB33C00C00000013000000720100003C0000000600000002000000000000E0FF3F8FC0000000E0DF2B4EC000000080CBB633C0000000E0FF3F8FC000000060DE184EC0000000404AC933C00C000000130000007A0100003C0000000600000002000000000000E0FF3F8FC000000060DE
310
184EC0000000404AC933C0000000C0FF3F8F4000000060DE184EC0000000404AC933C00C00000013000000820100003C0000000600000002000000000000C0FF3F8F4000000060DE184EC0000000404AC933C0000000C0FF3F8F40000000E0DF2B4EC000000080CBB633C00C000000130000008A0100003C00000006000000
310
02000000000000E0FF3F8FC000000060DE184EC0000000404AC933C0000000E0FF3F8FC0000000609B0D4EC0000000E03FED33C00C00000013000000920100003C0000000600000002000000000000E0FF3F8FC0000000609B0D4EC0000000E03FED33C0000000C0FF3F8F40000000609B0D4EC0000000E03FED33C00C0000
310
00130000009A0100003C0000000600000002000000000000C0FF3F8F40000000609B0D4EC0000000E03FED33C0000000C0FF3F8F4000000060DE184EC0000000404AC933C00C00000013000000A20100003C0000000600000002000000000000E0FF3F8FC0000000609B0D4EC0000000E03FED33C0000000E0FF3F8FC00000
310
00E0A0224DC0000000202F543AC00C00000013000000AA0100003C0000000600000002000000000000E0FF3F8FC0000000E0A0224DC0000000202F543AC0000000C0FF3F8F40000000E0A0224DC0000000202F543AC00C00000013000000B20100003C0000000600000002000000000000C0FF3F8F40000000E0A0224DC000
310
0000202F543AC0000000C0FF3F8F40000000609B0D4EC0000000E03FED33C00C00000013000000BA0100003C0000000600000002000000000000E0FF3F8FC0000000E0A0224DC0000000202F543AC0000000E0FF3F8FC0000000C09DF54AC0000000E0C71D3AC00C00000013000000C20100003C0000000600000002000000
310
000000C0FF3F8F40000000C09DF54AC0000000E0C71D3AC0000000E0FF3F8FC0000000C09DF54AC0000000E0C71D3AC00C00000013000000CA0100003C0000000600000002000000000000C0FF3F8F40000000C09DF54AC0000000E0C71D3AC0000000C0FF3F8F40000000E0A0224DC0000000202F543AC00C000000130000
310
00D20100003C0000000600000002000000000000E0FF3F8FC000000060847F49C00000006055473AC0000000E0FF3F8FC0000000C0C71248C0000000A0DFBC3AC00C00000013000000DA0100003C0000000600000002000000000000C0FF3F8F40000000C0C71248C0000000A0DFBC3AC0000000E0FF3F8FC0000000C0C712
310
48C0000000A0DFBC3AC00C00000013000000E20100003C0000000600000002000000000000C0FF3F8F40000000C0C71248C0000000A0DFBC3AC0000000C0FF3F8F4000000060847F49C00000006055473AC00C00000013000000EA0100003C0000000600000002000000000000E0FF3F8FC000000060847F49C00000006055
310
473AC0000000C0FF3F8F4000000060847F49C00000006055473AC00C00000013000000F20100003C0000000600000002000000000000E0FF3F8FC0000000C016A946C0000000C06F803BC0000000E0FF3F8FC0000000A08A5045C0000000205F8A3CC00C00000013000000FA0100003C0000000600000002000000000000C0
310
FF3F8F40000000A08A5045C0000000205F8A3CC0000000E0FF3F8FC0000000A08A5045C0000000205F8A3CC00C00000013000000020200003C0000000600000002000000000000C0FF3F8F40000000A08A5045C0000000205F8A3CC0000000C0FF3F8F40000000C016A946C0000000C06F803BC00C000000130000000A0200
310
003C0000000600000002000000000000E0FF3F8FC0000000C016A946C0000000C06F803BC0000000C0FF3F8F40000000C016A946C0000000C06F803BC00C00000013000000120200003C0000000600000002000000000000E0FF3F8FC000000040EE0244C0000000C076DF3DC0000000E0FF3F8FC00000004060CD42C00000
310
00604C723FC00C000000130000001A0200003C0000000600000002000000000000C0FF3F8F400000004060CD42C0000000604C723FC0000000E0FF3F8FC00000004060CD42C0000000604C723FC00C00000013000000220200003C0000000600000002000000000000C0FF3F8F400000004060CD42C0000000604C723FC000
310
0000C0FF3F8F4000000040EE0244C0000000C076DF3DC00C000000130000002A0200003C0000000600000002000000000000E0FF3F8FC000000040EE0244C0000000C076DF3DC0000000C0FF3F8F4000000040EE0244C0000000C076DF3DC00C00000013000000320200003C0000000600000002000000000000E0FF3F8FC0
310
000000804DAA41C0000000C011A540C0000000E0FF3F8FC0000000A011A540C0000000C04DAA41C00C000000130000003A0200003C0000000600000002000000000000C0FF3F8F40000000A011A540C0000000C04DAA41C0000000E0FF3F8FC0000000A011A540C0000000C04DAA41C00C00000013000000420200003C0000
310
000600000002000000000000C0FF3F8F40000000A011A540C0000000C04DAA41C0000000C0FF3F8F40000000804DAA41C0000000C011A540C00C000000130000004A0200003C0000000600000002000000000000E0FF3F8FC0000000804DAA41C0000000C011A540C0000000C0FF3F8F40000000804DAA41C0000000C011A5
310
40C00C00000013000000520200003C0000000600000002000000000000E0FF3F8FC0000000004C723FC00000008060CD42C0000000E0FF3F8FC00000000076DF3DC000000080EE0244C00C000000130000005A0200003C0000000600000002000000000000C0FF3F8F400000000076DF3DC000000080EE0244C0000000E0FF
310
3F8FC00000000076DF3DC000000080EE0244C00C00000013000000620200003C0000000600000002000000000000C0FF3F8F400000000076DF3DC000000080EE0244C0000000C0FF3F8F40000000004C723FC00000008060CD42C00C000000130000006A0200003C0000000600000002000000000000E0FF3F8FC000000000
310
4C723FC00000008060CD42C0000000C0FF3F8F40000000004C723FC00000008060CD42C00C00000013000000720200003C0000000600000002000000000000E0FF3F8FC0000000405E8A3CC0000000E08A5045C0000000E0FF3F8FC0000000806E803BC00000000017A946C00C000000130000007A0200003C000000060000
310
0002000000000000C0FF3F8F40000000806E803BC00000000017A946C0000000E0FF3F8FC0000000806E803BC00000000017A946C00C00000013000000820200003C0000000600000002000000000000C0FF3F8F40000000806E803BC00000000017A946C0000000C0FF3F8F40000000405E8A3CC0000000E08A5045C00C00
310
0000130000008A0200003C0000000600000002000000000000E0FF3F8FC0000000405E8A3CC0000000E08A5045C0000000C0FF3F8F40000000405E8A3CC0000000E08A5045C00C00000013000000920200003C0000000600000002000000000000E0FF3F8FC000000060DEBC3AC000000000C81248C0000000E0FF3F8FC000
310
00002054473AC0000000C0847F49C00C000000130000009A0200003C0000000600000002000000000000C0FF3F8F400000002054473AC0000000C0847F49C0000000E0FF3F8FC00000002054473AC0000000C0847F49C00C00000013000000A20200003C0000000600000002000000000000C0FF3F8F400000002054473AC0
310
000000C0847F49C0000000C0FF3F8F4000000060DEBC3AC000000000C81248C00C00000013000000AA0200003C0000000600000002000000000000E0FF3F8FC000000060DEBC3AC000000000C81248C0000000C0FF3F8F4000000060DEBC3AC000000000C81248C00C00000013000000B20200003C00000006000000020000
310
00000000E0FF3F8FC000000080C61D3AC0000000209EF54AC0000000E0FF3F8FC0000000A02D543AC000000020A1224DC00C00000013000000BA0200003C0000000600000002000000000000E0FF3F8FC0000000A02D543AC000000020A1224DC0000000C0FF3F8F40000000A02D543AC000000020A1224DC00C0000001300
310
0000C20200003C0000000600000002000000000000C0FF3F8F40000000A02D543AC000000020A1224DC0000000C0FF3F8F4000000080C61D3AC0000000209EF54AC00C00000013000000CA0200003C0000000600000002000000000000E0FF3F8FC000000080C61D3AC0000000209EF54AC0000000C0FF3F8F4000000080C6
310
1D3AC0000000209EF54AC00C00000013000000D20200003C0000000600000002000000000000E0FF3F8FC0000000A02D543AC000000020A1224DC0000000E0FF3F8FC0000000603EED33C0000000A09B0D4EC00C00000013000000DA0200003C0000000600000002000000000000E0FF3F8FC0000000603EED33C0000000A0
310
9B0D4EC0000000C0FF3F8F40000000603EED33C0000000A09B0D4EC00C00000013000000E20200003C0000000600000002000000000000C0FF3F8F40000000603EED33C0000000A09B0D4EC0000000C0FF3F8F40000000A02D543AC000000020A1224DC00C00000013000000EA0200003C0000000600000002000000000000
310
E0FF3F8FC0000000603EED33C0000000A09B0D4EC0000000E0FF3F8FC0000000C048C933C0000000A0DE184EC00C00000013000000F20200003C0000000600000002000000000000E0FF3F8FC0000000C048C933C0000000A0DE184EC0000000C0FF3F8F40000000C048C933C0000000A0DE184EC00C00000013000000FA02
310
00003C0000000600000002000000000000C0FF3F8F40000000C048C933C0000000A0DE184EC0000000C0FF3F8F40000000603EED33C0000000A09B0D4EC00C00000013000000020300003C0000000600000002000000000000E0FF3F8FC0000000C048C933C0000000A0DE184EC0000000E0FF3F8FC000000000CAB633C000
310
000020E02B4EC00C000000130000000A0300003C0000000600000002000000000000E0FF3F8FC000000000CAB633C000000020E02B4EC0000000C0FF3F8F4000000000CAB633C000000020E02B4EC00C00000013000000120300003C0000000600000002000000000000C0FF3F8F4000000000CAB633C000000020E02B4EC0
310
000000C0FF3F8F40000000C048C933C0000000A0DE184EC00C000000130000001A0300003C0000000600000002000000000000E0FF3F8FC000000000CAB633C000000020E02B4EC0000000E0FF3F8FC00000008042BB33C000000020F9404EC00C00000013000000220300003C0000000600000002000000000000E0FF3F8F
310
C00000008042BB33C000000020F9404EC0000000C0FF3F8F400000008042BB33C000000020F9404EC00C000000130000002A0300003C0000000600000002000000000000C0FF3F8F400000008042BB33C000000020F9404EC0000000C0FF3F8F4000000000CAB633C000000020E02B4EC00C00000013000000320300003C00
310
00000600000002000000000000E0FF3F8FC00000008042BB33C000000020F9404EC0000000E0FF3F8FC000000040445B34C000000020F77D4FC00C000000130000003A0300003C0000000600000002000000000000E0FF3F8FC000000040445B34C000000020F77D4FC0000000C0FF3F8F4000000040445B34C000000020F7
310
7D4FC00C00000013000000420300003C0000000600000002000000000000C0FF3F8F4000000040445B34C000000020F77D4FC0000000C0FF3F8F400000008042BB33C000000020F9404EC00C000000130000004A0300003C0000000600000002000000000000E0FF3F8FC000000040445B34C000000020F77D4FC0000000E0
310
FF3F8FC000000060904734C0000000006B6250C00C00000013000000520300003C0000000600000002000000000000E0FF3F8FC000000060904734C0000000006B6250C0000000C0FF3F8F4000000060904734C0000000006B6250C00C000000130000005A0300003C0000000600000002000000000000C0FF3F8F40000000
310
60904734C0000000006B6250C0000000C0FF3F8F4000000040445B34C000000020F77D4FC00C00000013000000620300003C0000000600000002000000000000E0FF3F8FC000000060904734C0000000006B6250C0000000E0FF3F8FC000000020B58133C00000006032FE50C00C000000130000006A0300003C0000000600
310
000002000000000000E0FF3F8FC000000020B58133C00000006032FE50C0000000C0FF3F8F4000000020B58133C00000006032FE50C00C00000013000000720300003C0000000600000002000000000000C0FF3F8F4000000020B58133C00000006032FE50C0000000C0FF3F8F4000000060904734C0000000006B6250C00C
310
000000130000007A0300003C0000000600000002000000000000E0FF3F8FC000000020B58133C00000006032FE50C0000000E0FF3F8FC000000060B31832C000000060868651C00C00000013000000820300003C0000000600000002000000000000E0FF3F8FC000000060B31832C000000060868651C0000000C0FF3F8F40
310
00000060B31832C000000060868651C00C000000130000008A0300003C0000000600000002000000000000C0FF3F8F4000000060B31832C000000060868651C0000000C0FF3F8F4000000020B58133C00000006032FE50C00C00000013000000920300003C0000000600000002000000000000E0FF3F8FC000000060B31832
310
C000000060868651C0000000E0FF3F8FC0000000A02C2830C000000040EEF051C00C000000130000009A0300003C0000000600000002000000000000E0FF3F8FC0000000A02C2830C000000040EEF051C0000000C0FF3F8F40000000A02C2830C000000040EEF051C00C00000013000000A20300003C000000060000000200
310
0000000000C0FF3F8F40000000A02C2830C000000040EEF051C0000000C0FF3F8F4000000060B31832C000000060868651C00C00000013000000AA0300003C0000000600000002000000000000E0FF3F8FC0000000A02C2830C000000040EEF051C0000000E0FF3F8FC00000008090AC2BC0000000C0433552C00C00000013
310
000000B20300003C0000000600000002000000000000E0FF3F8FC00000008090AC2BC0000000C0433552C0000000C0FF3F8F400000008090AC2BC0000000C0433552C00C00000013000000BA0300003C0000000600000002000000000000C0FF3F8F400000008090AC2BC0000000C0433552C0000000C0FF3F8F40000000A0
310
2C2830C000000040EEF051C00C00000013000000C20300003C0000000600000002000000000000E0FF3F8FC00000008090AC2BC0000000C0433552C0000000E0FF3F8FC000000080F89F26C0000000E0584E52C00C00000013000000CA0300003C0000000600000002000000000000E0FF3F8FC000000080F89F26C0000000
310
E0584E52C0000000C0FF3F8F4000000080F89F26C0000000E0584E52C00C00000013000000D20300003C0000000600000002000000000000C0FF3F8F4000000080F89F26C0000000E0584E52C0000000C0FF3F8F400000008090AC2BC0000000C0433552C00C00000013000000DA0300003C00000006000000020000000000
310
00E0FF3F8FC000000080F89F26C0000000E0584E52C0000000E0FF3F8FC0000000002D8E21C0000000A03C3A52C00C00000013000000E20300003C0000000600000002000000000000E0FF3F8FC0000000002D8E21C0000000A03C3A52C0000000C0FF3F8F40000000002D8E21C0000000A03C3A52C00C00000013000000EA
310
0300003C0000000600000002000000000000C0FF3F8F40000000002D8E21C0000000A03C3A52C0000000C0FF3F8F4000000080F89F26C0000000E0584E52C00C00000013000000F20300003C0000000600000002000000000000E0FF3F8FC0000000002D8E21C0000000A03C3A52C0000000E0FF3F8FC000000000EC3121C0
310
000000A0BC3A52C00C00000013000000FA0300003C0000000600000002000000000000E0FF3F8FC000000000EC3121C0000000A0BC3A52C0000000C0FF3F8F4000000000EC3121C0000000A0BC3A52C00C00000013000000020400003C0000000600000002000000000000C0FF3F8F4000000000EC3121C0000000A0BC3A52
310
C0000000C0FF3F8F40000000002D8E21C0000000A03C3A52C00C000000130000000A0400003C0000000600000002000000000000E0FF3F8FC000000000EC3121C0000000A0BC3A52C0000000E0FF3F8FC0000000008DE820C0000000E0C54152C00C00000013000000120400003C0000000600000002000000000000E0FF3F
310
8FC0000000008DE820C0000000E0C54152C0000000C0FF3F8F40000000008DE820C0000000E0C54152C00C000000130000001A0400003C0000000600000002000000000000C0FF3F8F40000000008DE820C0000000E0C54152C0000000C0FF3F8F4000000000EC3121C0000000A0BC3A52C00C00000013000000220400003C
310
0000000600000002000000000000E0FF3F8FC0000000008DE820C0000000E0C54152C0000000E0FF3F8FC000000000CBCC20C000000020C84C52C00C000000130000002A0400003C0000000600000002000000000000E0FF3F8FC000000000CBCC20C000000020C84C52C0000000C0FF3F8F4000000000CBCC20C000000020
310
C84C52C00C00000013000000320400003C0000000600000002000000000000C0FF3F8F4000000000CBCC20C000000020C84C52C0000000C0FF3F8F40000000008DE820C0000000E0C54152C00C000000130000003A0400003C0000000600000002000000000000E0FF3F8FC000000000CBCC20C000000020C84C52C0000000
310
E0FF3F8FC0000000C0CACC20C00000004033F353C00C00000013000000420400003C0000000600000002000000000000E0FF3F8FC0000000C0CACC20C00000004033F353C0000000C0FF3F8F40000000C0CACC20C00000004033F353C00C000000130000004A0400003C0000000600000002000000000000C0FF3F8F400000
310
00C0CACC20C00000004033F353C0000000C0FF3F8F4000000000CBCC20C000000020C84C52C00C00000013000000520400003C0000000600000002000000000000E0FF3F8FC0000000C0CACC20C00000004033F353C0000000E0FF3F8FC0000000000000E83E0000004033F353C00C000000130000005A0400003C00000006
310
00000002000000000000E0FF3F8FC0000000000000E83E0000004033F353C0000000C0FF3F8F40000000000000E83E0000004033F353C00C00000013000000620400003C0000000600000002000000000000C0FF3F8F40000000000000E83E0000004033F353C0000000C0FF3F8F40000000C0CACC20C00000004033F353C0
310
0C000000130000006A0400003C0000000600000002000000000000E0FF3F8FC0000000000000E83E0000004033F353C0000000E0FF3F8FC0000000000000E83E000000207AB952C00C00000013000000720400003C0000000600000002000000000000E0FF3F8FC0000000000000E83E000000207AB952C0000000C0FF3F8F
310
40000000000000E83E000000207AB952C00C000000130000007A0400003C0000000600000002000000000000C0FF3F8F40000000000000E83E000000207AB952C0000000C0FF3F8F40000000000000E83E0000004033F353C00C00000013000000820400003C0000000600000002000000000000E0FF3F8FC0000000000000
310
E83E000000207AB952C0000000E0FF3F8FC0000000004086EDBF00000040335352C00C000000130000008A0400003C0000000600000002000000000000E0FF3F8FC0000000004086EDBF00000040335352C0000000C0FF3F8F40000000004086EDBF00000040335352C00C00000013000000920400003C0000000600000002
310
000000000000C0FF3F8F40000000004086EDBF00000040335352C0000000C0FF3F8F40000000000000E83E000000207AB952C00C000000130000009A0400003C0000000600000002000000000000E0FF3F8FC0000000004086EDBF00000040335352C0000000E0FF3F8FC0000000001C90F2BF000000206F2952C00C000000
310
13000000A20400003C0000000600000002000000000000E0FF3F8FC0000000001C90F2BF000000206F2952C0000000C0FF3F8F40000000001C90F2BF000000206F2952C00C00000013000000AA0400003C0000000600000002000000000000C0FF3F8F40000000001C90F2BF000000206F2952C0000000C0FF3F8F40000000
310
004086EDBF00000040335352C00C00000013000000B20400003C0000000600000002000000000000E0FF3F8FC0000000001C90F2BF000000206F2952C0000000E0FF3F8FC0000000001C90F2BF00000040F7FC51C00C00000013000000BA0400003C0000000600000002000000000000E0FF3F8FC0000000001C90F2BF0000
310
0040F7FC51C0000000C0FF3F8F40000000001C90F2BF00000040F7FC51C00C00000013000000C20400003C0000000600000002000000000000C0FF3F8F40000000001C90F2BF00000040F7FC51C0000000C0FF3F8F40000000001C90F2BF000000206F2952C00C00000013000000CA0400003C000000060000000200000000
310
0000E0FF3F8FC0000000001C90F2BF00000040F7FC51C0000000E0FF3F8FC0000000004086EDBF0000004033D351C00C00000013000000D20400003C0000000600000002000000000000E0FF3F8FC0000000004086EDBF0000004033D351C0000000C0FF3F8F40000000004086EDBF0000004033D351C00C00000013000000
310
DA0400003C0000000600000002000000000000C0FF3F8F40000000004086EDBF0000004033D351C0000000C0FF3F8F40000000001C90F2BF00000040F7FC51C00C00000013000000E20400003C0000000600000002000000000000E0FF3F8FC0000000004086EDBF0000004033D351C0000000E0FF3F8FC0000000000000E8
310
3E00000060EC6C51C00C00000013000000EA0400003C0000000600000002000000000000E0FF3F8FC0000000000000E83E00000060EC6C51C0000000C0FF3F8F40000000000000E83E00000060EC6C51C00C00000013000000F20400003C0000000600000002000000000000C0FF3F8F40000000000000E83E00000060EC6C
310
51C0000000C0FF3F8F40000000004086EDBF0000004033D351C00C00000013000000FA0400003C0000000600000002000000000000E0FF3F8FC0000000000000E83E00000060EC6C51C0000000E0FF3F8FC0000000000000E83E000000804DC550C00C00000013000000020500003C0000000600000002000000000000E0FF
310
3F8FC0000000000000E83E000000804DC550C0000000C0FF3F8F40000000000000E83E000000804DC550C00C000000130000000A0500003C0000000600000002000000000000C0FF3F8F40000000000000E83E000000804DC550C0000000C0FF3F8F40000000000000E83E00000060EC6C51C00C0000001300000012050000
310
3C0000000600000002000000000000E0FF3F8FC0000000000000E83E000000804DC550C0000000E0FF3F8FC0000000006052C3BF000000A08B8E50C00C000000130000001A0500003C0000000600000002000000000000E0FF3F8FC0000000006052C3BF000000A08B8E50C0000000C0FF3F8F40000000006052C3BF000000
310
A08B8E50C00C00000013000000220500003C0000000600000002000000000000C0FF3F8F40000000006052C3BF000000A08B8E50C0000000C0FF3F8F40000000000000E83E000000804DC550C00C000000130000002A0500003C0000000600000002000000000000E0FF3F8FC0000000006052C3BF000000A08B8E50C00000
310
00E0FF3F8FC00000000090BFE2BF00000040615E50C00C00000013000000320500003C0000000600000002000000000000E0FF3F8FC00000000090BFE2BF00000040615E50C0000000C0FF3F8F400000000090BFE2BF00000040615E50C00C000000130000003A0500003C0000000600000002000000000000C0FF3F8F4000
310
00000090BFE2BF00000040615E50C0000000C0FF3F8F40000000006052C3BF000000A08B8E50C00C00000013000000420500003C0000000600000002000000000000E0FF3F8FC00000000090BFE2BF00000040615E50C0000000E0FF3F8FC0000000000C09F4BF00000020A83A50C00C000000130000004A0500003C000000
310
0600000002000000000000E0FF3F8FC0000000000C09F4BF00000020A83A50C0000000C0FF3F8F40000000000C09F4BF00000020A83A50C00C00000013000000520500003C0000000600000002000000000000C0FF3F8F40000000000C09F4BF00000020A83A50C0000000C0FF3F8F400000000090BFE2BF00000040615E50
310
C00C000000130000005A0500003C0000000600000002000000000000E0FF3F8FC000000000388D00C0000000E0B22750C0000000E0FF3F8FC0000000000C09F4BF00000020A83A50C00C00000013000000620500003C0000000600000002000000000000E0FF3F8FC000000000388D00C0000000E0B22750C0000000C0FF3F
310
8F4000000000388D00C0000000E0B22750C00C000000130000006A0500003C0000000600000002000000000000C0FF3F8F4000000000388D00C0000000E0B22750C0000000C0FF3F8F40000000000C09F4BF00000020A83A50C00C00000013000000720500003C0000000600000002000000000000E0FF3F8FC00000000038
310
8D00C0000000E0B22750C0000000E0FF3F8FC0000000009BFA13C00000000006DB4FC00C000000130000007A0500003C0000000600000002000000000000E0FF3F8FC0000000009BFA13C00000000006DB4FC0000000C0FF3F8F40000000009BFA13C00000000006DB4FC00C00000013000000820500003C00000006000000
310
02000000000000C0FF3F8F4000000000388D00C0000000E0B22750C0000000C0FF3F8F40000000009BFA13C00000000006DB4FC00C000000130000008A0500003C0000000600000002000000000000E0FF3F8FC0000000009BFA13C00000000006DB4FC0000000E0FF3F8FC00000008051611EC0000000C0980B4FC00C0000
310
0013000000920500003C0000000600000002000000000000E0FF3F8FC00000008051611EC0000000C0980B4FC0000000C0FF3F8F400000008051611EC0000000C0980B4FC00C000000130000009A0500003C0000000600000002000000000000C0FF3F8F400000008051611EC0000000C0980B4FC0000000C0FF3F8F400000
310
00009BFA13C00000000006DB4FC00C00000013000000A20500003C0000000600000002000000000000E0FF3F8FC00000008051611EC0000000C0980B4FC0000000E0FF3F8FC0000000C0756623C0000000C0A8EE4DC00C00000013000000AA0500003C0000000600000002000000000000E0FF3F8FC0000000C0756623C000
310
0000C0A8EE4DC0000000C0FF3F8F40000000C0756623C0000000C0A8EE4DC00C00000013000000B20500003C0000000600000002000000000000C0FF3F8F40000000C0756623C0000000C0A8EE4DC0000000C0FF3F8F400000008051611EC0000000C0980B4FC00C00000013000000BA0500003C0000000600000002000000
310
000000E0FF3F8FC0000000C0756623C0000000C0A8EE4DC0000000E0FF3F8FC0000000807A2030C000000080228549C00C00000013000000C20500003C0000000600000002000000000000E0FF3F8FC0000000807A2030C000000080228549C0000000C0FF3F8F40000000807A2030C000000080228549C00C000000130000
310
00CA0500003C0000000600000002000000000000C0FF3F8F40000000807A2030C000000080228549C0000000C0FF3F8F40000000C0756623C0000000C0A8EE4DC00C00000013000000D20500003C0000000600000002000000000000E0FF3F8FC0000000807A2030C000000080228549C0000000E0FF3F8FC0000000600407
310
31C0000000E06BB948C00C00000013000000DA0500003C0000000600000002000000000000E0FF3F8FC000000060040731C0000000E06BB948C0000000C0FF3F8F4000000060040731C0000000E06BB948C00C00000013000000E20500003C0000000600000002000000000000C0FF3F8F4000000060040731C0000000E06B
310
B948C0000000C0FF3F8F40000000807A2030C000000080228549C00C00000013000000EA0500003C0000000600000002000000000000E0FF3F8FC000000060040731C0000000E06BB948C0000000E0FF3F8FC0000000A0038B31C0000000C0DAD847C00C00000013000000F20500003C0000000600000002000000000000E0
310
FF3F8FC0000000A0038B31C0000000C0DAD847C0000000C0FF3F8F40000000A0038B31C0000000C0DAD847C00C00000013000000FA0500003C0000000600000002000000000000C0FF3F8F40000000A0038B31C0000000C0DAD847C0000000C0FF3F8F4000000060040731C0000000E06BB948C00C00000013000000020600
310
003C0000000600000002000000000000E0FF3F8FC0000000A0038B31C0000000C0DAD847C0000000E0FF3F8FC000000060069633C000000020323544C00C000000130000000A0600003C0000000600000002000000000000E0FF3F8FC000000060069633C000000020323544C0000000C0FF3F8F4000000060069633C00000
310
0020323544C00C00000013000000120600003C0000000600000002000000000000C0FF3F8F4000000060069633C000000020323544C0000000C0FF3F8F40000000A0038B31C0000000C0DAD847C00C000000130000001A0600003C0000000600000002000000000000E0FF3F8FC000000060069633C000000020323544C000
310
0000E0FF3F8FC0000000E0081137C0000000C0FCD940C00C00000013000000220600003C0000000600000002000000000000E0FF3F8FC0000000E0081137C0000000C0FCD940C0000000C0FF3F8F40000000E0081137C0000000C0FCD940C00C000000130000002A0600003C0000000600000002000000000000C0FF3F8F40
310
000000E0081137C0000000C0FCD940C0000000C0FF3F8F4000000060069633C000000020323544C00C00000013000000320600003C0000000600000002000000000000E0FF3F8FC0000000E0081137C0000000C0FCD940C0000000E0FF3F8FC000000040ADD63BC0000000E0ADD63BC00C000000130000003A0600003C0000
310
000600000002000000000000E0FF3F8FC000000040ADD63BC0000000E0ADD63BC0000000C0FF3F8F4000000040ADD63BC0000000E0ADD63BC00C00000013000000420600003C0000000600000002000000000000C0FF3F8F4000000040ADD63BC0000000E0ADD63BC0000000C0FF3F8F40000000E0081137C0000000C0FCD9
310
40C00C000000130000004A0600003C0000000600000002000000000000E0FF3F8FC000000040ADD63BC0000000E0ADD63BC0000000E0FF3F8FC000000060FCD940C0000000E0091137C00C00000013000000520600003C0000000600000002000000000000E0FF3F8FC000000060FCD940C0000000E0091137C0000000C0FF
310
3F8F4000000060FCD940C0000000E0091137C00C000000130000005A0600003C0000000600000002000000000000C0FF3F8F4000000060FCD940C0000000E0091137C0000000C0FF3F8F4000000040ADD63BC0000000E0ADD63BC00C00000013000000620600003C0000000600000002000000000000E0FF3F8FC000000060
310
FCD940C0000000E0091137C0000000E0FF3F8FC0000000C0313544C000000060079633C00C000000130000006A0600003C0000000600000002000000000000E0FF3F8FC0000000C0313544C000000060079633C0000000C0FF3F8F40000000C0313544C000000060079633C00C00000013000000720600003C000000060000
310
0002000000000000C0FF3F8F40000000C0313544C000000060079633C0000000C0FF3F8F4000000060FCD940C0000000E0091137C00C000000130000007A0600003C0000000600000002000000000000E0FF3F8FC0000000C0313544C000000060079633C0000000E0FF3F8FC000000060DAD847C0000000E0048B31C00C00
310
000013000000820600003C0000000600000002000000000000E0FF3F8FC000000060DAD847C0000000E0048B31C0000000C0FF3F8F4000000060DAD847C0000000E0048B31C00C000000130000008A0600003C0000000600000002000000000000C0FF3F8F4000000060DAD847C0000000E0048B31C0000000C0FF3F8F4000
310
0000C0313544C000000060079633C00C00000013000000920600003C0000000600000002000000000000E0FF3F8FC000000060DAD847C0000000E0048B31C0000000E0FF3F8FC0000000806BB948C0000000A0050731C00C000000130000009A0600003C0000000600000002000000000000E0FF3F8FC0000000806BB948C0
310
000000A0050731C0000000C0FF3F8F40000000806BB948C0000000A0050731C00C00000013000000A20600003C0000000600000002000000000000C0FF3F8F40000000806BB948C0000000A0050731C0000000C0FF3F8F4000000060DAD847C0000000E0048B31C00C00000013000000AA0600003C00000006000000020000
310
00000000E0FF3F8FC0000000806BB948C0000000A0050731C0000000E0FF3F8FC000000020228549C0000000C07B2030C00C00000013000000B20600003C0000000600000002000000000000E0FF3F8FC000000020228549C0000000C07B2030C0000000C0FF3F8F4000000020228549C0000000C07B2030C00C0000001300
310
0000BA0600003C0000000600000002000000000000C0FF3F8F4000000020228549C0000000C07B2030C0000000C0FF3F8F40000000806BB948C0000000A0050731C00C00000013000000C20600003C0000000600000002000000000000E0FF3F8FC000000020228549C0000000C07B2030C0000000E0FF3F8FC0000000E0A8
310
EE4DC000000080786623C00C00000013000000CA0600003C0000000600000002000000000000E0FF3F8FC0000000E0A8EE4DC000000080786623C0000000C0FF3F8F40000000E0A8EE4DC000000080786623C00C00000013000000D20600003C0000000600000002000000000000C0FF3F8F40000000E0A8EE4DC000000080
310
786623C0000000C0FF3F8F4000000020228549C0000000C07B2030C00C00000013000000DA0600003C0000000600000002000000000000E0FF3F8FC0000000E0A8EE4DC000000080786623C0000000E0FF3F8FC0000000E0980B4FC00000008057611EC00C00000013000000E20600003C0000000600000002000000000000
310
E0FF3F8FC0000000E0980B4FC00000008057611EC0000000C0FF3F8F40000000E0980B4FC00000008057611EC00C00000013000000EA0600003C0000000600000002000000000000C0FF3F8F40000000E0980B4FC00000008057611EC0000000C0FF3F8F40000000E0A8EE4DC000000080786623C00C00000013000000F206
310
00003C0000000600000002000000000000E0FF3F8FC0000000E0980B4FC00000008057611EC0000000E0FF3F8FC00000000006DB4FC000000000A0FA13C00C00000013000000FA0600003C0000000600000002000000000000E0FF3F8FC00000000006DB4FC000000000A0FA13C0000000C0FF3F8F400000000006DB4FC000
310
000000A1FA13C00C00000013000000020700003C0000000600000002000000000000C0FF3F8F400000000006DB4FC000000000A1FA13C0000000C0FF3F8F40000000E0980B4FC00000008057611EC00C000000130000000A0700003C0000000600000002000000000000E0FF3F8FC00000000006DB4FC000000000A0FA13C0
310
000000E0FF3F8FC0000000C0B22750C000000000468D00C00C00000013000000120700003C0000000600000002000000000000E0FF3F8FC0000000C0B22750C000000000468D00C0000000C0FF3F8F40000000C0B22750C000000000468D00C00C000000130000001A0700003C0000000600000002000000000000C0FF3F8F
310
40000000C0B22750C000000000468D00C0000000C0FF3F8F400000000006DB4FC000000000A1FA13C00C00000013000000220700003C0000000600000002000000000000E0FF3F8FC0000000C0B22750C000000000468D00C0000000E0FF3F8FC000000000A83A50C0000000002809F4BF0C000000130000002A0700003C00
310
00000600000002000000000000E0FF3F8FC000000000A83A50C0000000002809F4BF000000C0FF3F8F4000000000A83A50C0000000002809F4BF0C00000013000000320700003C0000000600000002000000000000C0FF3F8F4000000000A83A50C0000000002809F4BF000000C0FF3F8F40000000C0B22750C00000000046
310
8D00C00C000000130000003A0700003C0000000600000002000000000000E0FF3F8FC000000000A83A50C0000000002809F4BF000000E0FF3F8FC000000020615E50C000000000C8BFE2BF0C00000013000000420700003C0000000600000002000000000000E0FF3F8FC000000020615E50C000000000C8BFE2BF000000C0
310
FF3F8F4000000020615E50C000000000C8BFE2BF0C000000130000004A0700003C0000000600000002000000000000C0FF3F8F4000000020615E50C000000000C8BFE2BF000000C0FF3F8F4000000000A83A50C0000000002809F4BF0C00000013000000520700003C0000000600000002000000000000E0FF3F8FC0000000
310
20615E50C000000000C8BFE2BF000000E0FF3F8FC0000000808B8E50C0000000004053C3BF0C000000130000005A0700003C0000000600000002000000000000E0FF3F8FC0000000808B8E50C0000000004053C3BF000000C0FF3F8F40000000808B8E50C0000000004053C3BF0C00000013000000620700003C0000000600
310
000002000000000000C0FF3F8F40000000808B8E50C0000000004053C3BF000000C0FF3F8F4000000020615E50C000000000C8BFE2BF0C000000130000006A0700003C0000000600000002000000000000E0FF3F8FC0000000808B8E50C0000000004053C3BF000000E0FF3F8FC0000000604DC550C0000000000000F0BE0C
310
00000013000000720700003C0000000600000002000000000000E0FF3F8FC0000000604DC550C0000000000000F0BE000000C0FF3F8F40000000604DC550C0000000000000F0BE0C000000130000007A0700003C0000000600000002000000000000C0FF3F8F40000000604DC550C0000000000000F0BE000000C0FF3F8F40
310
000000808B8E50C0000000004053C3BF0C00000013000000820700003C0000000600000002000000000000E0FF3F8FC0000000604DC550C0000000000000F0BE000000E0FF3F8FC000000040EC6C51C0000000000000F0BE0C000000130000008A0700003C0000000600000002000000000000E0FF3F8FC000000040EC6C51
310
C0000000000000F0BE000000C0FF3F8F4000000040EC6C51C0000000000000F0BE0C00000013000000920700003C0000000600000002000000000000C0FF3F8F4000000040EC6C51C0000000000000F0BE000000C0FF3F8F40000000604DC550C0000000000000F0BE0C000000130000009A0700003C000000060000000200
310
0000000000E0FF3F8FC000000040EC6C51C0000000000000F0BE000000E0FF3F8FC00000004033D351C0000000007886EDBF0C00000013000000A20700003C0000000600000002000000000000E0FF3F8FC00000004033D351C0000000007886EDBF000000C0FF3F8F400000004033D351C0000000007886EDBF0C00000013
310
000000AA0700003C0000000600000002000000000000C0FF3F8F400000004033D351C0000000007886EDBF000000C0FF3F8F4000000040EC6C51C0000000000000F0BE0C00000013000000B20700003C0000000600000002000000000000E0FF3F8FC00000004033D351C0000000007886EDBF000000E0FF3F8FC000000040
310
F7FC51C0000000003890F2BF0C00000013000000BA0700003C0000000600000002000000000000E0FF3F8FC000000040F7FC51C0000000003890F2BF000000C0FF3F8F4000000040F7FC51C0000000003890F2BF0C00000013000000C20700003C0000000600000002000000000000C0FF3F8F4000000040F7FC51C0000000
310
003890F2BF000000C0FF3F8F400000004033D351C0000000007886EDBF0C00000013000000CA0700003C0000000600000002000000000000E0FF3F8FC000000040F7FC51C0000000003890F2BF000000E0FF3F8FC0000000006F2952C0000000003890F2BF0C00000013000000D20700003C00000006000000020000000000
310
00E0FF3F8FC0000000006F2952C0000000003890F2BF000000C0FF3F8F40000000006F2952C0000000003890F2BF0C00000013000000DA0700003C0000000600000002000000000000C0FF3F8F40000000006F2952C0000000003890F2BF000000C0FF3F8F4000000040F7FC51C0000000003890F2BF0C00000013000000E2
310
0700003C0000000600000002000000000000E0FF3F8FC0000000006F2952C0000000003890F2BF000000E0FF3F8FC000000040335352C0000000007886EDBF0C00000013000000EA0700003C0000000600000002000000000000E0FF3F8FC000000040335352C0000000007886EDBF000000C0FF3F8F4000000040335352C0
310
000000007886EDBF0C00000013000000F20700003C0000000600000002000000000000C0FF3F8F4000000040335352C0000000007886EDBF000000C0FF3F8F40000000006F2952C0000000003890F2BF0C00000013000000FA0700003C0000000600000002000000000000E0FF3F8FC000000040335352C0000000007886ED
310
BF000000E0FF3F8FC0000000007AB952C0000000000000F0BE0C00000013000000020800003C0000000600000002000000000000C0FF3F8F40000000007AB952C0000000000000F0BE000000C0FF3F8F4000000040335352C0000000007886EDBF0C000000130000000A0800003C0000000600000002000000000000E0FF3F
310
8FC000000060847F49C00000006055473AC0000000E0FF3F8FC0000000C09DF54AC0000000E0C71D3AC00C00000013000000120800003C0000000600000002000000000000C0FF3F8F40000000C09DF54AC0000000E0C71D3AC0000000C0FF3F8F4000000060847F49C00000006055473AC00C000000130000001A0800003C
310
0000000600000002000000000000E0FF3F8FC0000000C016A946C0000000C06F803BC0000000E0FF3F8FC0000000C0C71248C0000000A0DFBC3AC00C00000013000000220800003C0000000600000002000000000000C0FF3F8F40000000C0C71248C0000000A0DFBC3AC0000000C0FF3F8F40000000C016A946C0000000C0
310
6F803BC00C000000130000002A0800003C0000000600000002000000000000E0FF3F8FC000000040EE0244C0000000C076DF3DC0000000E0FF3F8FC0000000A08A5045C0000000205F8A3CC00C00000013000000320800003C0000000600000002000000000000C0FF3F8F40000000A08A5045C0000000205F8A3CC0000000
310
C0FF3F8F4000000040EE0244C0000000C076DF3DC00C000000130000003A0800003C0000000600000002000000000000E0FF3F8FC0000000804DAA41C0000000C011A540C0000000E0FF3F8FC00000004060CD42C0000000604C723FC00C00000013000000420800003C0000000600000002000000000000C0FF3F8F400000
310
004060CD42C0000000604C723FC0000000C0FF3F8F40000000804DAA41C0000000C011A540C00C000000130000004A0800003C0000000600000002000000000000E0FF3F8FC0000000004C723FC00000008060CD42C0000000E0FF3F8FC0000000A011A540C0000000C04DAA41C00C00000013000000520800003C00000006
310
00000002000000000000C0FF3F8F40000000A011A540C0000000C04DAA41C0000000C0FF3F8F40000000004C723FC00000008060CD42C00C000000130000005A0800003C0000000600000002000000000000E0FF3F8FC0000000405E8A3CC0000000E08A5045C0000000E0FF3F8FC00000000076DF3DC000000080EE0244C0
310
0C00000013000000620800003C0000000600000002000000000000C0FF3F8F400000000076DF3DC000000080EE0244C0000000C0FF3F8F40000000405E8A3CC0000000E08A5045C00C000000130000006A0800003C0000000600000002000000000000E0FF3F8FC000000060DEBC3AC000000000C81248C0000000E0FF3F8F
310
C0000000806E803BC00000000017A946C00C00000013000000720800003C0000000600000002000000000000C0FF3F8F40000000806E803BC00000000017A946C0000000C0FF3F8F4000000060DEBC3AC000000000C81248C00C000000130000007A0800003C0000000600000002000000000000E0FF3F8FC000000080C61D
310
3AC0000000209EF54AC0000000E0FF3F8FC00000002054473AC0000000C0847F49C00C00000013000000820800003C0000000600000002000000000000C0FF3F8F400000002054473AC0000000C0847F49C0000000C0FF3F8F4000000080C61D3AC0000000209EF54AC00C000000130000008A0800003C0000000600000002
310
000000000000E0FF3F8FC000000000388D00C0000000E0B22750C0000000E0FF3F8FC000000000EC3121C0000000A0BC3A52C00C00000013000000920800003C0000000600000002000000000000E0FF3F8FC0000000009BFA13C00000000006DB4FC0000000E0FF3F8FC0000000002D8E21C0000000A03C3A52C00C000000
310
130000009A0800003C0000000600000002000000000000E0FF3F8FC0000000007AB952C0000000000000F0BE000000E0FF3F8FC00000004033F353C000000000CFCC20C00C00000013000000A20800003C0000000600000002000000000000E0FF3F8FC000000040335352C0000000007886EDBF000000E0FF3F8FC0000000
310
4033F353C000000000CFCC20C00C00000013000000AA0800003C0000000600000002000000000000E0FF3F8FC0000000006F2952C0000000003890F2BF000000E0FF3F8FC000000000C84C52C000000080CECC20C00C00000013000000B20800003C0000000600000002000000000000E0FF3F8FC0000000C0B22750C00000
310
0000468D00C0000000E0FF3F8FC000000080BC3A52C000000040EF3121C00C00000013000000BA0800003C0000000600000002000000000000E0FF3F8FC00000000006DB4FC000000000A0FA13C0000000E0FF3F8FC0000000803C3A52C0000000C0308E21C00C00000013000000C20800003C000000060000000200000000
310
0000E0FF3F8FC000000000A83A50C0000000002809F4BF000000E0FF3F8FC000000080BC3A52C000000040EF3121C00C00000013000000CA0800003C0000000600000002000000000000E0FF3F8FC000000020615E50C000000000C8BFE2BF000000E0FF3F8FC000000080BC3A52C000000040EF3121C00C00000013000000
310
D20800003C0000000600000002000000000000E0FF3F8FC000000040F7FC51C0000000003890F2BF000000E0FF3F8FC0000000C0C54152C00000008090E820C00C00000013000000DA0800003C0000000600000002000000000000E0FF3F8FC00000004033D351C0000000007886EDBF000000E0FF3F8FC0000000C0C54152
310
C00000008090E820C00C00000013000000E20800003C0000000600000002000000000000E0FF3F8FC000000040EC6C51C0000000000000F0BE000000E0FF3F8FC0000000C0C54152C00000008090E820C00C00000013000000EA0800003C0000000600000002000000000000E0FF3F8FC0000000604DC550C0000000000000
310
F0BE000000E0FF3F8FC0000000C0C54152C00000008090E820C00C00000013000000F20800003C0000000600000002000000000000E0FF3F8FC0000000808B8E50C0000000004053C3BF000000E0FF3F8FC000000080BC3A52C000000040EF3121C00C00000013000000FA0800003C0000000600000002000000000000E0FF
310
3F8FC0000000E0980B4FC00000008057611EC0000000E0FF3F8FC0000000C0584E52C000000040FC9F26C00C00000013000000020900003C0000000600000002000000000000E0FF3F8FC0000000E0980B4FC00000008057611EC0000000E0FF3F8FC0000000C0433552C0000000C093AC2BC00C000000130000000A090000
310
3C0000000600000002000000000000E0FF3F8FC0000000E0980B4FC00000008057611EC0000000E0FF3F8FC000000040EEF051C0000000602E2830C00C00000013000000120900003C0000000600000002000000000000E0FF3F8FC0000000E0980B4FC00000008057611EC0000000E0FF3F8FC000000040868651C0000000
310
20B51832C00C000000130000001A0900003C0000000600000002000000000000E0FF3F8FC0000000E0A8EE4DC000000080786623C0000000E0FF3F8FC00000004032FE50C0000000A0B68133C00C00000013000000220900003C0000000600000002000000000000E0FF3F8FC0000000E0A8EE4DC000000080786623C00000
310
00E0FF3F8FC0000000006B6250C0000000E0914734C00C000000130000002A0900003C0000000600000002000000000000E0FF3F8FC0000000E0A8EE4DC000000080786623C0000000E0FF3F8FC0000000E0F67D4FC0000000C0455B34C00C00000013000000320900003C0000000600000002000000000000E0FF3F8FC000
310
0000E0A8EE4DC000000080786623C0000000E0FF3F8FC0000000E0F8404EC00000000044BB33C00C000000130000003A0900003C0000000600000002000000000000E0FF3F8FC0000000E0A8EE4DC000000080786623C0000000E0FF3F8FC0000000E0DF2B4EC000000080CBB633C00C00000013000000420900003C000000
310
0600000002000000000000E0FF3F8FC000000020228549C0000000C07B2030C0000000E0FF3F8FC000000060DE184EC0000000404AC933C00C000000130000004A0900003C0000000600000002000000000000E0FF3F8FC000000020228549C0000000C07B2030C0000000E0FF3F8FC0000000609B0D4EC0000000E03FED33
310
C00C00000013000000520900003C0000000600000002000000000000E0FF3F8FC0000000806BB948C0000000A0050731C0000000E0FF3F8FC0000000E0A0224DC0000000202F543AC00C000000130000005A0900003C0000000600000002000000000000E0FF3F8FC000000060DAD847C0000000E0048B31C0000000E0FF3F
310
8FC0000000C09DF54AC0000000E0C71D3AC00C00000013000000620900003C0000000600000002000000000000E0FF3F8FC000000000CBCC20C000000020C84C52C0000000E0FF3F8FC0000000000000E83E000000207AB952C00C000000130000006A0900003C0000000600000002000000000000E0FF3F8FC000000000CB
310
CC20C000000020C84C52C0000000E0FF3F8FC0000000004086EDBF00000040335352C00C00000013000000720900003C0000000600000002000000000000E0FF3F8FC0000000008DE820C0000000E0C54152C0000000E0FF3F8FC0000000001C90F2BF000000206F2952C00C000000130000007A0900003C00000006000000
310
02000000000000E0FF3F8FC0000000008DE820C0000000E0C54152C0000000E0FF3F8FC0000000001C90F2BF00000040F7FC51C00C00000013000000820900003C0000000600000002000000000000E0FF3F8FC0000000008DE820C0000000E0C54152C0000000E0FF3F8FC0000000004086EDBF0000004033D351C00C0000
310
00130000008A0900003C0000000600000002000000000000E0FF3F8FC000000000EC3121C0000000A0BC3A52C0000000E0FF3F8FC0000000000000E83E00000060EC6C51C00C00000013000000920900003C0000000600000002000000000000E0FF3F8FC000000000EC3121C0000000A0BC3A52C0000000E0FF3F8FC00000
310
00000000E83E000000804DC550C00C000000130000009A0900003C0000000600000002000000000000E0FF3F8FC000000000EC3121C0000000A0BC3A52C0000000E0FF3F8FC0000000006052C3BF000000A08B8E50C00C00000013000000A20900003C0000000600000002000000000000E0FF3F8FC000000000EC3121C000
310
0000A0BC3A52C0000000E0FF3F8FC00000000090BFE2BF00000040615E50C00C00000013000000AA0900003C0000000600000002000000000000E0FF3F8FC000000000EC3121C0000000A0BC3A52C0000000E0FF3F8FC0000000000C09F4BF00000020A83A50C00C00000013000000B20900003C0000000600000002000000
310
000000E0FF3F8FC00000008051611EC0000000C0980B4FC0000000E0FF3F8FC000000080F89F26C0000000E0584E52C00C00000013000000BA0900003C0000000600000002000000000000E0FF3F8FC00000008051611EC0000000C0980B4FC0000000E0FF3F8FC00000008090AC2BC0000000C0433552C00C000000130000
310
00C20900003C0000000600000002000000000000E0FF3F8FC00000008051611EC0000000C0980B4FC0000000E0FF3F8FC0000000A02C2830C000000040EEF051C00C00000013000000CA0900003C0000000600000002000000000000E0FF3F8FC00000008051611EC0000000C0980B4FC0000000E0FF3F8FC000000060B318
310
32C000000060868651C00C00000013000000D20900003C0000000600000002000000000000E0FF3F8FC0000000C0756623C0000000C0A8EE4DC0000000E0FF3F8FC000000020B58133C00000006032FE50C00C00000013000000DA0900003C0000000600000002000000000000E0FF3F8FC0000000C0756623C0000000C0A8
310
EE4DC0000000E0FF3F8FC000000060904734C0000000006B6250C00C00000013000000E20900003C0000000600000002000000000000E0FF3F8FC0000000C0756623C0000000C0A8EE4DC0000000E0FF3F8FC000000040445B34C000000020F77D4FC00C00000013000000EA0900003C0000000600000002000000000000E0
310
FF3F8FC0000000C0756623C0000000C0A8EE4DC0000000E0FF3F8FC00000008042BB33C000000020F9404EC00C00000013000000F20900003C0000000600000002000000000000E0FF3F8FC0000000C0756623C0000000C0A8EE4DC0000000E0FF3F8FC000000000CAB633C000000020E02B4EC00C00000013000000FA0900
310
003C0000000600000002000000000000E0FF3F8FC0000000807A2030C000000080228549C0000000E0FF3F8FC0000000C048C933C0000000A0DE184EC00C00000013000000020A00003C0000000600000002000000000000E0FF3F8FC0000000807A2030C000000080228549C0000000E0FF3F8FC0000000603EED33C00000
310
00A09B0D4EC00C000000130000000A0A00003C0000000600000002000000000000E0FF3F8FC000000060040731C0000000E06BB948C0000000E0FF3F8FC0000000A02D543AC000000020A1224DC00C00000013000000120A00003C0000000600000002000000000000E0FF3F8FC0000000A0038B31C0000000C0DAD847C000
310
0000E0FF3F8FC000000080C61D3AC0000000209EF54AC00C000000130000001A0A00003C0000000600000002000000000000E0FF3F8FC000000060069633C000000020323544C0000000E0FF3F8FC00000002054473AC0000000C0847F49C00C00000013000000220A00003C0000000600000002000000000000E0FF3F8FC0
310
000000C0313544C000000060079633C0000000E0FF3F8FC000000060847F49C00000006055473AC00C000000130000002A0A00003C0000000600000002000000000000E0FF3F8FC0000000C0313544C000000060079633C0000000E0FF3F8FC0000000C0C71248C0000000A0DFBC3AC00C00000013000000320A00003C0000
310
000600000002000000000000E0FF3F8FC000000060069633C000000020323544C0000000E0FF3F8FC0000000806E803BC00000000017A946C00C000000130000003A0A00003C0000000600000002000000000000E0FF3F8FC000000060069633C000000020323544C0000000E0FF3F8FC000000060DEBC3AC000000000C812
310
48C00C00000013000000420A00003C0000000600000002000000000000E0FF3F8FC0000000E0081137C0000000C0FCD940C0000000E0FF3F8FC0000000405E8A3CC0000000E08A5045C00C000000130000004A0A00003C0000000600000002000000000000E0FF3F8FC0000000C0313544C000000060079633C0000000E0FF
310
3F8FC0000000C016A946C0000000C06F803BC00C00000013000000520A00003C0000000600000002000000000000E0FF3F8FC0000000E0081137C0000000C0FCD940C0000000E0FF3F8FC00000000076DF3DC000000080EE0244C00C000000130000005A0A00003C0000000600000002000000000000E0FF3F8FC0000000E0
310
081137C0000000C0FCD940C0000000E0FF3F8FC0000000004C723FC00000008060CD42C00C00000013000000620A00003C0000000600000002000000000000E0FF3F8FC000000060FCD940C0000000E0091137C0000000E0FF3F8FC0000000A08A5045C0000000205F8A3CC00C000000130000006A0A00003C000000060000
310
0002000000000000E0FF3F8FC000000060FCD940C0000000E0091137C0000000E0FF3F8FC000000040EE0244C0000000C076DF3DC00C00000013000000720A00003C0000000600000002000000000000E0FF3F8FC000000060FCD940C0000000E0091137C0000000E0FF3F8FC00000004060CD42C0000000604C723FC00C00
310
0000130000007A0A00003C0000000600000002000000000000E0FF3F8FC000000040ADD63BC0000000E0ADD63BC0000000E0FF3F8FC0000000A011A540C0000000C04DAA41C00C00000013000000820A00003C0000000600000002000000000000E0FF3F8FC000000040ADD63BC0000000E0ADD63BC0000000E0FF3F8FC000
310
0000804DAA41C0000000C011A540C00C000000130000008A0A00003C0000000600000002000000000000C0FF3F8F40000000002D8E21C0000000A03C3A52C0000000C0FF3F8F40000000009BFA13C00000000006DB4FC00C00000013000000920A00003C0000000600000002000000000000C0FF3F8F4000000000388D00C0
310
000000E0B22750C0000000C0FF3F8F4000000000EC3121C0000000A0BC3A52C00C000000130000009A0A00003C0000000600000002000000000000C0FF3F8F400000004033F353C000000000CFCC20C0000000C0FF3F8F40000000007AB952C0000000000000F0BE0C00000013000000A20A00003C00000006000000020000
310
00000000C0FF3F8F400000004033F353C000000000CFCC20C0000000C0FF3F8F4000000040335352C0000000007886EDBF0C00000013000000AA0A00003C0000000600000002000000000000C0FF3F8F4000000000C84C52C000000080CECC20C0000000C0FF3F8F40000000006F2952C0000000003890F2BF0C0000001300
310
0000B20A00003C0000000600000002000000000000C0FF3F8F40000000803C3A52C0000000C0308E21C0000000C0FF3F8F400000000006DB4FC000000000A1FA13C00C00000013000000BA0A00003C0000000600000002000000000000C0FF3F8F4000000080BC3A52C000000040EF3121C0000000C0FF3F8F40000000C0B2
310
2750C000000000468D00C00C00000013000000C20A00003C0000000600000002000000000000C0FF3F8F4000000080BC3A52C000000040EF3121C0000000C0FF3F8F4000000000A83A50C0000000002809F4BF0C00000013000000CA0A00003C0000000600000002000000000000C0FF3F8F4000000080BC3A52C000000040
310
EF3121C0000000C0FF3F8F4000000020615E50C000000000C8BFE2BF0C00000013000000D20A00003C0000000600000002000000000000C0FF3F8F40000000C0C54152C00000008090E820C0000000C0FF3F8F4000000040F7FC51C0000000003890F2BF0C00000013000000DA0A00003C0000000600000002000000000000
310
C0FF3F8F40000000C0C54152C00000008090E820C0000000C0FF3F8F400000004033D351C0000000007886EDBF0C00000013000000E20A00003C0000000600000002000000000000C0FF3F8F40000000C0C54152C00000008090E820C0000000C0FF3F8F4000000040EC6C51C0000000000000F0BE0C00000013000000EA0A
310
00003C0000000600000002000000000000C0FF3F8F40000000C0C54152C00000008090E820C0000000C0FF3F8F40000000604DC550C0000000000000F0BE0C00000013000000F20A00003C0000000600000002000000000000C0FF3F8F4000000080BC3A52C000000040EF3121C0000000C0FF3F8F40000000808B8E50C000
310
0000004053C3BF0C00000013000000FA0A00003C0000000600000002000000000000C0FF3F8F40000000C0433552C0000000C093AC2BC0000000C0FF3F8F40000000E0980B4FC00000008057611EC00C00000013000000020B00003C0000000600000002000000000000C0FF3F8F40000000C0584E52C000000040FC9F26C0
310
000000C0FF3F8F40000000E0980B4FC00000008057611EC00C000000130000000A0B00003C0000000600000002000000000000C0FF3F8F4000000040868651C000000020B51832C0000000C0FF3F8F40000000E0980B4FC00000008057611EC00C00000013000000120B00003C0000000600000002000000000000C0FF3F8F
310
4000000040EEF051C0000000602E2830C0000000C0FF3F8F40000000E0980B4FC00000008057611EC00C000000130000001A0B00003C0000000600000002000000000000C0FF3F8F40000000006B6250C0000000E0914734C0000000C0FF3F8F40000000E0A8EE4DC000000080786623C00C00000013000000220B00003C00
310
00000600000002000000000000C0FF3F8F400000004032FE50C0000000A0B68133C0000000C0FF3F8F40000000E0A8EE4DC000000080786623C00C000000130000002A0B00003C0000000600000002000000000000C0FF3F8F40000000E0F8404EC00000000044BB33C0000000C0FF3F8F40000000E0A8EE4DC00000008078
310
6623C00C00000013000000320B00003C0000000600000002000000000000C0FF3F8F40000000E0F67D4FC0000000C0455B34C0000000C0FF3F8F40000000E0A8EE4DC000000080786623C00C000000130000003A0B00003C0000000600000002000000000000C0FF3F8F40000000E0DF2B4EC000000080CBB633C0000000C0
310
FF3F8F40000000E0A8EE4DC000000080786623C00C00000013000000420B00003C0000000600000002000000000000C0FF3F8F40000000609B0D4EC0000000E03FED33C0000000C0FF3F8F4000000020228549C0000000C07B2030C00C000000130000004A0B00003C0000000600000002000000000000C0FF3F8F40000000
310
60DE184EC0000000404AC933C0000000C0FF3F8F4000000020228549C0000000C07B2030C00C00000013000000520B00003C0000000600000002000000000000C0FF3F8F40000000E0A0224DC0000000202F543AC0000000C0FF3F8F40000000806BB948C0000000A0050731C00C000000130000005A0B00003C0000000600
310
000002000000000000C0FF3F8F40000000C09DF54AC0000000E0C71D3AC0000000C0FF3F8F4000000060DAD847C0000000E0048B31C00C00000013000000620B00003C0000000600000002000000000000C0FF3F8F40000000004086EDBF00000040335352C0000000C0FF3F8F4000000000CBCC20C000000020C84C52C00C
310
000000130000006A0B00003C0000000600000002000000000000C0FF3F8F40000000000000E83E000000207AB952C0000000C0FF3F8F4000000000CBCC20C000000020C84C52C00C00000013000000720B00003C0000000600000002000000000000C0FF3F8F40000000001C90F2BF000000206F2952C0000000C0FF3F8F40
310
000000008DE820C0000000E0C54152C00C000000130000007A0B00003C0000000600000002000000000000C0FF3F8F40000000001C90F2BF00000040F7FC51C0000000C0FF3F8F40000000008DE820C0000000E0C54152C00C00000013000000820B00003C0000000600000002000000000000C0FF3F8F40000000004086ED
310
BF0000004033D351C0000000C0FF3F8F40000000008DE820C0000000E0C54152C00C000000130000008A0B00003C0000000600000002000000000000C0FF3F8F40000000000000E83E00000060EC6C51C0000000C0FF3F8F4000000000EC3121C0000000A0BC3A52C00C00000013000000920B00003C000000060000000200
310
0000000000C0FF3F8F40000000000000E83E000000804DC550C0000000C0FF3F8F4000000000EC3121C0000000A0BC3A52C00C000000130000009A0B00003C0000000600000002000000000000C0FF3F8F40000000006052C3BF000000A08B8E50C0000000C0FF3F8F4000000000EC3121C0000000A0BC3A52C00C00000013
310
000000A20B00003C0000000600000002000000000000C0FF3F8F400000000090BFE2BF00000040615E50C0000000C0FF3F8F4000000000EC3121C0000000A0BC3A52C00C00000013000000AA0B00003C0000000600000002000000000000C0FF3F8F40000000000C09F4BF00000020A83A50C0000000C0FF3F8F4000000000
310
EC3121C0000000A0BC3A52C00C00000013000000B20B00003C0000000600000002000000000000C0FF3F8F4000000080F89F26C0000000E0584E52C0000000C0FF3F8F400000008051611EC0000000C0980B4FC00C00000013000000BA0B00003C0000000600000002000000000000C0FF3F8F400000008090AC2BC0000000
310
C0433552C0000000C0FF3F8F400000008051611EC0000000C0980B4FC00C00000013000000C20B00003C0000000600000002000000000000C0FF3F8F40000000A02C2830C000000040EEF051C0000000C0FF3F8F400000008051611EC0000000C0980B4FC00C00000013000000CA0B00003C00000006000000020000000000
310
00C0FF3F8F4000000060B31832C000000060868651C0000000C0FF3F8F400000008051611EC0000000C0980B4FC00C00000013000000D20B00003C0000000600000002000000000000C0FF3F8F4000000020B58133C00000006032FE50C0000000C0FF3F8F40000000C0756623C0000000C0A8EE4DC00C00000013000000DA
310
0B00003C0000000600000002000000000000C0FF3F8F4000000060904734C0000000006B6250C0000000C0FF3F8F40000000C0756623C0000000C0A8EE4DC00C00000013000000E20B00003C0000000600000002000000000000C0FF3F8F4000000040445B34C000000020F77D4FC0000000C0FF3F8F40000000C0756623C0
310
000000C0A8EE4DC00C00000013000000EA0B00003C0000000600000002000000000000C0FF3F8F400000008042BB33C000000020F9404EC0000000C0FF3F8F40000000C0756623C0000000C0A8EE4DC00C00000013000000F20B00003C0000000600000002000000000000C0FF3F8F4000000000CAB633C000000020E02B4E
310
C0000000C0FF3F8F40000000C0756623C0000000C0A8EE4DC00C00000013000000FA0B00003C0000000600000002000000000000C0FF3F8F40000000C048C933C0000000A0DE184EC0000000C0FF3F8F40000000807A2030C000000080228549C00C00000013000000020C00003C0000000600000002000000000000C0FF3F
310
8F40000000603EED33C0000000A09B0D4EC0000000C0FF3F8F40000000807A2030C000000080228549C00C000000130000000A0C00003C0000000600000002000000000000C0FF3F8F40000000A02D543AC000000020A1224DC0000000C0FF3F8F4000000060040731C0000000E06BB948C00C00000013000000120C00003C
310
0000000600000002000000000000C0FF3F8F40000000A0038B31C0000000C0DAD847C0000000C0FF3F8F4000000080C61D3AC0000000209EF54AC00C000000130000001A0C00003C0000000600000002000000000000C0FF3F8F400000002054473AC0000000C0847F49C0000000C0FF3F8F4000000060069633C000000020
310
323544C00C00000013000000220C00003C0000000600000002000000000000C0FF3F8F40000000C0C71248C0000000A0DFBC3AC0000000C0FF3F8F40000000C0313544C000000060079633C00C000000130000002A0C00003C0000000600000002000000000000C0FF3F8F40000000C0313544C000000060079633C0000000
310
C0FF3F8F4000000060847F49C00000006055473AC00C00000013000000320C00003C0000000600000002000000000000C0FF3F8F4000000060069633C000000020323544C0000000C0FF3F8F4000000060DEBC3AC000000000C81248C00C000000130000003A0C00003C0000000600000002000000000000C0FF3F8F400000
310
00806E803BC00000000017A946C0000000C0FF3F8F4000000060069633C000000020323544C00C00000013000000420C00003C0000000600000002000000000000C0FF3F8F40000000E0081137C0000000C0FCD940C0000000C0FF3F8F40000000405E8A3CC0000000E08A5045C00C000000130000004A0C00003C00000006
310
00000002000000000000C0FF3F8F40000000C0313544C000000060079633C0000000C0FF3F8F40000000C016A946C0000000C06F803BC00C00000013000000520C00003C0000000600000002000000000000C0FF3F8F400000000076DF3DC000000080EE0244C0000000C0FF3F8F40000000E0081137C0000000C0FCD940C0
310
0C000000130000005A0C00003C0000000600000002000000000000C0FF3F8F40000000E0081137C0000000C0FCD940C0000000C0FF3F8F40000000004C723FC00000008060CD42C00C00000013000000620C00003C0000000600000002000000000000C0FF3F8F4000000060FCD940C0000000E0091137C0000000C0FF3F8F
310
4000000040EE0244C0000000C076DF3DC00C000000130000006A0C00003C0000000600000002000000000000C0FF3F8F40000000A08A5045C0000000205F8A3CC0000000C0FF3F8F4000000060FCD940C0000000E0091137C00C00000013000000720C00003C0000000600000002000000000000C0FF3F8F400000004060CD
310
42C0000000604C723FC0000000C0FF3F8F4000000060FCD940C0000000E0091137C00C000000130000007A0C00003C0000000600000002000000000000C0FF3F8F40000000A011A540C0000000C04DAA41C0000000C0FF3F8F4000000040ADD63BC0000000E0ADD63BC00C00000013000000820C00003C0000000600000002
310
000000000000C0FF3F8F4000000040ADD63BC0000000E0ADD63BC0000000C0FF3F8F40000000804DAA41C0000000C011A540C0
100
AcDbSubDMesh
 71
     2
 72
     0
 91
        0
 92
      182
 10
-999.9999389648436
 20
-2.068954467773437
 30
-64.62029266357422
 10
-999.9999389648436
 20
-4.994731903076171
 30
-63.71112060546875
 10
-999.9999389648436
 20
-7.595037460327148
 30
-62.09059906005859
 10
-999.9999389648436
 20
-9.700117111206054
 30
-59.86452484130859
 10
-999.9999389648436
 20
-16.12686920166015
 30
-51.04011535644531
 10
-999.9999389648436
 20
-17.02741050720215
 30
-49.44860458374023
 10
-999.9999389648436
 20
-17.54302406311035
 30
-47.69417572021484
 10
-999.9999389648436
 20
-19.58603477478027
 30
-40.41559219360351
 10
-999.9999389648436
 20
-23.06654167175293
 30
-33.7030258178711
 10
-999.9999389648436
 20
-27.83858108520508
 30
-27.83859062194824
 10
-999.9999389648436
 20
-33.7030143737793
 30
-23.06655693054199
 10
-999.9999389648436
 20
-40.41558074951171
 30
-19.58605003356933
 10
-999.9999389648436
 20
-47.69416427612305
 30
-17.54304313659668
 10
-999.9999389648436
 20
-49.44859313964844
 30
-17.02742958068848
 10
-999.9999389648436
 20
-51.04010391235352
 30
-16.12688827514648
 10
-999.9999389648436
 20
-59.86452865600586
 30
-9.700138092041015
 10
-999.9999389648436
 20
-62.09060287475586
 30
-7.595060348510742
 10
-999.9999389648436
 20
-63.71112060546875
 30
-4.9947509765625
 10
-999.9999389648436
 20
-64.62028503417968
 30
-2.068981170654296
 10
-999.9999389648436
 20
-64.91650390625
 30
-1.252235412597656
 10
-999.9999389648436
 20
-65.47467803955078
 30
-0.5859107971191407
 10
-999.9999389648436
 20
-66.22726440429687
 30
-0.1509780883789062
 10
-999.9999389648436
 20
-67.08284759521484
 30
-0.0000152587890625
 10
-999.9999389648436
 20
-69.70191955566406
 30
-0.0000152587890625
 10
-999.9999389648436
 20
-71.30000305175781
 30
-0.9226646423339843
 10
-999.9999389648436
 20
-71.95259094238281
 30
-1.160209655761718
 10
-999.9999389648436
 20
-72.64739990234375
 30
-1.160209655761718
 10
-999.9999389648436
 20
-73.30000305175781
 30
-0.9226646423339843
 10
-999.9999389648436
 20
-74.8980712890625
 30
-0.0000152587890625
 10
-999.9999389648436
 20
-79.80000305175781
 30
-0.0000114440917969
 10
-999.9999389648436
 20
-79.80000305175781
 30
-8.400016784667968
 10
-999.9999389648436
 20
-73.19970703125
 30
-8.400012969970703
 10
-999.9999389648436
 20
-73.02769470214844
 30
-8.454227447509765
 10
-999.9999389648436
 20
-72.91775512695313
 30
-8.597528457641601
 10
-999.9999389648436
 20
-72.90994262695313
 30
-8.777715682983398
 10
-999.9999389648436
 20
-73.22416687011719
 30
-11.31247138977051
 10
-999.9999389648436
 20
-72.83226013183593
 30
-13.83706474304199
 10
-999.9999389648436
 20
-71.76454162597656
 30
-16.15695762634277
 10
-999.9999389648436
 20
-70.10194396972656
 30
-18.09651374816894
 10
-999.9999389648436
 20
-67.97181701660156
 30
-19.50669288635254
 10
-999.9999389648436
 20
-65.53778076171875
 30
-20.27956962585449
 10
-999.9999389648436
 20
-62.98409652709961
 30
-20.35653305053711
 10
-999.9999389648436
 20
-60.50759506225586
 30
-19.73150634765625
 10
-999.9999389648436
 20
-60.34276962280273
 30
-19.71404266357422
 10
-999.9999389648436
 20
-60.19428634643555
 30
-19.78628921508789
 10
-999.9999389648436
 20
-60.10630416870117
 30
-19.92675590515137
 10
-999.9999389648436
 20
-58.27053451538086
 30
-26.32884407043457
 10
-999.9999389648436
 20
-50.99622726440429
 30
-26.27864646911621
 10
-999.9999389648436
 20
-45.32100677490234
 30
-27.50170516967774
 10
-999.9999389648436
 20
-40.02289581298827
 30
-29.87290573120117
 10
-999.9999389648436
 20
-35.33049011230469
 30
-33.28960418701172
 10
-999.9999389648436
 20
-31.44647216796875
 30
-37.60450744628907
 10
-999.9999389648436
 20
-28.54050064086914
 30
-42.62923812866211
 10
-999.9999389648436
 20
-26.73776817321777
 30
-48.146728515625
 10
-999.9999389648436
 20
-26.11631011962891
 30
-53.91888809204101
 10
-999.9999389648436
 20
-26.32882118225098
 30
-58.27054214477539
 10
-999.9999389648436
 20
-19.92673301696777
 30
-60.1063117980957
 10
-999.9999389648436
 20
-19.7862663269043
 30
-60.19429397583007
 10
-999.9999389648436
 20
-19.71401977539062
 30
-60.34277725219727
 10
-999.9999389648436
 20
-19.73148345947265
 30
-60.50760269165039
 10
-999.9999389648436
 20
-20.35651016235352
 30
-62.98410415649414
 10
-999.9999389648436
 20
-20.2795467376709
 30
-65.53778076171875
 10
-999.9999389648436
 20
-19.50666999816894
 30
-67.97182464599609
 10
-999.9999389648436
 20
-18.09648704528808
 30
-70.10195159912109
 10
-999.9999389648436
 20
-16.15693092346191
 30
-71.76454162597656
 10
-999.9999389648436
 20
-13.83703994750976
 30
-72.83226013183593
 10
-999.9999389648436
 20
-11.31244277954101
 30
-73.22417449951172
 10
-999.9999389648436
 20
-8.777687072753906
 30
-72.90995025634765
 10
-999.9999389648436
 20
-8.597503662109375
 30
-72.91776275634766
 10
-999.9999389648436
 20
-8.454200744628906
 30
-73.02770233154297
 10
-999.9999389648436
 20
-8.399986267089843
 30
-73.19971466064453
 10
-999.9999389648436
 20
-8.39998435974121
 30
-79.80000305175781
 10
-999.9999389648436
 20
0.0000114440917969
 30
-79.80000305175781
 10
-999.9999389648436
 20
0.0000114440917969
 30
-74.89807891845703
 10
-999.9999389648436
 20
-0.922637939453125
 30
-73.30000305175781
 10
-999.9999389648436
 20
-1.160182952880859
 30
-72.64740753173828
 10
-999.9999389648436
 20
-1.160182952880859
 30
-71.95259094238281
 10
-999.9999389648436
 20
-0.922637939453125
 30
-71.30000305175781
 10
-999.9999389648436
 20
0.0000114440917969
 30
-69.7019271850586
 10
-999.9999389648436
 20
0.0000114440917969
 30
-67.08285522460937
 10
-999.9999389648436
 20
-0.1509513854980469
 30
-66.22727203369141
 10
-999.9999389648436
 20
-0.5858840942382813
 30
-65.47468566894531
 10
-999.9999389648436
 20
-1.252208709716796
 30
-64.91651153564453
 10
999.9998779296875
 20
-2.068954467773437
 30
-64.62029266357422
 10
999.9998779296875
 20
-1.252208709716796
 30
-64.91651153564453
 10
999.9998779296875
 20
-0.5858840942382813
 30
-65.47468566894531
 10
999.9998779296875
 20
-0.1509513854980469
 30
-66.22727203369141
 10
999.9998779296875
 20
0.0000114440917969
 30
-67.08285522460937
 10
999.9998779296875
 20
0.0000114440917969
 30
-69.7019271850586
 10
999.9998779296875
 20
-0.922637939453125
 30
-71.30000305175781
 10
999.9998779296875
 20
-1.160182952880859
 30
-71.95259094238281
 10
999.9998779296875
 20
-1.160182952880859
 30
-72.64740753173828
 10
999.9998779296875
 20
-0.922637939453125
 30
-73.30000305175781
 10
999.9998779296875
 20
0.0000114440917969
 30
-74.89807891845703
 10
999.9998779296875
 20
0.0000114440917969
 30
-79.80000305175781
 10
999.9998779296875
 20
-8.39998435974121
 30
-79.80000305175781
 10
999.9998779296875
 20
-8.399986267089843
 30
-73.19971466064453
 10
999.9998779296875
 20
-8.454200744628906
 30
-73.02770233154297
 10
999.9998779296875
 20
-8.597503662109375
 30
-72.91776275634766
 10
999.9998779296875
 20
-8.777687072753906
 30
-72.90995025634765
 10
999.9998779296875
 20
-11.31244277954101
 30
-73.22417449951172
 10
999.9998779296875
 20
-13.83703994750976
 30
-72.83226013183593
 10
999.9998779296875
 20
-16.15693092346191
 30
-71.76454162597656
 10
999.9998779296875
 20
-18.09648704528808
 30
-70.10195159912109
 10
999.9998779296875
 20
-19.50666999816894
 30
-67.97182464599609
 10
999.9998779296875
 20
-20.2795467376709
 30
-65.53778076171875
 10
999.9998779296875
 20
-20.35651016235352
 30
-62.98410415649414
 10
999.9998779296875
 20
-19.73148345947265
 30
-60.50760269165039
 10
999.9998779296875
 20
-19.71401977539062
 30
-60.34277725219727
 10
999.9998779296875
 20
-19.7862663269043
 30
-60.19429397583007
 10
999.9998779296875
 20
-19.92673301696777
 30
-60.1063117980957
 10
999.9998779296875
 20
-26.32882118225098
 30
-58.27054214477539
 10
999.9998779296875
 20
-26.27862739562988
 30
-50.99623870849609
 10
999.9998779296875
 20
-27.50168609619141
 30
-45.32101440429687
 10
999.9998779296875
 20
-29.87289428710937
 30
-40.02290344238281
 10
999.9998779296875
 20
-33.28960037231445
 30
-35.33049774169922
 10
999.9998779296875
 20
-37.60449981689453
 30
-31.44647789001465
 10
999.9998779296875
 20
-42.62923049926757
 30
-28.54051399230957
 10
999.9998779296875
 20
-48.14672088623047
 30
-26.7377872467041
 10
999.9998779296875
 20
-53.91887664794921
 30
-26.11633110046387
 10
999.9998779296875
 20
-58.27053451538086
 30
-26.32884407043457
 10
999.9998779296875
 20
-60.10630416870117
 30
-19.92675590515137
 10
999.9998779296875
 20
-60.19428634643555
 30
-19.78628921508789
 10
999.9998779296875
 20
-60.34276962280273
 30
-19.71404266357422
 10
999.9998779296875
 20
-60.50759506225586
 30
-19.73150634765625
 10
999.9998779296875
 20
-62.98409652709961
 30
-20.35653305053711
 10
999.9998779296875
 20
-65.53778076171875
 30
-20.27956962585449
 10
999.9998779296875
 20
-67.97181701660156
 30
-19.50669288635254
 10
999.9998779296875
 20
-70.10194396972656
 30
-18.09651374816894
 10
999.9998779296875
 20
-71.76454162597656
 30
-16.15695762634277
 10
999.9998779296875
 20
-72.83226013183593
 30
-13.83706474304199
 10
999.9998779296875
 20
-73.22416687011719
 30
-11.31247138977051
 10
999.9998779296875
 20
-72.90994262695313
 30
-8.777715682983398
 10
999.9998779296875
 20
-72.91775512695313
 30
-8.597528457641601
 10
999.9998779296875
 20
-73.02769470214844
 30
-8.454227447509765
 10
999.9998779296875
 20
-73.19970703125
 30
-8.400012969970703
 10
999.9998779296875
 20
-79.80000305175781
 30
-8.400016784667968
 10
999.9998779296875
 20
-79.80000305175781
 30
-0.0000114440917969
 10
999.9998779296875
 20
-74.8980712890625
 30
-0.0000152587890625
 10
999.9998779296875
 20
-73.30000305175781
 30
-0.9226646423339843
 10
999.9998779296875
 20
-72.64739990234375
 30
-1.160209655761718
 10
999.9998779296875
 20
-71.95259094238281
 30
-1.160209655761718
 10
999.9998779296875
 20
-71.30000305175781
 30
-0.9226646423339843
 10
999.9998779296875
 20
-69.70191955566406
 30
-0.0000152587890625
 10
999.9998779296875
 20
-67.08284759521484
 30
-0.0000152587890625
 10
999.9998779296875
 20
-66.22726440429687
 30
-0.1509780883789062
 10
999.9998779296875
 20
-65.47467803955078
 30
-0.5859107971191407
 10
999.9998779296875
 20
-64.91650390625
 30
-1.252235412597656
 10
999.9998779296875
 20
-64.62028503417968
 30
-2.068981170654296
 10
999.9998779296875
 20
-63.71112060546875
 30
-4.994754791259765
 10
999.9998779296875
 20
-62.09060287475586
 30
-7.595060348510742
 10
999.9998779296875
 20
-59.86452865600586
 30
-9.700138092041015
 10
999.9998779296875
 20
-51.04010391235352
 30
-16.12688827514648
 10
999.9998779296875
 20
-49.44859313964844
 30
-17.02742958068848
 10
999.9998779296875
 20
-47.69416427612305
 30
-17.54304313659668
 10
999.9998779296875
 20
-40.41558074951171
 30
-19.58605003356933
 10
999.9998779296875
 20
-33.7030143737793
 30
-23.06655693054199
 10
999.9998779296875
 20
-27.83858108520508
 30
-27.83859062194824
 10
999.9998779296875
 20
-23.06654167175293
 30
-33.7030258178711
 10
999.9998779296875
 20
-19.58603477478027
 30
-40.41559219360351
 10
999.9998779296875
 20
-17.54302406311035
 30
-47.69417572021484
 10
999.9998779296875
 20
-17.02741050720215
 30
-49.44860458374023
 10
999.9998779296875
 20
-16.12686920166015
 30
-51.04011535644531
 10
999.9998779296875
 20
-9.700117111206054
 30
-59.86452484130859
 10
999.9998779296875
 20
-7.595037460327148
 30
-62.09059906005859
 10
999.9998779296875
 20
-4.994731903076171
 30
-63.71112060546875
 10
-999.9999389648436
 20
-53.91887664794921
 30
-26.11633110046387
 10
-999.9999389648436
 20
-48.14672088623047
 30
-26.7377872467041
 10
-999.9999389648436
 20
-42.62923049926757
 30
-28.54051399230957
 10
-999.9999389648436
 20
-37.60449981689453
 30
-31.44647789001465
 10
-999.9999389648436
 20
-33.28960037231445
 30
-35.33049774169922
 10
-999.9999389648436
 20
-29.87289428710937
 30
-40.02290344238281
 10
-999.9999389648436
 20
-27.50168609619141
 30
-45.32101440429687
 10
-999.9999389648436
 20
-26.27862739562988
 30
-50.99623870849609
 10
999.9998779296875
 20
-26.11631011962891
 30
-53.91888809204101
 10
999.9998779296875
 20
-26.73776817321777
 30
-48.146728515625
 10
999.9998779296875
 20
-28.54050064086914
 30
-42.62923812866211
 10
999.9998779296875
 20
-31.44647216796875
 30
-37.60450744628907
 10
999.9998779296875
 20
-35.33049011230469
 30
-33.28960418701172
 10
999.9998779296875
 20
-40.02289581298827
 30
-29.87290573120117
 10
999.9998779296875
 20
-45.32100677490234
 30
-27.50170516967774
 10
999.9998779296875
 20
-50.99622726440429
 30
-26.27864646911621
 93
     1023
 90
        4
 90
       28
 90
       29
 90
      137
 90
      138
 90
        4
 90
       29
 90
       30
 90
      136
 90
      137
 90
        4
 90
       30
 90
       31
 90
      135
 90
      136
 90
        4
 90
       31
 90
       32
 90
      134
 90
      135
 90
        4
 90
       32
 90
       33
 90
      133
 90
      134
 90
        4
 90
       33
 90
       34
 90
      132
 90
      133
 90
        4
 90
       34
 90
       35
 90
      131
 90
      132
 90
        4
 90
       35
 90
       36
 90
      130
 90
      131
 90
        4
 90
       36
 90
       37
 90
      129
 90
      130
 90
        4
 90
       37
 90
       38
 90
      128
 90
      129
 90
        4
 90
       38
 90
       39
 90
      127
 90
      128
 90
        4
 90
       39
 90
       40
 90
      126
 90
      127
 90
        4
 90
       40
 90
       41
 90
      125
 90
      126
 90
        4
 90
       41
 90
       42
 90
      124
 90
      125
 90
        4
 90
       42
 90
       43
 90
      123
 90
      124
 90
        4
 90
       43
 90
       44
 90
      122
 90
      123
 90
        4
 90
       44
 90
       45
 90
      121
 90
      122
 90
        4
 90
       45
 90
       46
 90
      120
 90
      121
 90
        4
 90
       46
 90
      166
 90
      119
 90
      120
 90
        4
 90
       47
 90
      167
 90
      118
 90
      181
 90
        4
 90
       48
 90
      168
 90
      117
 90
      180
 90
        4
 90
       49
 90
      169
 90
      116
 90
      179
 90
        4
 90
       50
 90
      170
 90
      115
 90
      178
 90
        4
 90
       51
 90
      171
 90
      114
 90
      177
 90
        4
 90
       52
 90
      172
 90
      113
 90
      176
 90
        4
 90
       53
 90
      173
 90
      112
 90
      175
 90
        4
 90
       54
 90
       55
 90
      111
 90
      174
 90
        4
 90
       55
 90
       56
 90
      110
 90
      111
 90
        4
 90
       56
 90
       57
 90
      109
 90
      110
 90
        4
 90
       57
 90
       58
 90
      108
 90
      109
 90
        4
 90
       58
 90
       59
 90
      107
 90
      108
 90
        4
 90
       59
 90
       60
 90
      106
 90
      107
 90
        4
 90
       60
 90
       61
 90
      105
 90
      106
 90
        4
 90
       61
 90
       62
 90
      104
 90
      105
 90
        4
 90
       62
 90
       63
 90
      103
 90
      104
 90
        4
 90
       63
 90
       64
 90
      102
 90
      103
 90
        4
 90
       64
 90
       65
 90
      101
 90
      102
 90
        4
 90
       65
 90
       66
 90
      100
 90
      101
 90
        4
 90
       66
 90
       67
 90
       99
 90
      100
 90
        4
 90
       67
 90
       68
 90
       98
 90
       99
 90
        4
 90
       68
 90
       69
 90
       97
 90
       98
 90
        4
 90
       69
 90
       70
 90
       96
 90
       97
 90
        4
 90
       70
 90
       71
 90
       95
 90
       96
 90
        4
 90
       71
 90
       72
 90
       94
 90
       95
 90
        4
 90
       72
 90
       73
 90
       93
 90
       94
 90
        4
 90
       73
 90
       74
 90
       92
 90
       93
 90
        4
 90
       74
 90
       75
 90
       91
 90
       92
 90
        4
 90
       75
 90
       76
 90
       90
 90
       91
 90
        4
 90
       76
 90
       77
 90
       89
 90
       90
 90
        4
 90
       77
 90
       78
 90
       88
 90
       89
 90
        4
 90
       78
 90
       79
 90
       87
 90
       88
 90
        4
 90
       79
 90
       80
 90
       86
 90
       87
 90
        4
 90
       80
 90
       81
 90
       85
 90
       86
 90
        4
 90
       81
 90
       82
 90
       84
 90
       85
 90
        4
 90
       82
 90
        0
 90
       83
 90
       84
 90
        4
 90
        0
 90
        1
 90
      165
 90
       83
 90
        4
 90
        1
 90
        2
 90
      164
 90
      165
 90
        4
 90
        2
 90
        3
 90
      163
 90
      164
 90
        4
 90
        3
 90
        4
 90
      162
 90
      163
 90
        4
 90
        4
 90
        5
 90
      161
 90
      162
 90
        4
 90
        5
 90
        6
 90
      160
 90
      161
 90
        4
 90
        6
 90
        7
 90
      159
 90
      160
 90
        4
 90
        7
 90
        8
 90
      158
 90
      159
 90
        4
 90
        8
 90
        9
 90
      157
 90
      158
 90
        4
 90
        9
 90
       10
 90
      156
 90
      157
 90
        4
 90
       10
 90
       11
 90
      155
 90
      156
 90
        4
 90
       11
 90
       12
 90
      154
 90
      155
 90
        4
 90
       12
 90
       13
 90
      153
 90
      154
 90
        4
 90
       13
 90
       14
 90
      152
 90
      153
 90
        4
 90
       14
 90
       15
 90
      151
 90
      152
 90
        4
 90
       15
 90
       16
 90
      150
 90
      151
 90
        4
 90
       16
 90
       17
 90
      149
 90
      150
 90
        4
 90
       17
 90
       18
 90
      148
 90
      149
 90
        4
 90
       18
 90
       19
 90
      147
 90
      148
 90
        4
 90
       19
 90
       20
 90
      146
 90
      147
 90
        4
 90
       20
 90
       21
 90
      145
 90
      146
 90
        4
 90
       21
 90
       22
 90
      144
 90
      145
 90
        4
 90
       22
 90
       23
 90
      143
 90
      144
 90
        4
 90
       23
 90
       24
 90
      142
 90
      143
 90
        4
 90
       24
 90
       25
 90
      141
 90
      142
 90
        4
 90
       25
 90
       26
 90
      140
 90
      141
 90
        4
 90
       26
 90
       27
 90
      139
 90
      140
 90
        4
 90
       27
 90
       28
 90
      138
 90
      139
 90
        4
 90
      166
 90
       47
 90
      181
 90
      119
 90
        4
 90
      167
 90
       48
 90
      180
 90
      118
 90
        4
 90
      168
 90
       49
 90
      179
 90
      117
 90
        4
 90
      169
 90
       50
 90
      178
 90
      116
 90
        4
 90
      170
 90
       51
 90
      177
 90
      115
 90
        4
 90
      171
 90
       52
 90
      176
 90
      114
 90
        4
 90
      172
 90
       53
 90
      175
 90
      113
 90
        4
 90
      173
 90
       54
 90
      174
 90
      112
 90
        4
 90
        0
 90
       68
 90
       67
 90
        1
 90
        3
 90
       30
 90
       29
 90
       28
 90
        3
 90
       30
 90
       28
 90
       27
 90
        4
 90
       31
 90
       30
 90
       27
 90
       26
 90
        4
 90
       34
 90
       33
 90
       18
 90
       17
 90
        3
 90
       33
 90
       19
 90
       18
 90
        3
 90
       33
 90
       20
 90
       19
 90
        4
 90
       32
 90
       31
 90
       26
 90
       25
 90
        3
 90
       32
 90
       25
 90
       24
 90
        3
 90
       32
 90
       24
 90
       23
 90
        3
 90
       32
 90
       23
 90
       22
 90
        4
 90
       33
 90
       32
 90
       22
 90
       21
 90
        3
 90
       33
 90
       21
 90
       20
 90
        3
 90
       36
 90
       35
 90
       16
 90
        4
 90
       35
 90
       34
 90
       17
 90
       16
 90
        3
 90
       38
 90
       37
 90
       16
 90
        3
 90
       37
 90
       36
 90
       16
 90
        3
 90
       40
 90
       39
 90
       15
 90
        4
 90
       39
 90
       38
 90
       16
 90
       15
 90
        3
 90
       42
 90
       41
 90
       15
 90
        3
 90
       41
 90
       40
 90
       15
 90
        3
 90
       43
 90
       42
 90
       15
 90
        3
 90
       45
 90
       44
 90
       14
 90
        4
 90
       44
 90
       43
 90
       15
 90
       14
 90
        4
 90
       46
 90
       45
 90
       14
 90
       13
 90
        4
 90
      166
 90
       46
 90
       13
 90
       12
 90
        3
 90
       74
 90
       73
 90
       70
 90
        4
 90
       73
 90
       72
 90
       71
 90
       70
 90
        4
 90
       75
 90
       74
 90
       70
 90
       69
 90
        3
 90
       76
 90
       75
 90
       69
 90
        3
 90
       77
 90
       76
 90
       69
 90
        4
 90
       78
 90
       77
 90
       69
 90
       68
 90
        3
 90
       79
 90
       78
 90
       68
 90
        3
 90
       80
 90
       79
 90
       68
 90
        3
 90
       81
 90
       80
 90
       68
 90
        3
 90
       82
 90
       81
 90
       68
 90
        3
 90
        0
 90
       82
 90
       68
 90
        4
 90
       67
 90
       66
 90
        2
 90
        1
 90
        3
 90
       66
 90
       65
 90
        2
 90
        3
 90
       65
 90
       64
 90
        2
 90
        3
 90
       64
 90
       63
 90
        2
 90
        4
 90
       63
 90
       62
 90
        3
 90
        2
 90
        3
 90
       62
 90
       61
 90
        3
 90
        3
 90
       61
 90
       60
 90
        3
 90
        3
 90
       60
 90
       59
 90
        3
 90
        3
 90
       59
 90
       58
 90
        3
 90
        4
 90
       58
 90
       57
 90
        4
 90
        3
 90
        3
 90
       57
 90
       56
 90
        4
 90
        4
 90
       56
 90
       55
 90
        5
 90
        4
 90
        4
 90
       55
 90
       54
 90
        6
 90
        5
 90
        4
 90
       54
 90
      173
 90
        7
 90
        6
 90
        3
 90
      167
 90
       47
 90
       11
 90
        4
 90
       47
 90
      166
 90
       12
 90
       11
 90
        3
 90
       53
 90
      172
 90
        7
 90
        3
 90
      173
 90
       53
 90
        7
 90
        4
 90
      172
 90
       52
 90
        8
 90
        7
 90
        3
 90
       48
 90
      167
 90
       11
 90
        3
 90
       52
 90
      171
 90
        8
 90
        3
 90
      171
 90
       51
 90
        8
 90
        3
 90
       49
 90
      168
 90
       10
 90
        4
 90
      168
 90
       48
 90
       11
 90
       10
 90
        3
 90
      169
 90
       49
 90
       10
 90
        4
 90
       51
 90
      170
 90
        9
 90
        8
 90
        3
 90
      170
 90
       50
 90
        9
 90
        4
 90
       50
 90
      169
 90
       10
 90
        9
 90
        4
 90
       83
 90
      165
 90
       99
 90
       98
 90
        3
 90
      136
 90
      138
 90
      137
 90
        3
 90
      136
 90
      139
 90
      138
 90
        4
 90
      135
 90
      140
 90
      139
 90
      136
 90
        4
 90
      132
 90
      149
 90
      148
 90
      133
 90
        3
 90
      133
 90
      148
 90
      147
 90
        3
 90
      133
 90
      147
 90
      146
 90
        4
 90
      134
 90
      141
 90
      140
 90
      135
 90
        3
 90
      134
 90
      142
 90
      141
 90
        3
 90
      134
 90
      143
 90
      142
 90
        3
 90
      134
 90
      144
 90
      143
 90
        4
 90
      133
 90
      145
 90
      144
 90
      134
 90
        3
 90
      133
 90
      146
 90
      145
 90
        3
 90
      130
 90
      150
 90
      131
 90
        4
 90
      131
 90
      150
 90
      149
 90
      132
 90
        3
 90
      128
 90
      150
 90
      129
 90
        3
 90
      129
 90
      150
 90
      130
 90
        3
 90
      126
 90
      151
 90
      127
 90
        4
 90
      127
 90
      151
 90
      150
 90
      128
 90
        3
 90
      124
 90
      151
 90
      125
 90
        3
 90
      125
 90
      151
 90
      126
 90
        3
 90
      123
 90
      151
 90
      124
 90
        3
 90
      121
 90
      152
 90
      122
 90
        4
 90
      122
 90
      152
 90
      151
 90
      123
 90
        4
 90
      120
 90
      153
 90
      152
 90
      121
 90
        4
 90
      119
 90
      154
 90
      153
 90
      120
 90
        3
 90
       92
 90
       96
 90
       93
 90
        4
 90
       93
 90
       96
 90
       95
 90
       94
 90
        4
 90
       91
 90
       97
 90
       96
 90
       92
 90
        3
 90
       90
 90
       97
 90
       91
 90
        3
 90
       89
 90
       97
 90
       90
 90
        4
 90
       88
 90
       98
 90
       97
 90
       89
 90
        3
 90
       87
 90
       98
 90
       88
 90
        3
 90
       86
 90
       98
 90
       87
 90
        3
 90
       85
 90
       98
 90
       86
 90
        3
 90
       84
 90
       98
 90
       85
 90
        3
 90
       83
 90
       98
 90
       84
 90
        4
 90
       99
 90
      165
 90
      164
 90
      100
 90
        3
 90
      100
 90
      164
 90
      101
 90
        3
 90
      101
 90
      164
 90
      102
 90
        3
 90
      102
 90
      164
 90
      103
 90
        4
 90
      103
 90
      164
 90
      163
 90
      104
 90
        3
 90
      104
 90
      163
 90
      105
 90
        3
 90
      105
 90
      163
 90
      106
 90
        3
 90
      106
 90
      163
 90
      107
 90
        3
 90
      107
 90
      163
 90
      108
 90
        4
 90
      108
 90
      163
 90
      162
 90
      109
 90
        3
 90
      109
 90
      162
 90
      110
 90
        4
 90
      110
 90
      162
 90
      161
 90
      111
 90
        4
 90
      111
 90
      161
 90
      160
 90
      174
 90
        4
 90
      174
 90
      160
 90
      159
 90
      112
 90
        3
 90
      118
 90
      155
 90
      181
 90
        4
 90
      181
 90
      155
 90
      154
 90
      119
 90
        3
 90
      175
 90
      159
 90
      113
 90
        3
 90
      112
 90
      159
 90
      175
 90
        4
 90
      113
 90
      159
 90
      158
 90
      176
 90
        3
 90
      180
 90
      155
 90
      118
 90
        3
 90
      176
 90
      158
 90
      114
 90
        3
 90
      114
 90
      158
 90
      177
 90
        3
 90
      179
 90
      156
 90
      117
 90
        4
 90
      117
 90
      156
 90
      155
 90
      180
 90
        3
 90
      116
 90
      156
 90
      179
 90
        4
 90
      177
 90
      158
 90
      157
 90
      115
 90
        3
 90
      115
 90
      157
 90
      178
 90
        4
 90
      178
 90
      157
 90
      156
 90
      116
 94
      401
 90
       28
 90
       29
 90
       29
 90
      137
 90
      137
 90
      138
 90
       28
 90
      138
 90
       29
 90
       30
 90
       30
 90
      136
 90
      136
 90
      137
 90
       30
 90
       31
 90
       31
 90
      135
 90
      135
 90
      136
 90
       31
 90
       32
 90
       32
 90
      134
 90
      134
 90
      135
 90
       32
 90
       33
 90
       33
 90
      133
 90
      133
 90
      134
 90
       33
 90
       34
 90
       34
 90
      132
 90
      132
 90
      133
 90
       34
 90
       35
 90
       35
 90
      131
 90
      131
 90
      132
 90
       35
 90
       36
 90
       36
 90
      130
 90
      130
 90
      131
 90
       36
 90
       37
 90
       37
 90
      129
 90
      129
 90
      130
 90
       37
 90
       38
 90
       38
 90
      128
 90
      128
 90
      129
 90
       38
 90
       39
 90
       39
 90
      127
 90
      127
 90
      128
 90
       39
 90
       40
 90
       40
 90
      126
 90
      126
 90
      127
 90
       40
 90
       41
 90
       41
 90
      125
 90
      125
 90
      126
 90
       41
 90
       42
 90
       42
 90
      124
 90
      124
 90
      125
 90
       42
 90
       43
 90
       43
 90
      123
 90
      123
 90
      124
 90
       43
 90
       44
 90
       44
 90
      122
 90
      122
 90
      123
 90
       44
 90
       45
 90
       45
 90
      121
 90
      121
 90
      122
 90
       45
 90
       46
 90
       46
 90
      120
 90
      120
 90
      121
 90
       46
 90
      166
 90
      119
 90
      166
 90
      119
 90
      120
 90
       47
 90
      167
 90
      118
 90
      167
 90
      118
 90
      181
 90
       47
 90
      181
 90
       48
 90
      168
 90
      117
 90
      168
 90
      117
 90
      180
 90
       48
 90
      180
 90
       49
 90
      169
 90
      116
 90
      169
 90
      116
 90
      179
 90
       49
 90
      179
 90
       50
 90
      170
 90
      115
 90
      170
 90
      115
 90
      178
 90
       50
 90
      178
 90
       51
 90
      171
 90
      114
 90
      171
 90
      114
 90
      177
 90
       51
 90
      177
 90
       52
 90
      172
 90
      113
 90
      172
 90
      113
 90
      176
 90
       52
 90
      176
 90
       53
 90
      173
 90
      112
 90
      173
 90
      112
 90
      175
 90
       53
 90
      175
 90
       54
 90
       55
 90
       55
 90
      111
 90
      111
 90
      174
 90
       54
 90
      174
 90
       55
 90
       56
 90
       56
 90
      110
 90
      110
 90
      111
 90
       56
 90
       57
 90
       57
 90
      109
 90
      109
 90
      110
 90
       57
 90
       58
 90
       58
 90
      108
 90
      108
 90
      109
 90
       58
 90
       59
 90
       59
 90
      107
 90
      107
 90
      108
 90
       59
 90
       60
 90
       60
 90
      106
 90
      106
 90
      107
 90
       60
 90
       61
 90
       61
 90
      105
 90
      105
 90
      106
 90
       61
 90
       62
 90
       62
 90
      104
 90
      104
 90
      105
 90
       62
 90
       63
 90
       63
 90
      103
 90
      103
 90
      104
 90
       63
 90
       64
 90
       64
 90
      102
 90
      102
 90
      103
 90
       64
 90
       65
 90
       65
 90
      101
 90
      101
 90
      102
 90
       65
 90
       66
 90
       66
 90
      100
 90
      100
 90
      101
 90
       66
 90
       67
 90
       67
 90
       99
 90
       99
 90
      100
 90
       67
 90
       68
 90
       68
 90
       98
 90
       98
 90
       99
 90
       68
 90
       69
 90
       69
 90
       97
 90
       97
 90
       98
 90
       69
 90
       70
 90
       70
 90
       96
 90
       96
 90
       97
 90
       70
 90
       71
 90
       71
 90
       95
 90
       95
 90
       96
 90
       71
 90
       72
 90
       72
 90
       94
 90
       94
 90
       95
 90
       72
 90
       73
 90
       73
 90
       93
 90
       93
 90
       94
 90
       73
 90
       74
 90
       74
 90
       92
 90
       92
 90
       93
 90
       74
 90
       75
 90
       75
 90
       91
 90
       91
 90
       92
 90
       75
 90
       76
 90
       76
 90
       90
 90
       90
 90
       91
 90
       76
 90
       77
 90
       77
 90
       89
 90
       89
 90
       90
 90
       77
 90
       78
 90
       78
 90
       88
 90
       88
 90
       89
 90
       78
 90
       79
 90
       79
 90
       87
 90
       87
 90
       88
 90
       79
 90
       80
 90
       80
 90
       86
 90
       86
 90
       87
 90
       80
 90
       81
 90
       81
 90
       85
 90
       85
 90
       86
 90
       81
 90
       82
 90
       82
 90
       84
 90
       84
 90
       85
 90
        0
 90
       82
 90
        0
 90
       83
 90
       83
 90
       84
 90
        0
 90
        1
 90
        1
 90
      165
 90
       83
 90
      165
 90
        1
 90
        2
 90
        2
 90
      164
 90
      164
 90
      165
 90
        2
 90
        3
 90
        3
 90
      163
 90
      163
 90
      164
 90
        3
 90
        4
 90
        4
 90
      162
 90
      162
 90
      163
 90
        4
 90
        5
 90
        5
 90
      161
 90
      161
 90
      162
 90
        5
 90
        6
 90
        6
 90
      160
 90
      160
 90
      161
 90
        6
 90
        7
 90
        7
 90
      159
 90
      159
 90
      160
 90
        7
 90
        8
 90
        8
 90
      158
 90
      158
 90
      159
 90
        8
 90
        9
 90
        9
 90
      157
 90
      157
 90
      158
 90
        9
 90
       10
 90
       10
 90
      156
 90
      156
 90
      157
 90
       10
 90
       11
 90
       11
 90
      155
 90
      155
 90
      156
 90
       11
 90
       12
 90
       12
 90
      154
 90
      154
 90
      155
 90
       12
 90
       13
 90
       13
 90
      153
 90
      153
 90
      154
 90
       13
 90
       14
 90
       14
 90
      152
 90
      152
 90
      153
 90
       14
 90
       15
 90
       15
 90
      151
 90
      151
 90
      152
 90
       15
 90
       16
 90
       16
 90
      150
 90
      150
 90
      151
 90
       16
 90
       17
 90
       17
 90
      149
 90
      149
 90
      150
 90
       17
 90
       18
 90
       18
 90
      148
 90
      148
 90
      149
 90
       18
 90
       19
 90
       19
 90
      147
 90
      147
 90
      148
 90
       19
 90
       20
 90
       20
 90
      146
 90
      146
 90
      147
 90
       20
 90
       21
 90
       21
 90
      145
 90
      145
 90
      146
 90
       21
 90
       22
 90
       22
 90
      144
 90
      144
 90
      145
 90
       22
 90
       23
 90
       23
 90
      143
 90
      143
 90
      144
 90
       23
 90
       24
 90
       24
 90
      142
 90
      142
 90
      143
 90
       24
 90
       25
 90
       25
 90
      141
 90
      141
 90
      142
 90
       25
 90
       26
 90
       26
 90
      140
 90
      140
 90
      141
 90
       26
 90
       27
 90
       27
 90
      139
 90
      139
 90
      140
 90
       27
 90
       28
 90
      138
 90
      139
 90
       47
 90
      166
 90
      119
 90
      181
 90
       48
 90
      167
 90
      118
 90
      180
 90
       49
 90
      168
 90
      117
 90
      179
 90
       50
 90
      169
 90
      116
 90
      178
 90
       51
 90
      170
 90
      115
 90
      177
 90
       52
 90
      171
 90
      114
 90
      176
 90
       53
 90
      172
 90
      113
 90
      175
 90
       54
 90
      173
 90
      112
 90
      174
 90
        0
 90
       68
 90
        1
 90
       67
 90
       28
 90
       30
 90
       27
 90
       30
 90
       26
 90
       31
 90
       18
 90
       33
 90
       17
 90
       34
 90
       19
 90
       33
 90
       20
 90
       33
 90
       25
 90
       32
 90
       24
 90
       32
 90
       23
 90
       32
 90
       22
 90
       32
 90
       21
 90
       33
 90
       16
 90
       35
 90
       16
 90
       36
 90
       16
 90
       37
 90
       16
 90
       38
 90
       15
 90
       39
 90
       15
 90
       40
 90
       15
 90
       41
 90
       15
 90
       42
 90
       15
 90
       43
 90
       14
 90
       44
 90
       14
 90
       45
 90
       13
 90
       46
 90
       12
 90
      166
 90
       70
 90
       73
 90
       70
 90
       74
 90
       69
 90
       75
 90
       69
 90
       76
 90
       69
 90
       77
 90
       68
 90
       78
 90
       68
 90
       79
 90
       68
 90
       80
 90
       68
 90
       81
 90
       68
 90
       82
 90
        2
 90
       66
 90
        2
 90
       65
 90
        2
 90
       64
 90
        2
 90
       63
 90
        3
 90
       62
 90
        3
 90
       61
 90
        3
 90
       60
 90
        3
 90
       59
 90
        3
 90
       58
 90
        4
 90
       57
 90
        4
 90
       56
 90
        5
 90
       55
 90
        6
 90
       54
 90
        7
 90
      173
 90
       11
 90
       47
 90
       11
 90
      167
 90
        7
 90
      172
 90
        7
 90
       53
 90
        8
 90
       52
 90
       11
 90
       48
 90
        8
 90
      171
 90
        8
 90
       51
 90
       10
 90
      168
 90
       10
 90
       49
 90
       10
 90
      169
 90
        9
 90
      170
 90
        9
 90
       50
 90
       99
 90
      165
 90
       83
 90
       98
 90
      136
 90
      138
 90
      136
 90
      139
 90
      135
 90
      140
 90
      132
 90
      149
 90
      133
 90
      148
 90
      133
 90
      147
 90
      133
 90
      146
 90
      134
 90
      141
 90
      134
 90
      142
 90
      134
 90
      143
 90
      134
 90
      144
 90
      133
 90
      145
 90
      130
 90
      150
 90
      131
 90
      150
 90
      128
 90
      150
 90
      129
 90
      150
 90
      126
 90
      151
 90
      127
 90
      151
 90
      124
 90
      151
 90
      125
 90
      151
 90
      123
 90
      151
 90
      121
 90
      152
 90
      122
 90
      152
 90
      120
 90
      153
 90
      119
 90
      154
 90
       92
 90
       96
 90
       93
 90
       96
 90
       91
 90
       97
 90
       90
 90
       97
 90
       89
 90
       97
 90
       88
 90
       98
 90
       87
 90
       98
 90
       86
 90
       98
 90
       85
 90
       98
 90
       84
 90
       98
 90
      100
 90
      164
 90
      101
 90
      164
 90
      102
 90
      164
 90
      103
 90
      164
 90
      104
 90
      163
 90
      105
 90
      163
 90
      106
 90
      163
 90
      107
 90
      163
 90
      108
 90
      163
 90
      109
 90
      162
 90
      110
 90
      162
 90
      111
 90
      161
 90
      160
 90
      174
 90
      112
 90
      159
 90
      118
 90
      155
 90
      155
 90
      181
 90
      159
 90
      175
 90
      113
 90
      159
 90
      158
 90
      176
 90
      155
 90
      180
 90
      114
 90
      158
 90
      158
 90
      177
 90
      156
 90
      179
 90
      117
 90
      156
 90
      116
 90
      156
 90
      115
 90
      157
 90
      157
 90
      178
 95
      401
140
0.0
140
0.0
140
0.0
140
0.0
140
0.0
140
0.0
140
0.0
140
0.0
140
0.0
140
0.0
140
0.0
140
0.0
140
0.0
140
0.0
140
0.0
140
0.0
140
0.0
140
0.0
140
0.0
140
0.0
140
0.0
140
0.0
140
0.0
140
0.0
140
0.0
140
0.0
140
0.0
140
0.0
140
0.0
140
0.0
140
0.0
140
0.0
140
0.0
140
0.0
140
0.0
140
0.0
140
0.0
140
0.0
140
0.0
140
0.0
140
0.0
140
0.0
140
0.0
140
0.0
140
0.0
140
0.0
140
0.0
140
0.0
140
0.0
140
0.0
140
0.0
140
0.0
140
0.0
140
0.0
140
0.0
140
0.0
140
0.0
140
0.0
140
0.0
140
0.0
140
0.0
140
0.0
140
0.0
140
0.0
140
0.0
140
0.0
140
0.0
140
0.0
140
0.0
140
0.0
140
0.0
140
0.0
140
0.0
140
0.0
140
0.0
140
0.0
140
0.0
140
0.0
140
0.0
140
0.0
140
0.0
140
0.0
140
0.0
140
0.0
140
0.0
140
0.0
140
0.0
140
0.0
140
0.0
140
0.0
140
0.0
140
0.0
140
0.0
140
0.0
140
0.0
140
0.0
140
0.0
140
0.0
140
0.0
140
0.0
140
0.0
140
0.0
140
0.0
140
0.0
140
0.0
140
0.0
140
0.0
140
0.0
140
0.0
140
0.0
140
0.0
140
0.0
140
0.0
140
0.0
140
0.0
140
0.0
140
0.0
140
0.0
140
0.0
140
0.0
140
0.0
140
0.0
140
0.0
140
0.0
140
0.0
140
0.0
140
0.0
140
0.0
140
0.0
140
0.0
140
0.0
140
0.0
140
0.0
140
0.0
140
0.0
140
0.0
140
0.0
140
0.0
140
0.0
140
0.0
140
0.0
140
0.0
140
0.0
140
0.0
140
0.0
140
0.0
140
0.0
140
0.0
140
0.0
140
0.0
140
0.0
140
0.0
140
0.0
140
0.0
140
0.0
140
0.0
140
0.0
140
0.0
140
0.0
140
0.0
140
0.0
140
0.0
140
0.0
140
0.0
140
0.0
140
0.0
140
0.0
140
0.0
140
0.0
140
0.0
140
0.0
140
0.0
140
0.0
140
0.0
140
0.0
140
0.0
140
0.0
140
0.0
140
0.0
140
0.0
140
0.0
140
0.0
140
0.0
140
0.0
140
0.0
140
0.0
140
0.0
140
0.0
140
0.0
140
0.0
140
0.0
140
0.0
140
0.0
140
0.0
140
0.0
140
0.0
140
0.0
140
0.0
140
0.0
140
0.0
140
0.0
140
0.0
140
0.0
140
0.0
140
0.0
140
0.0
140
0.0
140
0.0
140
0.0
140
0.0
140
0.0
140
0.0
140
0.0
140
0.0
140
0.0
140
0.0
140
0.0
140
0.0
140
0.0
140
0.0
140
0.0
140
0.0
140
0.0
140
0.0
140
0.0
140
0.0
140
0.0
140
0.0
140
0.0
140
0.0
140
0.0
140
0.0
140
0.0
140
0.0
140
0.0
140
0.0
140
0.0
140
0.0
140
0.0
140
0.0
140
0.0
140
0.0
140
0.0
140
0.0
140
0.0
140
0.0
140
0.0
140
0.0
140
0.0
140
0.0
140
0.0
140
0.0
140
0.0
140
0.0
140
0.0
140
0.0
140
0.0
140
0.0
140
0.0
140
0.0
140
0.0
140
0.0
140
0.0
140
0.0
140
0.0
140
0.0
140
0.0
140
0.0
140
0.0
140
0.0
140
0.0
140
0.0
140
0.0
140
0.0
140
0.0
140
0.0
140
0.0
140
0.0
140
0.0
140
0.0
140
0.0
140
0.0
140
0.0
140
0.0
140
0.0
140
0.0
140
0.0
140
0.0
140
0.0
140
0.0
140
0.0
140
0.0
140
0.0
140
0.0
140
0.0
140
0.0
140
0.0
140
0.0
140
0.0
140
0.0
140
0.0
140
0.0
140
0.0
140
0.0
140
0.0
140
0.0
140
0.0
140
0.0
140
0.0
140
0.0
140
0.0
140
0.0
140
0.0
140
0.0
140
0.0
140
0.0
140
0.0
140
0.0
140
0.0
140
0.0
140
0.0
140
0.0
140
0.0
140
0.0
140
0.0
140
0.0
140
0.0
140
0.0
140
0.0
140
0.0
140
0.0
140
0.0
140
0.0
140
0.0
140
0.0
140
0.0
140
0.0
140
0.0
140
0.0
140
0.0
140
0.0
140
0.0
140
0.0
140
0.0
140
0.0
140
0.0
140
0.0
140
0.0
140
0.0
140
0.0
140
0.0
140
0.0
140
0.0
140
0.0
140
0.0
140
0.0
140
0.0
140
0.0
140
0.0
140
0.0
140
0.0
140
0.0
140
0.0
140
0.0
140
0.0
140
0.0
140
0.0
140
0.0
140
0.0
140
0.0
140
0.0
140
0.0
140
0.0
140
0.0
140
0.0
140
0.0
140
0.0
140
0.0
140
0.0
140
0.0
140
0.0
140
0.0
140
0.0
140
0.0
140
0.0
140
0.0
140
0.0
140
0.0
140
0.0
140
0.0
140
0.0
140
0.0
140
0.0
140
0.0
140
0.0
140
0.0
140
0.0
140
0.0
140
0.0
140
0.0
140
0.0
 90
        0
  0
POLYLINE
  5
FA
330
1F
100
AcDbEntity
  8
OracDecor_cornice_mouldings
 62
   213
420
 14768327
100
AcDb3dPolyline
 66
     1
 10
0.0
 20
0.0
 30
0.0
 70
     9
  0
VERTEX
  5
FB
330
FA
100
AcDbEntity
  8
OracDecor_cornice_mouldings
 62
   213
420
 14768327
100
AcDbVertex
100
AcDb3dPolylineVertex
 10
0.0000031617178138
 20
2.068952322006225
 30
-64.62029266357422
 70
    32
  0
VERTEX
  5
FC
330
FA
100
AcDbEntity
  8
OracDecor_cornice_mouldings
 62
   213
420
 14768327
100
AcDbVertex
100
AcDb3dPolylineVertex
 10
0.0000030416013033
 20
1.252206563949584
 30
-64.91651153564453
 70
    32
  0
VERTEX
  5
FD
330
FA
100
AcDbEntity
  8
OracDecor_cornice_mouldings
 62
   213
420
 14768327
100
AcDbVertex
100
AcDb3dPolylineVertex
 10
0.0000029574418932
 20
0.5858820080757142
 30
-65.47468566894531
 70
    32
  0
VERTEX
  5
FE
330
FA
100
AcDbEntity
  8
OracDecor_cornice_mouldings
 62
   213
420
 14768327
100
AcDbVertex
100
AcDb3dPolylineVertex
 10
0.0000029194786748
 20
0.1509493589401245
 30
-66.22727203369141
 70
    32
  0
VERTEX
  5
FF
330
FA
100
AcDbEntity
  8
OracDecor_cornice_mouldings
 62
   213
420
 14768327
100
AcDbVertex
100
AcDb3dPolylineVertex
 10
0.0000029322825412
 20
-0.0000133970397656
 30
-67.08285522460937
 70
    32
  0
VERTEX
  5
100
330
FA
100
AcDbEntity
  8
OracDecor_cornice_mouldings
 62
   213
420
 14768327
100
AcDbVertex
100
AcDb3dPolylineVertex
 10
0.0000030467658689
 20
-0.0000131680744744
 30
-69.7019271850586
 70
    32
  0
VERTEX
  5
101
330
FA
100
AcDbEntity
  8
OracDecor_cornice_mouldings
 62
   213
420
 14768327
100
AcDbVertex
100
AcDb3dPolylineVertex
 10
0.0000032669386201
 20
0.9226363897323608
 30
-71.30000305175781
 70
    32
  0
VERTEX
  5
102
330
FA
100
AcDbEntity
  8
OracDecor_cornice_mouldings
 62
   213
420
 14768327
100
AcDbVertex
100
AcDb3dPolylineVertex
 10
0.0000033341652852
 20
1.160181403160095
 30
-71.95259094238281
 70
    32
  0
VERTEX
  5
103
330
FA
100
AcDbEntity
  8
OracDecor_cornice_mouldings
 62
   213
420
 14768327
100
AcDbVertex
100
AcDb3dPolylineVertex
 10
0.0000033645364965
 20
1.160181403160095
 30
-72.64740753173828
 70
    32
  0
VERTEX
  5
104
330
FA
100
AcDbEntity
  8
OracDecor_cornice_mouldings
 62
   213
420
 14768327
100
AcDbVertex
100
AcDb3dPolylineVertex
 10
0.0000033543612972
 20
0.9226365685462951
 30
-73.30000305175781
 70
    32
  0
VERTEX
  5
105
330
FA
100
AcDbEntity
  8
OracDecor_cornice_mouldings
 62
   213
420
 14768327
100
AcDbVertex
100
AcDb3dPolylineVertex
 10
0.0000032738969367
 20
-0.0000127138118842
 30
-74.89807891845703
 70
    32
  0
VERTEX
  5
106
330
FA
100
AcDbEntity
  8
OracDecor_cornice_mouldings
 62
   213
420
 14768327
100
AcDbVertex
100
AcDb3dPolylineVertex
 10
0.0000034881668398
 20
-0.0000122852716231
 30
-79.80000305175781
 70
    32
  0
VERTEX
  5
107
330
FA
100
AcDbEntity
  8
OracDecor_cornice_mouldings
 62
   213
420
 14768327
100
AcDbVertex
100
AcDb3dPolylineVertex
 10
0.0000048566998885
 20
8.399983406066894
 30
-79.79999542236328
 70
    32
  0
VERTEX
  5
108
330
FA
100
AcDbEntity
  8
OracDecor_cornice_mouldings
 62
   213
420
 14768327
100
AcDbVertex
100
AcDb3dPolylineVertex
 10
0.0000045681922529
 20
8.399985313415527
 30
-73.19970703125
 70
    32
  0
VERTEX
  5
109
330
FA
100
AcDbEntity
  8
OracDecor_cornice_mouldings
 62
   213
420
 14768327
100
AcDbVertex
100
AcDb3dPolylineVertex
 10
0.000004569506018
 20
8.454199790954589
 30
-73.02769470214844
 70
    32
  0
VERTEX
  5
10A
330
FA
100
AcDbEntity
  8
OracDecor_cornice_mouldings
 62
   213
420
 14768327
100
AcDbVertex
100
AcDb3dPolylineVertex
 10
0.0000045880474318
 20
8.597502708435058
 30
-72.91775512695313
 70
    32
  0
VERTEX
  5
10B
330
FA
100
AcDbEntity
  8
OracDecor_cornice_mouldings
 62
   213
420
 14768327
100
AcDbVertex
100
AcDb3dPolylineVertex
 10
0.0000046170612222
 20
8.777686119079589
 30
-72.90994262695313
 70
    32
  0
VERTEX
  5
10C
330
FA
100
AcDbEntity
  8
OracDecor_cornice_mouldings
 62
   213
420
 14768327
100
AcDbVertex
100
AcDb3dPolylineVertex
 10
0.000005043760666
 20
11.3124418258667
 30
-73.22416687011719
 70
    32
  0
VERTEX
  5
10D
330
FA
100
AcDbEntity
  8
OracDecor_cornice_mouldings
 62
   213
420
 14768327
100
AcDbVertex
100
AcDb3dPolylineVertex
 10
0.000005437938853
 20
13.83703899383545
 30
-72.8322525024414
 70
    32
  0
VERTEX
  5
10E
330
FA
100
AcDbEntity
  8
OracDecor_cornice_mouldings
 62
   213
420
 14768327
100
AcDbVertex
100
AcDb3dPolylineVertex
 10
0.0000057692254813
 20
16.15692901611328
 30
-71.76453399658203
 70
    32
  0
VERTEX
  5
10F
330
FA
100
AcDbEntity
  8
OracDecor_cornice_mouldings
 62
   213
420
 14768327
100
AcDbVertex
100
AcDb3dPolylineVertex
 10
0.0000060125448726
 20
18.09648513793945
 30
-70.10194396972656
 70
    32
  0
VERTEX
  5
110
330
FA
100
AcDbEntity
  8
OracDecor_cornice_mouldings
 62
   213
420
 14768327
100
AcDbVertex
100
AcDb3dPolylineVertex
 10
0.0000061491823544
 20
19.50666809082031
 30
-67.97181701660156
 70
    32
  0
VERTEX
  5
111
330
FA
100
AcDbEntity
  8
OracDecor_cornice_mouldings
 62
   213
420
 14768327
100
AcDbVertex
100
AcDb3dPolylineVertex
 10
0.0000061687042034
 20
20.27954483032226
 30
-65.53777313232422
 70
    32
  0
VERTEX
  5
112
330
FA
100
AcDbEntity
  8
OracDecor_cornice_mouldings
 62
   213
420
 14768327
100
AcDbVertex
100
AcDb3dPolylineVertex
 10
0.0000060696188484
 20
20.35650825500488
 30
-62.98410415649414
 70
    32
  0
VERTEX
  5
113
330
FA
100
AcDbEntity
  8
OracDecor_cornice_mouldings
 62
   213
420
 14768327
100
AcDbVertex
100
AcDb3dPolylineVertex
 10
0.0000058595378505
 20
19.73148155212402
 30
-60.50760269165039
 70
    32
  0
VERTEX
  5
114
330
FA
100
AcDbEntity
  8
OracDecor_cornice_mouldings
 62
   213
420
 14768327
100
AcDbVertex
100
AcDb3dPolylineVertex
 10
0.000005849487934
 20
19.71401786804199
 30
-60.34277725219727
 70
    32
  0
VERTEX
  5
115
330
FA
100
AcDbEntity
  8
OracDecor_cornice_mouldings
 62
   213
420
 14768327
100
AcDbVertex
100
AcDb3dPolylineVertex
 10
0.0000058547675508
 20
19.78626441955566
 30
-60.19429397583007
 70
    32
  0
VERTEX
  5
116
330
FA
100
AcDbEntity
  8
OracDecor_cornice_mouldings
 62
   213
420
 14768327
100
AcDbVertex
100
AcDb3dPolylineVertex
 10
0.0000058738069129
 20
19.92673110961914
 30
-60.1063117980957
 70
    32
  0
VERTEX
  5
117
330
FA
100
AcDbEntity
  8
OracDecor_cornice_mouldings
 62
   213
420
 14768327
100
AcDbVertex
100
AcDb3dPolylineVertex
 10
0.0000068365952757
 20
26.32881927490235
 30
-58.27053833007813
 70
    32
  0
VERTEX
  5
118
330
FA
100
AcDbEntity
  8
OracDecor_cornice_mouldings
 62
   213
420
 14768327
100
AcDbVertex
100
AcDb3dPolylineVertex
 10
0.0000066117554525
 20
26.11630630493164
 30
-53.91888427734375
 70
    32
  0
VERTEX
  5
119
330
FA
100
AcDbEntity
  8
OracDecor_cornice_mouldings
 62
   213
420
 14768327
100
AcDbVertex
100
AcDb3dPolylineVertex
 10
0.0000065104477471
 20
26.27862358093262
 30
-50.99623489379883
 70
    32
  0
VERTEX
  5
11A
330
FA
100
AcDbEntity
  8
OracDecor_cornice_mouldings
 62
   213
420
 14768327
100
AcDbVertex
100
AcDb3dPolylineVertex
 10
0.0000064606952037
 20
26.73776435852051
 30
-48.14672470092773
 70
    32
  0
VERTEX
  5
11B
330
FA
100
AcDbEntity
  8
OracDecor_cornice_mouldings
 62
   213
420
 14768327
100
AcDbVertex
100
AcDb3dPolylineVertex
 10
0.0000064616369855
 20
27.50168228149414
 30
-45.32101058959961
 70
    32
  0
VERTEX
  5
11C
330
FA
100
AcDbEntity
  8
OracDecor_cornice_mouldings
 62
   213
420
 14768327
100
AcDbVertex
100
AcDb3dPolylineVertex
 10
0.000006513219887
 20
28.54049682617187
 30
-42.62923431396484
 70
    32
  0
VERTEX
  5
11D
330
FA
100
AcDbEntity
  8
OracDecor_cornice_mouldings
 62
   213
420
 14768327
100
AcDbVertex
100
AcDb3dPolylineVertex
 10
0.0000066163684096
 20
29.87289047241211
 30
-40.02289962768554
 70
    32
  0
VERTEX
  5
11E
330
FA
100
AcDbEntity
  8
OracDecor_cornice_mouldings
 62
   213
420
 14768327
100
AcDbVertex
100
AcDb3dPolylineVertex
 10
0.0000067670252974
 20
31.44646835327149
 30
-37.6045036315918
 70
    32
  0
VERTEX
  5
11F
330
FA
100
AcDbEntity
  8
OracDecor_cornice_mouldings
 62
   213
420
 14768327
100
AcDbVertex
100
AcDb3dPolylineVertex
 10
0.0000069679090302
 20
33.28959655761719
 30
-35.33049392700196
 70
    32
  0
VERTEX
  5
120
330
FA
100
AcDbEntity
  8
OracDecor_cornice_mouldings
 62
   213
420
 14768327
100
AcDbVertex
100
AcDb3dPolylineVertex
 10
0.0000072112015914
 20
35.33048629760742
 30
-33.28960037231445
 70
    32
  0
VERTEX
  5
121
330
FA
100
AcDbEntity
  8
OracDecor_cornice_mouldings
 62
   213
420
 14768327
100
AcDbVertex
100
AcDb3dPolylineVertex
 10
0.0000075011189438
 20
37.60449600219727
 30
-31.44647407531738
 70
    32
  0
VERTEX
  5
122
330
FA
100
AcDbEntity
  8
OracDecor_cornice_mouldings
 62
   213
420
 14768327
100
AcDbVertex
100
AcDb3dPolylineVertex
 10
0.0000078263428804
 20
40.02289199829101
 30
-29.87290191650391
 70
    32
  0
VERTEX
  5
123
330
FA
100
AcDbEntity
  8
OracDecor_cornice_mouldings
 62
   213
420
 14768327
100
AcDbVertex
100
AcDb3dPolylineVertex
 10
0.0000081927282736
 20
42.62922668457031
 30
-28.54051017761231
 70
    32
  0
VERTEX
  5
124
330
FA
100
AcDbEntity
  8
OracDecor_cornice_mouldings
 62
   213
420
 14768327
100
AcDbVertex
100
AcDb3dPolylineVertex
 10
0.0000085858664534
 20
45.32100296020508
 30
-27.50170135498047
 70
    32
  0
VERTEX
  5
125
330
FA
100
AcDbEntity
  8
OracDecor_cornice_mouldings
 62
   213
420
 14768327
100
AcDbVertex
100
AcDb3dPolylineVertex
 10
0.000009012841474
 20
48.1467170715332
 30
-26.73778343200684
 70
    32
  0
VERTEX
  5
126
330
FA
100
AcDbEntity
  8
OracDecor_cornice_mouldings
 62
   213
420
 14768327
100
AcDbVertex
100
AcDb3dPolylineVertex
 10
0.0000018276214178
 20
50.99622344970703
 30
-26.27864265441895
 70
    32
  0
VERTEX
  5
127
330
FA
100
AcDbEntity
  8
OracDecor_cornice_mouldings
 62
   213
420
 14768327
100
AcDbVertex
100
AcDb3dPolylineVertex
 10
0.0000022966869437
 20
53.91887283325195
 30
-26.1163272857666
 70
    32
  0
VERTEX
  5
128
330
FA
100
AcDbEntity
  8
OracDecor_cornice_mouldings
 62
   213
420
 14768327
100
AcDbVertex
100
AcDb3dPolylineVertex
 10
0.00000301495038
 20
58.27053070068359
 30
-26.32883834838867
 70
    32
  0
VERTEX
  5
129
330
FA
100
AcDbEntity
  8
OracDecor_cornice_mouldings
 62
   213
420
 14768327
100
AcDbVertex
100
AcDb3dPolylineVertex
 10
0.0000030341898309
 20
60.10629653930664
 30
-19.92675018310547
 70
    32
  0
VERTEX
  5
12A
330
FA
100
AcDbEntity
  8
OracDecor_cornice_mouldings
 62
   213
420
 14768327
100
AcDbVertex
100
AcDb3dPolylineVertex
 10
0.0000030423843782
 20
60.19427871704102
 30
-19.78628349304199
 70
    32
  0
VERTEX
  5
12B
330
FA
100
AcDbEntity
  8
OracDecor_cornice_mouldings
 62
   213
420
 14768327
100
AcDbVertex
100
AcDb3dPolylineVertex
 10
0.0000030634173527
 20
60.3427619934082
 30
-19.71403694152832
 70
    32
  0
VERTEX
  5
12C
330
FA
100
AcDbEntity
  8
OracDecor_cornice_mouldings
 62
   213
420
 14768327
100
AcDbVertex
100
AcDb3dPolylineVertex
 10
0.0000030910341593
 20
60.50758743286133
 30
-19.73150062561035
 70
    32
  0
VERTEX
  5
12D
330
FA
100
AcDbEntity
  8
OracDecor_cornice_mouldings
 62
   213
420
 14768327
100
AcDbVertex
100
AcDb3dPolylineVertex
 10
0.0000035218290577
 20
62.98408889770508
 30
-20.35652732849121
 70
    32
  0
VERTEX
  5
12E
330
FA
100
AcDbEntity
  8
OracDecor_cornice_mouldings
 62
   213
420
 14768327
100
AcDbVertex
100
AcDb3dPolylineVertex
 10
0.0000039345122786
 20
65.53777313232422
 30
-20.27956390380859
 70
    32
  0
VERTEX
  5
12F
330
FA
100
AcDbEntity
  8
OracDecor_cornice_mouldings
 62
   213
420
 14768327
100
AcDbVertex
100
AcDb3dPolylineVertex
 10
0.0000042972833398
 20
67.97180938720703
 30
-19.50668716430664
 70
    32
  0
VERTEX
  5
130
330
FA
100
AcDbEntity
  8
OracDecor_cornice_mouldings
 62
   213
420
 14768327
100
AcDbVertex
100
AcDb3dPolylineVertex
 10
0.0000045826836867
 20
70.10193634033203
 30
-18.09650802612305
 70
    32
  0
VERTEX
  5
131
330
FA
100
AcDbEntity
  8
OracDecor_cornice_mouldings
 62
   213
420
 14768327
100
AcDbVertex
100
AcDb3dPolylineVertex
 10
0.0000047687753977
 20
71.76453399658203
 30
-16.15695190429687
 70
    32
  0
VERTEX
  5
132
330
FA
100
AcDbEntity
  8
OracDecor_cornice_mouldings
 62
   213
420
 14768327
100
AcDbVertex
100
AcDb3dPolylineVertex
 10
0.0000048413230616
 20
72.8322525024414
 30
-13.83705902099609
 70
    32
  0
VERTEX
  5
133
330
FA
100
AcDbEntity
  8
OracDecor_cornice_mouldings
 62
   213
420
 14768327
100
AcDbVertex
100
AcDb3dPolylineVertex
 10
0.0000047948187785
 20
73.22415924072266
 30
-11.31246471405029
 70
    32
  0
VERTEX
  5
134
330
FA
100
AcDbEntity
  8
OracDecor_cornice_mouldings
 62
   213
420
 14768327
100
AcDbVertex
100
AcDb3dPolylineVertex
 10
0.0000046328277676
 20
72.9099349975586
 30
-8.7777099609375
 70
    32
  0
VERTEX
  5
135
330
FA
100
AcDbEntity
  8
OracDecor_cornice_mouldings
 62
   213
420
 14768327
100
AcDbVertex
100
AcDb3dPolylineVertex
 10
0.0000046262248361
 20
72.91774749755859
 30
-8.597522735595703
 70
    32
  0
VERTEX
  5
136
330
FA
100
AcDbEntity
  8
OracDecor_cornice_mouldings
 62
   213
420
 14768327
100
AcDbVertex
100
AcDb3dPolylineVertex
 10
0.0000046378718253
 20
73.0276870727539
 30
-8.454221725463867
 70
    32
  0
VERTEX
  5
137
330
FA
100
AcDbEntity
  8
OracDecor_cornice_mouldings
 62
   213
420
 14768327
100
AcDbVertex
100
AcDb3dPolylineVertex
 10
0.0000046635259423
 20
73.19969940185547
 30
-8.400006294250488
 70
    32
  0
VERTEX
  5
138
330
FA
100
AcDbEntity
  8
OracDecor_cornice_mouldings
 62
   213
420
 14768327
100
AcDbVertex
100
AcDb3dPolylineVertex
 10
0.0000057388515415
 20
79.79999542236328
 30
-8.400010108947753
 70
    32
  0
VERTEX
  5
139
330
FA
100
AcDbEntity
  8
OracDecor_cornice_mouldings
 62
   213
420
 14768327
100
AcDbVertex
100
AcDb3dPolylineVertex
 10
0.0000053716757975
 20
79.79999542236328
 30
-0.0000044677535698
 70
    32
  0
VERTEX
  5
13A
330
FA
100
AcDbEntity
  8
OracDecor_cornice_mouldings
 62
   213
420
 14768327
100
AcDbVertex
100
AcDb3dPolylineVertex
 10
0.0000045730494094
 20
74.89806365966797
 30
-0.0000087109910965
 70
    32
  0
VERTEX
  5
13B
330
FA
100
AcDbEntity
  8
OracDecor_cornice_mouldings
 62
   213
420
 14768327
100
AcDbVertex
100
AcDb3dPolylineVertex
 10
0.0000043530217226
 20
73.29999542236328
 30
-0.9226582646369934
 70
    32
  0
VERTEX
  5
13C
330
FA
100
AcDbEntity
  8
OracDecor_cornice_mouldings
 62
   213
420
 14768327
100
AcDbVertex
100
AcDb3dPolylineVertex
 10
0.0000042570827645
 20
72.64739227294922
 30
-1.160203218460083
 70
    32
  0
VERTEX
  5
13D
330
FA
100
AcDbEntity
  8
OracDecor_cornice_mouldings
 62
   213
420
 14768327
100
AcDbVertex
100
AcDb3dPolylineVertex
 10
0.0000041438843255
 20
71.95258331298828
 30
-1.160203337669372
 70
    32
  0
VERTEX
  5
13E
330
FA
100
AcDbEntity
  8
OracDecor_cornice_mouldings
 62
   213
420
 14768327
100
AcDbVertex
100
AcDb3dPolylineVertex
 10
0.0000040271797843
 20
71.29999542236328
 30
-0.9226584434509277
 70
    32
  0
VERTEX
  5
13F
330
FA
100
AcDbEntity
  8
OracDecor_cornice_mouldings
 62
   213
420
 14768327
100
AcDbVertex
100
AcDb3dPolylineVertex
 10
0.0000037264890125
 20
69.70191192626953
 30
-0.0000091652527772
 70
    32
  0
VERTEX
  5
140
330
FA
100
AcDbEntity
  8
OracDecor_cornice_mouldings
 62
   213
420
 14768327
100
AcDbVertex
100
AcDb3dPolylineVertex
 10
0.0000032997877497
 20
67.08283996582031
 30
-0.0000093942198873
 70
    32
  0
VERTEX
  5
141
330
FA
100
AcDbEntity
  8
OracDecor_cornice_mouldings
 62
   213
420
 14768327
100
AcDbVertex
100
AcDb3dPolylineVertex
 10
0.0000031669951568
 20
66.22725677490234
 30
-0.1509722918272018
 70
    32
  0
VERTEX
  5
142
330
FA
100
AcDbEntity
  8
OracDecor_cornice_mouldings
 62
   213
420
 14768327
100
AcDbVertex
100
AcDb3dPolylineVertex
 10
0.0000030633937058
 20
65.47467041015625
 30
-0.5859050750732422
 70
    32
  0
VERTEX
  5
143
330
FA
100
AcDbEntity
  8
OracDecor_cornice_mouldings
 62
   213
420
 14768327
100
AcDbVertex
100
AcDb3dPolylineVertex
 10
0.0000030015826269
 20
64.91649627685546
 30
-1.252229690551757
 70
    32
  0
VERTEX
  5
144
330
FA
100
AcDbEntity
  8
OracDecor_cornice_mouldings
 62
   213
420
 14768327
100
AcDbVertex
100
AcDb3dPolylineVertex
 10
0.0000029890225051
 20
64.62027740478515
 30
-2.068975448608398
 70
    32
  0
VERTEX
  5
145
330
FA
100
AcDbEntity
  8
OracDecor_cornice_mouldings
 62
   213
420
 14768327
100
AcDbVertex
100
AcDb3dPolylineVertex
 10
0.0000029687917049
 20
63.71111297607422
 30
-4.994749546051025
 70
    32
  0
VERTEX
  5
146
330
FA
100
AcDbEntity
  8
OracDecor_cornice_mouldings
 62
   213
420
 14768327
100
AcDbVertex
100
AcDb3dPolylineVertex
 10
0.0000028184376788
 20
62.09059524536133
 30
-7.595055103302001
 70
    32
  0
VERTEX
  5
147
330
FA
100
AcDbEntity
  8
OracDecor_cornice_mouldings
 62
   213
420
 14768327
100
AcDbVertex
100
AcDb3dPolylineVertex
 10
0.000002547780241
 20
59.86452102661132
 30
-9.700133323669433
 70
    32
  0
VERTEX
  5
148
330
FA
100
AcDbEntity
  8
OracDecor_cornice_mouldings
 62
   213
420
 14768327
100
AcDbVertex
100
AcDb3dPolylineVertex
 10
0.0000013910212147
 20
51.04009628295898
 30
-16.12688446044922
 70
    32
  0
VERTEX
  5
149
330
FA
100
AcDbEntity
  8
OracDecor_cornice_mouldings
 62
   213
420
 14768327
100
AcDbVertex
100
AcDb3dPolylineVertex
 10
0.0000088004899226
 20
49.4485855102539
 30
-17.02742576599121
 70
    32
  0
VERTEX
  5
14A
330
FA
100
AcDbEntity
  8
OracDecor_cornice_mouldings
 62
   213
420
 14768327
100
AcDbVertex
100
AcDb3dPolylineVertex
 10
0.0000085371948444
 20
47.69415664672851
 30
-17.54303932189941
 70
    32
  0
VERTEX
  5
14B
330
FA
100
AcDbEntity
  8
OracDecor_cornice_mouldings
 62
   213
420
 14768327
100
AcDbVertex
100
AcDb3dPolylineVertex
 10
0.0000074406661952
 20
40.41557312011718
 30
-19.58604621887207
 70
    32
  0
VERTEX
  5
14C
330
FA
100
AcDbEntity
  8
OracDecor_cornice_mouldings
 62
   213
420
 14768327
100
AcDbVertex
100
AcDb3dPolylineVertex
 10
0.0000064991886575
 20
33.70301055908203
 30
-23.06655502319336
 70
    32
  0
VERTEX
  5
14D
330
FA
100
AcDbEntity
  8
OracDecor_cornice_mouldings
 62
   213
420
 14768327
100
AcDbVertex
100
AcDb3dPolylineVertex
 10
0.0000057523429859
 20
27.83857536315918
 30
-27.83858871459961
 70
    32
  0
VERTEX
  5
14E
330
FA
100
AcDbEntity
  8
OracDecor_cornice_mouldings
 62
   213
420
 14768327
100
AcDbVertex
100
AcDb3dPolylineVertex
 10
0.000005231222076
 20
23.06653785705567
 30
-33.7030258178711
 70
    32
  0
VERTEX
  5
14F
330
FA
100
AcDbEntity
  8
OracDecor_cornice_mouldings
 62
   213
420
 14768327
100
AcDbVertex
100
AcDb3dPolylineVertex
 10
0.0000049575910452
 20
19.58603096008301
 30
-40.41559219360351
 70
    32
  0
VERTEX
  5
150
330
FA
100
AcDbEntity
  8
OracDecor_cornice_mouldings
 62
   213
420
 14768327
100
AcDbVertex
100
AcDb3dPolylineVertex
 10
0.0000049428995226
 20
17.54302024841308
 30
-47.69417572021484
 70
    32
  0
VERTEX
  5
151
330
FA
100
AcDbEntity
  8
OracDecor_cornice_mouldings
 62
   213
420
 14768327
100
AcDbVertex
100
AcDb3dPolylineVertex
 10
0.0000049355840019
 20
17.02740669250488
 30
-49.44860458374023
 70
    32
  0
VERTEX
  5
152
330
FA
100
AcDbEntity
  8
OracDecor_cornice_mouldings
 62
   213
420
 14768327
100
AcDbVertex
100
AcDb3dPolylineVertex
 10
0.0000048584342949
 20
16.12686538696289
 30
-51.04011535644531
 70
    32
  0
VERTEX
  5
153
330
FA
100
AcDbEntity
  8
OracDecor_cornice_mouldings
 62
   213
420
 14768327
100
AcDbVertex
100
AcDb3dPolylineVertex
 10
0.0000041971106839
 20
9.700114250183105
 30
-59.86452484130859
 70
    32
  0
VERTEX
  5
154
330
FA
100
AcDbEntity
  8
OracDecor_cornice_mouldings
 62
   213
420
 14768327
100
AcDbVertex
100
AcDb3dPolylineVertex
 10
0.000003951454346
 20
7.595034599304199
 30
-62.09059906005859
 70
    32
  0
VERTEX
  5
155
330
FA
100
AcDbEntity
  8
OracDecor_cornice_mouldings
 62
   213
420
 14768327
100
AcDbVertex
100
AcDb3dPolylineVertex
 10
0.0000035986461171
 20
4.99472951889038
 30
-63.71112060546875
 70
    32
  0
SEQEND
  5
156
330
FA
100
AcDbEntity
  8
OracDecor_cornice_mouldings
 62
   213
420
 14768327
  0
ENDSEC
  0
SECTION
  2
OBJECTS
  0
DICTIONARY
  5
C
330
0
100
AcDbDictionary
281
     1
  3
ACAD_COLOR
350
DC
  3
ACAD_DETAILVIEWSTYLE
350
F5
  3
ACAD_GROUP
350
D
  3
ACAD_LAYOUT
350
1A
  3
ACAD_MATERIAL
350
AA
  3
ACAD_MLEADERSTYLE
350
F1
  3
ACAD_MLINESTYLE
350
17
  3
ACAD_PLOTSETTINGS
350
19
  3
ACAD_PLOTSTYLENAME
350
E
  3
ACAD_SCALELIST
350
DF
  3
ACAD_SECTIONVIEWSTYLE
350
F3
  3
ACAD_TABLESTYLE
350
DD
  3
ACAD_VISUALSTYLE
350
C3
  3
ACDB_RECOMPOSE_DATA
350
163
  3
AcDbVariableDictionary
350
157
  0
DICTIONARY
  5
DC
102
{ACAD_REACTORS
330
C
102
}
330
C
100
AcDbDictionary
281
     1
  0
DICTIONARY
  5
F5
102
{ACAD_REACTORS
330
C
102
}
330
C
100
AcDbDictionary
281
     1
  3
Imperial24
350
F6
  0
DICTIONARY
  5
D
102
{ACAD_REACTORS
330
C
102
}
330
C
100
AcDbDictionary
281
     1
  0
DICTIONARY
  5
1A
102
{ACAD_REACTORS
330
C
102
}
330
C
100
AcDbDictionary
281
     1
  3
Layout1
350
1E
  3
Layout2
350
26
  3
Model
350
22
  0
DICTIONARY
  5
AA
102
{ACAD_REACTORS
330
C
102
}
330
C
100
AcDbDictionary
281
     1
  3
ByBlock
350
B3
  3
ByLayer
350
AB
  3
Global
350
BB
  0
DICTIONARY
  5
F1
102
{ACAD_REACTORS
330
C
102
}
330
C
100
AcDbDictionary
281
     1
  3
Standard
350
F2
  0
DICTIONARY
  5
17
102
{ACAD_REACTORS
330
C
102
}
330
C
100
AcDbDictionary
281
     1
  3
Standard
350
18
  0
DICTIONARY
  5
19
102
{ACAD_REACTORS
330
C
102
}
330
C
100
AcDbDictionary
281
     1
  0
ACDBDICTIONARYWDFLT
  5
E
102
{ACAD_REACTORS
330
C
102
}
330
C
100
AcDbDictionary
281
     1
  3
ByLayer
350
2D
  3
Normal
350
F
100
AcDbDictionaryWithDefault
340
F
  0
DICTIONARY
  5
DF
102
{ACAD_REACTORS
330
C
102
}
330
C
100
AcDbDictionary
281
     1
  3
A0
350
E0
  3
A1
350
E1
  3
A2
350
E2
  3
A3
350
E3
  3
A4
350
E4
  3
A5
350
E5
  3
A6
350
E6
  3
A7
350
E7
  3
A8
350
E8
  3
A9
350
E9
  3
B0
350
EA
  3
B1
350
EB
  3
B2
350
EC
  3
B3
350
ED
  3
B4
350
EE
  3
B5
350
EF
  3
B6
350
F0
  0
DICTIONARY
  5
F3
102
{ACAD_REACTORS
330
C
102
}
330
C
100
AcDbDictionary
281
     1
  3
Imperial24
350
F4
  0
DICTIONARY
  5
DD
102
{ACAD_REACTORS
330
C
102
}
330
C
100
AcDbDictionary
281
     1
  3
Standard
350
DE
  0
DICTIONARY
  5
C3
102
{ACAD_REACTORS
330
C
102
}
330
C
100
AcDbDictionary
281
     1
  3
2dWireframe
350
C9
  3
Basic
350
C8
  3
Brighten
350
CF
  3
ColorChange
350
D3
  3
Conceptual
350
CC
  3
Dim
350
CE
  3
EdgeColorOff
350
DB
  3
Facepattern
350
D2
  3
Flat
350
C4
  3
FlatWithEdges
350
C5
  3
Gouraud
350
C6
  3
GouraudWithEdges
350
C7
  3
Hidden
350
CB
  3
JitterOff
350
D9
  3
Linepattern
350
D1
  3
OverhangOff
350
DA
  3
Realistic
350
CD
  3
Shaded
350
D8
  3
Shaded with edges
350
D7
  3
Shades of Gray
350
D4
  3
Sketchy
350
D5
  3
Thicken
350
D0
  3
Wireframe
350
CA
  3
X-Ray
350
D6
  0
XRECORD
  5
163
102
{ACAD_REACTORS
330
C
102
}
330
C
100
AcDbXrecord
280
     1
 90
        1
330
DE
  0
DICTIONARY
  5
157
102
{ACAD_REACTORS
330
C
102
}
330
C
100
AcDbDictionary
281
     1
  3
CANNOSCALE
350
15D
  3
CMLEADERSTYLE
350
159
  3
CTABLESTYLE
350
158
  3
CVIEWDETAILSTYLE
350
15A
  3
CVIEWSECTIONSTYLE
350
15B
  3
LAYEREVAL
350
15F
  3
LAYERNOTIFY
350
160
  3
LIGHTINGUNITS
350
15E
  3
MSLTSCALE
350
15C
  0
ACDBDETAILVIEWSTYLE
  5
F6
102
{ACAD_XDICTIONARY
360
198
102
}
102
{ACAD_REACTORS
330
F5
102
}
330
F5
100
AcDbModelDocViewStyle
 70
     0
  3
Imperial24
290
     0
100
AcDbDetailViewStyle
 70
     0
 71
     0
 90
        3
 71
     1
340
11
 62
   256
 40
0.24
340
0
 62
   256
 40
0.24
300

 40
0.36
280
     3
 71
     2
340
16
 90
       25
 62
   256
 71
     3
340
11
 62
   256
 40
0.24
 90
        1
 40
0.75
 90
        1
300
%<\AcVar ViewType \f "%tc1">% %<\AcVar ViewDetailId>%\PSCALE %<\AcVar ViewScale \f "%sn">%
 71
     4
340
16
 90
       25
 62
   256
340
16
 90
       25
 62
   256
280
     0
  0
LAYOUT
  5
1E
102
{ACAD_REACTORS
330
1A
102
}
330
1A
100
AcDbPlotSettings
  1

  2
\\KTXNTBDC\CASF2PN1
  4

  6

 40
0.0
 41
0.0
 42
0.0
 43
0.0
 44
0.0
 45
0.0
 46
0.0
 47
0.0
 48
0.0
 49
0.0
140
0.0
141
0.0
142
1.0
143
1.0
 70
   688
 72
     0
 73
     0
 74
     5
  7

 75
    16
147
1.0
 76
     0
 77
     2
 78
   300
148
0.0
149
0.0
100
AcDbLayout
  1
Layout1
 70
     1
 71
     1
 10
0.0
 20
0.0
 11
12.0
 21
9.0
 12
0.0
 22
0.0
 32
0.0
 14
1.000000000000000E+20
 24
1.000000000000000E+20
 34
1.000000000000000E+20
 15
-1.000000000000000E+20
 25
-1.000000000000000E+20
 35
-1.000000000000000E+20
146
0.0
 13
0.0
 23
0.0
 33
0.0
 16
1.0
 26
0.0
 36
0.0
 17
0.0
 27
1.0
 37
0.0
 76
     0
330
1B
  0
LAYOUT
  5
26
102
{ACAD_REACTORS
330
1A
102
}
330
1A
100
AcDbPlotSettings
  1

  2
\\KTXNTBDC\CASF2PN1
  4

  6

 40
0.0
 41
0.0
 42
0.0
 43
0.0
 44
0.0
 45
0.0
 46
0.0
 47
0.0
 48
0.0
 49
0.0
140
0.0
141
0.0
142
1.0
143
1.0
 70
   688
 72
     0
 73
     0
 74
     5
  7

 75
    16
147
1.0
 76
     0
 77
     2
 78
   300
148
0.0
149
0.0
100
AcDbLayout
  1
Layout2
 70
     1
 71
     2
 10
0.0
 20
0.0
 11
12.0
 21
9.0
 12
0.0
 22
0.0
 32
0.0
 14
0.0
 24
0.0
 34
0.0
 15
0.0
 25
0.0
 35
0.0
146
0.0
 13
0.0
 23
0.0
 33
0.0
 16
1.0
 26
0.0
 36
0.0
 17
0.0
 27
1.0
 37
0.0
 76
     0
330
23
  0
LAYOUT
  5
22
102
{ACAD_REACTORS
330
1A
102
}
330
1A
100
AcDbPlotSettings
  1

  2
\\KTXNTBDC\CASF2PN1
  4

  6

 40
0.0
 41
0.0
 42
0.0
 43
0.0
 44
0.0
 45
0.0
 46
0.0
 47
0.0
 48
0.0
 49
0.0
140
0.0
141
0.0
142
1.0
143
1.0
 70
  1712
 72
     0
 73
     0
 74
     0
  7

 75
     0
147
1.0
 76
     0
 77
     2
 78
   300
148
0.0
149
0.0
100
AcDbLayout
  1
Model
 70
     1
 71
     0
 10
0.0
 20
0.0
 11
12.0
 21
9.0
 12
0.0
 22
0.0
 32
0.0
 14
0.0
 24
0.0
 34
0.0
 15
0.0
 25
0.0
 35
0.0
146
0.0
 13
0.0
 23
0.0
 33
0.0
 16
1.0
 26
0.0
 36
0.0
 17
0.0
 27
1.0
 37
0.0
 76
     0
330
1F
  0
MATERIAL
  5
B3
102
{ACAD_XDICTIONARY
360
B4
102
}
102
{ACAD_REACTORS
330
AA
102
}
330
AA
100
AcDbMaterial
  1
ByBlock
 72
     0
 43
0.0208333333333333
 43
0.0
 43
0.0
 43
0.0
 43
0.0
 43
0.0208333333333333
 43
0.0
 43
0.0
 43
0.0
 43
0.0
 43
1.0
 43
0.0
 43
0.0
 43
0.0
 43
0.0
 43
1.0
 77
     0
 47
0.0208333333333333
 47
0.0
 47
0.0
 47
0.0
 47
0.0
 47
0.0208333333333333
 47
0.0
 47
0.0
 47
0.0
 47
0.0
 47
1.0
 47
0.0
 47
0.0
 47
0.0
 47
0.0
 47
1.0
171
     0
 49
0.0208333333333333
 49
0.0
 49
0.0
 49
0.0
 49
0.0
 49
0.0208333333333333
 49
0.0
 49
0.0
 49
0.0
 49
0.0
 49
1.0
 49
0.0
 49
0.0
 49
0.0
 49
0.0
 49
1.0
175
     0
142
0.0208333333333333
142
0.0
142
0.0
142
0.0
142
0.0
142
0.0208333333333333
142
0.0
142
0.0
142
0.0
142
0.0
142
1.0
142
0.0
142
0.0
142
0.0
142
0.0
142
1.0
179
     0
144
0.0208333333333333
144
0.0
144
0.0
144
0.0
144
0.0
144
0.0208333333333333
144
0.0
144
0.0
144
0.0
144
0.0
144
1.0
144
0.0
144
0.0
144
0.0
144
0.0
144
1.0
147
0.0208333333333333
147
0.0
147
0.0
147
0.0
147
0.0
147
0.0208333333333333
147
0.0
147
0.0
147
0.0
147
0.0
147
1.0
147
0.0
147
0.0
147
0.0
147
0.0
147
1.0
  0
MATERIAL
  5
AB
102
{ACAD_XDICTIONARY
360
AC
102
}
102
{ACAD_REACTORS
330
AA
102
}
330
AA
100
AcDbMaterial
  1
ByLayer
 72
     0
 43
0.0208333333333333
 43
0.0
 43
0.0
 43
0.0
 43
0.0
 43
0.0208333333333333
 43
0.0
 43
0.0
 43
0.0
 43
0.0
 43
1.0
 43
0.0
 43
0.0
 43
0.0
 43
0.0
 43
1.0
 77
     0
 47
0.0208333333333333
 47
0.0
 47
0.0
 47
0.0
 47
0.0
 47
0.0208333333333333
 47
0.0
 47
0.0
 47
0.0
 47
0.0
 47
1.0
 47
0.0
 47
0.0
 47
0.0
 47
0.0
 47
1.0
171
     0
 49
0.0208333333333333
 49
0.0
 49
0.0
 49
0.0
 49
0.0
 49
0.0208333333333333
 49
0.0
 49
0.0
 49
0.0
 49
0.0
 49
1.0
 49
0.0
 49
0.0
 49
0.0
 49
0.0
 49
1.0
175
     0
142
0.0208333333333333
142
0.0
142
0.0
142
0.0
142
0.0
142
0.0208333333333333
142
0.0
142
0.0
142
0.0
142
0.0
142
1.0
142
0.0
142
0.0
142
0.0
142
0.0
142
1.0
179
     0
144
0.0208333333333333
144
0.0
144
0.0
144
0.0
144
0.0
144
0.0208333333333333
144
0.0
144
0.0
144
0.0
144
0.0
144
1.0
144
0.0
144
0.0
144
0.0
144
0.0
144
1.0
147
0.0208333333333333
147
0.0
147
0.0
147
0.0
147
0.0
147
0.0208333333333333
147
0.0
147
0.0
147
0.0
147
0.0
147
1.0
147
0.0
147
0.0
147
0.0
147
0.0
147
1.0
  0
MATERIAL
  5
BB
102
{ACAD_XDICTIONARY
360
BC
102
}
102
{ACAD_REACTORS
330
AA
102
}
330
AA
100
AcDbMaterial
  1
Global
 72
     0
 43
0.0208333333333333
 43
0.0
 43
0.0
 43
0.0
 43
0.0
 43
0.0208333333333333
 43
0.0
 43
0.0
 43
0.0
 43
0.0
 43
1.0
 43
0.0
 43
0.0
 43
0.0
 43
0.0
 43
1.0
 77
     0
 47
0.0208333333333333
 47
0.0
 47
0.0
 47
0.0
 47
0.0
 47
0.0208333333333333
 47
0.0
 47
0.0
 47
0.0
 47
0.0
 47
1.0
 47
0.0
 47
0.0
 47
0.0
 47
0.0
 47
1.0
171
     0
 49
0.0208333333333333
 49
0.0
 49
0.0
 49
0.0
 49
0.0
 49
0.0208333333333333
 49
0.0
 49
0.0
 49
0.0
 49
0.0
 49
1.0
 49
0.0
 49
0.0
 49
0.0
 49
0.0
 49
1.0
175
     0
142
0.0208333333333333
142
0.0
142
0.0
142
0.0
142
0.0
142
0.0208333333333333
142
0.0
142
0.0
142
0.0
142
0.0
142
1.0
142
0.0
142
0.0
142
0.0
142
0.0
142
1.0
179
     0
144
0.0208333333333333
144
0.0
144
0.0
144
0.0
144
0.0
144
0.0208333333333333
144
0.0
144
0.0
144
0.0
144
0.0
144
1.0
144
0.0
144
0.0
144
0.0
144
0.0
144
1.0
147
0.0208333333333333
147
0.0
147
0.0
147
0.0
147
0.0
147
0.0208333333333333
147
0.0
147
0.0
147
0.0
147
0.0
147
1.0
147
0.0
147
0.0
147
0.0
147
0.0
147
1.0
  0
MLEADERSTYLE
  5
F2
102
{ACAD_XDICTIONARY
360
194
102
}
102
{ACAD_REACTORS
330
F1
102
}
330
F1
100
AcDbMLeaderStyle
179
     2
170
     2
171
     1
172
     0
 90
        2
 40
0.0
 41
0.0
173
     1
 91
-1056964608
340
14
 92
       -2
290
     1
 42
0.09
291
     1
 43
0.36
  3
Standard
 44
0.18
300

342
11
174
     1
178
     6
175
     1
176
     0
 93
-1056964608
 45
0.18
292
     0
297
     0
 46
0.18
 94
-1056964608
 47
1.0
 49
1.0
140
1.0
293
     1
141
0.0
294
     1
177
     0
142
1.0
295
     0
296
     0
143
0.125
271
     0
272
     9
273
     9
  0
MLINESTYLE
  5
18
102
{ACAD_REACTORS
330
17
102
}
330
17
100
AcDbMlineStyle
  2
STANDARD
 70
     0
  3

 62
   256
 51
90.0
 52
90.0
 71
     2
 49
0.5
 62
   256
  6
BYLAYER
 49
-0.5
 62
   256
  6
BYLAYER
  0
ACDBPLACEHOLDER
  5
2D
102
{ACAD_REACTORS
330
E
102
}
330
E
  0
ACDBPLACEHOLDER
  5
F
102
{ACAD_REACTORS
330
E
102
}
330
E
  0
SCALE
  5
E0
102
{ACAD_REACTORS
330
DF
102
}
330
DF
100
AcDbScale
 70
     0
300
1:1
140
1.0
141
1.0
290
     1
  0
SCALE
  5
E1
102
{ACAD_REACTORS
330
DF
102
}
330
DF
100
AcDbScale
 70
     0
300
1/128" = 1'-0"
140
0.0078125
141
12.0
290
     0
  0
SCALE
  5
E2
102
{ACAD_REACTORS
330
DF
102
}
330
DF
100
AcDbScale
 70
     0
300
1/64" = 1'-0"
140
0.015625
141
12.0
290
     0
  0
SCALE
  5
E3
102
{ACAD_REACTORS
330
DF
102
}
330
DF
100
AcDbScale
 70
     0
300
1/32" = 1'-0"
140
0.03125
141
12.0
290
     0
  0
SCALE
  5
E4
102
{ACAD_REACTORS
330
DF
102
}
330
DF
100
AcDbScale
 70
     0
300
1/16" = 1'-0"
140
0.0625
141
12.0
290
     0
  0
SCALE
  5
E5
102
{ACAD_REACTORS
330
DF
102
}
330
DF
100
AcDbScale
 70
     0
300
3/32" = 1'-0"
140
0.09375
141
12.0
290
     0
  0
SCALE
  5
E6
102
{ACAD_REACTORS
330
DF
102
}
330
DF
100
AcDbScale
 70
     0
300
1/8" = 1'-0"
140
0.125
141
12.0
290
     0
  0
SCALE
  5
E7
102
{ACAD_REACTORS
330
DF
102
}
330
DF
100
AcDbScale
 70
     0
300
3/16" = 1'-0"
140
0.1875
141
12.0
290
     0
  0
SCALE
  5
E8
102
{ACAD_REACTORS
330
DF
102
}
330
DF
100
AcDbScale
 70
     0
300
1/4" = 1'-0"
140
0.25
141
12.0
290
     0
  0
SCALE
  5
E9
102
{ACAD_REACTORS
330
DF
102
}
330
DF
100
AcDbScale
 70
     0
300
3/8" = 1'-0"
140
0.375
141
12.0
290
     0
  0
SCALE
  5
EA
102
{ACAD_REACTORS
330
DF
102
}
330
DF
100
AcDbScale
 70
     0
300
1/2" = 1'-0"
140
0.5
141
12.0
290
     0
  0
SCALE
  5
EB
102
{ACAD_REACTORS
330
DF
102
}
330
DF
100
AcDbScale
 70
     0
300
3/4" = 1'-0"
140
0.75
141
12.0
290
     0
  0
SCALE
  5
EC
102
{ACAD_REACTORS
330
DF
102
}
330
DF
100
AcDbScale
 70
     0
300
1" = 1'-0"
140
1.0
141
12.0
290
     0
  0
SCALE
  5
ED
102
{ACAD_REACTORS
330
DF
102
}
330
DF
100
AcDbScale
 70
     0
300
1-1/2" = 1'-0"
140
1.5
141
12.0
290
     0
  0
SCALE
  5
EE
102
{ACAD_REACTORS
330
DF
102
}
330
DF
100
AcDbScale
 70
     0
300
3" = 1'-0"
140
3.0
141
12.0
290
     0
  0
SCALE
  5
EF
102
{ACAD_REACTORS
330
DF
102
}
330
DF
100
AcDbScale
 70
     0
300
6" = 1'-0"
140
6.0
141
12.0
290
     0
  0
SCALE
  5
F0
102
{ACAD_REACTORS
330
DF
102
}
330
DF
100
AcDbScale
 70
     0
300
1'-0" = 1'-0"
140
12.0
141
12.0
290
     0
  0
ACDBSECTIONVIEWSTYLE
  5
F4
102
{ACAD_XDICTIONARY
360
196
102
}
102
{ACAD_REACTORS
330
F3
102
}
330
F3
100
AcDbModelDocViewStyle
 70
     0
  3
Imperial24
290
     0
100
AcDbSectionViewStyle
 70
     0
 71
     0
 90
       78
 71
     1
340
11
 62
   256
 40
0.24
340
0
340
0
 62
   256
 40
0.24
300
I, O, Q, S, X, Z
 40
0.48
 90
        3
 40
0.18
 90
        1
 71
     2
340
16
 90
       25
 62
   256
340
16
 90
       50
 62
   256
 40
0.24
 40
0.0
 40
0.24
 71
     3
340
11
 62
   256
 40
0.24
 90
        1
 40
0.75
 90
        1
300
%<\AcVar ViewType \f "%tc1">% %<\AcVar ViewSectionStartId>%-%<\AcVar ViewSectionEndId>%\PSCALE %<\AcVar ViewScale \f "%sn">%
 71
     4
 62
   256
 62
   257
300
ANSI31
 40
1.0
 90
        0
290
     0
290
     0
 90
        6
 40
0.0
 40
1.570796326794896
 40
0.2617993877991494
 40
1.308996938995747
 40
-0.2617993877991494
 40
1.832595714594046
  0
TABLESTYLE
  5
DE
102
{ACAD_XDICTIONARY
360
161
102
}
102
{ACAD_REACTORS
330
DD
102
}
330
DD
100
AcDbTableStyle
280
     0
  3
Standard
 70
     0
 71
     0
 40
0.06
 41
0.06
280
     0
281
     0
  7
Standard
140
0.18
170
     2
 62
     0
 63
     7
283
     0
 90
      512
 91
        0
  1

274
    -2
284
     1
 64
     0
275
    -2
285
     1
 65
     0
276
    -2
286
     1
 66
     0
277
    -2
287
     1
 67
     0
278
    -2
288
     1
 68
     0
279
    -2
289
     1
 69
     0
  7
Standard
140
0.25
170
     5
 62
     0
 63
     7
283
     0
 90
      512
 91
        0
  1

274
    -2
284
     1
 64
     0
275
    -2
285
     1
 65
     0
276
    -2
286
     1
 66
     0
277
    -2
287
     1
 67
     0
278
    -2
288
     1
 68
     0
279
    -2
289
     1
 69
     0
  7
Standard
140
0.18
170
     5
 62
     0
 63
     7
283
     0
 90
      512
 91
        0
  1

274
    -2
284
     1
 64
     0
275
    -2
285
     1
 65
     0
276
    -2
286
     1
 66
     0
277
    -2
287
     1
 67
     0
278
    -2
288
     1
 68
     0
279
    -2
289
     1
 69
     0
  0
VISUALSTYLE
  5
C9
102
{ACAD_XDICTIONARY
360
16E
102
}
102
{ACAD_REACTORS
330
C3
102
}
330
C3
100
AcDbVisualStyle
  2
2dWireframe
 70
     4
177
     2
291
     0
 71
     0
176
     1
 72
     2
176
     1
 73
     0
176
     1
 90
        0
176
     1
 40
0.6
176
     1
 41
30.0
176
     1
 63
     7
421
 16777215
176
     1
 74
     1
176
     1
 91
        4
176
     1
 64
     7
176
     1
 65
   257
176
     1
 75
     1
176
     1
175
     1
176
     1
 42
1.0
176
     1
 92
        0
176
     1
 66
   257
176
     1
 43
1.0
176
     1
 76
     1
176
     1
 77
     6
176
     1
 78
     2
176
     1
 67
     7
176
     1
 79
     5
176
     1
170
     0
176
     1
171
     0
176
     1
290
     0
176
     1
 93
        1
176
     1
 44
0.0
176
     1
173
     0
176
     1
1001
ACAD
1000
AcDbSavedByObjectVersion
1070
     0
  0
VISUALSTYLE
  5
C8
102
{ACAD_XDICTIONARY
360
16C
102
}
102
{ACAD_REACTORS
330
C3
102
}
330
C3
100
AcDbVisualStyle
  2
Basic
 70
     7
177
     2
291
     1
 71
     1
176
     1
 72
     0
176
     1
 73
     1
176
     1
 90
        0
176
     1
 40
0.6
176
     1
 41
30.0
176
     1
 63
     7
421
 16777215
176
     1
 74
     0
176
     1
 91
        4
176
     1
 64
     7
176
     1
 65
   257
176
     1
 75
     1
176
     1
175
     1
176
     1
 42
1.0
176
     1
 92
        8
176
     1
 66
     7
176
     1
 43
1.0
176
     1
 76
     1
176
     1
 77
     6
176
     1
 78
     2
176
     1
 67
     7
176
     1
 79
     5
176
     1
170
     0
176
     1
171
     0
176
     1
290
     0
176
     1
 93
        1
176
     1
 44
0.0
176
     1
173
     0
176
     1
1001
ACAD
1000
AcDbSavedByObjectVersion
1070
     0
  0
VISUALSTYLE
  5
CF
102
{ACAD_XDICTIONARY
360
17A
102
}
102
{ACAD_REACTORS
330
C3
102
}
330
C3
100
AcDbVisualStyle
  2
Brighten
 70
    12
177
     2
291
     1
 71
     2
176
     1
 72
     2
176
     1
 73
     0
176
     1
 90
        0
176
     1
 40
0.6
176
     1
 41
30.0
176
     1
 63
     7
421
 16777215
176
     1
 74
     1
176
     1
 91
        4
176
     1
 64
     7
176
     1
 65
   257
176
     1
 75
     1
176
     1
175
     1
176
     1
 42
1.0
176
     1
 92
        8
176
     1
 66
     7
176
     1
 43
1.0
176
     1
 76
     1
176
     1
 77
     6
176
     1
 78
     2
176
     1
 67
     7
176
     1
 79
     5
176
     1
170
     0
176
     1
171
     0
176
     1
290
     0
176
     1
 93
        1
176
     1
 44
50.0
176
     1
173
     0
176
     1
1001
ACAD
1000
AcDbSavedByObjectVersion
1070
     0
  0
VISUALSTYLE
  5
D3
102
{ACAD_XDICTIONARY
360
182
102
}
102
{ACAD_REACTORS
330
C3
102
}
330
C3
100
AcDbVisualStyle
  2
ColorChange
 70
    16
177
     2
291
     1
 71
     2
176
     1
 72
     2
176
     1
 73
     3
176
     1
 90
        0
176
     1
 40
0.6
176
     1
 41
30.0
176
     1
 63
     8
421
  8421504
176
     1
 74
     1
176
     1
 91
        4
176
     1
 64
     7
176
     1
 65
   257
176
     1
 75
     1
176
     1
175
     1
176
     1
 42
1.0
176
     1
 92
        8
176
     1
 66
     8
424
  8421504
176
     1
 43
1.0
176
     1
 76
     1
176
     1
 77
     6
176
     1
 78
     2
176
     1
 67
     7
176
     1
 79
     5
176
     1
170
     0
176
     1
171
     0
176
     1
290
     0
176
     1
 93
        1
176
     1
 44
0.0
176
     1
173
     0
176
     1
1001
ACAD
1000
AcDbSavedByObjectVersion
1070
     0
  0
VISUALSTYLE
  5
CC
102
{ACAD_XDICTIONARY
360
174
102
}
102
{ACAD_REACTORS
330
C3
102
}
330
C3
100
AcDbVisualStyle
  2
Conceptual
 70
     9
177
     2
291
     0
 71
     3
176
     1
 72
     2
176
     1
 73
     0
176
     1
 90
        0
176
     1
 40
0.6
176
     1
 41
30.0
176
     1
 63
     7
421
 16777215
176
     1
 74
     2
176
     1
 91
        2
176
     1
 64
     7
176
     1
 65
   257
176
     1
 75
     1
176
     1
175
     1
176
     1
 42
179.0
176
     1
 92
        8
176
     1
 66
     7
176
     1
 43
1.0
176
     1
 76
     1
176
     1
 77
     6
176
     1
 78
     2
176
     1
 67
     7
176
     1
 79
     3
176
     1
170
     0
176
     1
171
     0
176
     1
290
     0
176
     1
 93
        1
176
     1
 44
0.0
176
     1
173
     0
176
     1
1001
ACAD
1000
AcDbSavedByObjectVersion
1070
     0
  0
VISUALSTYLE
  5
CE
102
{ACAD_XDICTIONARY
360
178
102
}
102
{ACAD_REACTORS
330
C3
102
}
330
C3
100
AcDbVisualStyle
  2
Dim
 70
    11
177
     2
291
     1
 71
     2
176
     1
 72
     2
176
     1
 73
     0
176
     1
 90
        0
176
     1
 40
0.6
176
     1
 41
30.0
176
     1
 63
     7
421
 16777215
176
     1
 74
     1
176
     1
 91
        4
176
     1
 64
     7
176
     1
 65
   257
176
     1
 75
     1
176
     1
175
     1
176
     1
 42
1.0
176
     1
 92
        8
176
     1
 66
     7
176
     1
 43
1.0
176
     1
 76
     1
176
     1
 77
     6
176
     1
 78
     2
176
     1
 67
     7
176
     1
 79
     5
176
     1
170
     0
176
     1
171
     0
176
     1
290
     0
176
     1
 93
        1
176
     1
 44
-50.0
176
     1
173
     0
176
     1
1001
ACAD
1000
AcDbSavedByObjectVersion
1070
     0
  0
VISUALSTYLE
  5
DB
102
{ACAD_XDICTIONARY
360
192
102
}
102
{ACAD_REACTORS
330
C3
102
}
330
C3
100
AcDbVisualStyle
  2
EdgeColorOff
 70
    22
177
     2
291
     1
 71
     2
176
     0
 72
     2
176
     0
 73
     0
176
     0
 90
        0
176
     0
 40
0.6
176
     0
 41
30.0
176
     0
 63
     7
421
 16777215
176
     0
 74
     1
176
     0
 91
        4
176
     0
 64
     7
176
     0
 65
   257
176
     0
 75
     1
176
     0
175
     1
176
     0
 42
1.0
176
     0
 92
        8
176
     2
 66
     7
176
     0
 43
1.0
176
     0
 76
     1
176
     0
 77
     6
176
     0
 78
     2
176
     0
 67
     7
176
     0
 79
     5
176
     0
170
     0
176
     0
171
     0
176
     0
290
     0
176
     0
 93
        1
176
     0
 44
0.0
176
     0
173
     0
176
     0
1001
ACAD
1000
AcDbSavedByObjectVersion
1070
     0
  0
VISUALSTYLE
  5
D2
102
{ACAD_XDICTIONARY
360
180
102
}
102
{ACAD_REACTORS
330
C3
102
}
330
C3
100
AcDbVisualStyle
  2
Facepattern
 70
    15
177
     2
291
     1
 71
     2
176
     1
 72
     2
176
     1
 73
     0
176
     1
 90
        0
176
     1
 40
0.6
176
     1
 41
30.0
176
     1
 63
     7
421
 16777215
176
     1
 74
     1
176
     1
 91
        4
176
     1
 64
     7
176
     1
 65
   257
176
     1
 75
     1
176
     1
175
     1
176
     1
 42
1.0
176
     1
 92
        8
176
     1
 66
     7
176
     1
 43
1.0
176
     1
 76
     1
176
     1
 77
     6
176
     1
 78
     2
176
     1
 67
     7
176
     1
 79
     5
176
     1
170
     0
176
     1
171
     0
176
     1
290
     0
176
     1
 93
        1
176
     1
 44
0.0
176
     1
173
     0
176
     1
1001
ACAD
1000
AcDbSavedByObjectVersion
1070
     0
  0
VISUALSTYLE
  5
C4
102
{ACAD_XDICTIONARY
360
164
102
}
102
{ACAD_REACTORS
330
C3
102
}
330
C3
100
AcDbVisualStyle
  2
Flat
 70
     0
177
     2
291
     1
 71
     2
176
     1
 72
     1
176
     1
 73
     1
176
     1
 90
        2
176
     1
 40
0.6
176
     1
 41
30.0
176
     1
 63
     7
421
 16777215
176
     1
 74
     0
176
     1
 91
        0
176
     1
 64
     7
176
     1
 65
   257
176
     1
 75
     1
176
     1
175
     1
176
     1
 42
1.0
176
     1
 92
        8
176
     1
 66
     7
176
     1
 43
1.0
176
     1
 76
     1
176
     1
 77
     6
176
     1
 78
     2
176
     1
 67
     7
176
     1
 79
     5
176
     1
170
     0
176
     1
171
     0
176
     1
290
     0
176
     1
 93
       13
176
     1
 44
0.0
176
     1
173
     0
176
     1
1001
ACAD
1000
AcDbSavedByObjectVersion
1070
     0
  0
VISUALSTYLE
  5
C5
102
{ACAD_XDICTIONARY
360
166
102
}
102
{ACAD_REACTORS
330
C3
102
}
330
C3
100
AcDbVisualStyle
  2
FlatWithEdges
 70
     1
177
     2
291
     1
 71
     2
176
     1
 72
     1
176
     1
 73
     1
176
     1
 90
        2
176
     1
 40
0.6
176
     1
 41
30.0
176
     1
 63
     7
421
 16777215
176
     1
 74
     1
176
     1
 91
        0
176
     1
 64
     7
176
     1
 65
   257
176
     1
 75
     1
176
     1
175
     1
176
     1
 42
1.0
176
     1
 92
        0
176
     1
 66
   257
176
     1
 43
1.0
176
     1
 76
     1
176
     1
 77
     6
176
     1
 78
     2
176
     1
 67
     7
176
     1
 79
     5
176
     1
170
     0
176
     1
171
     0
176
     1
290
     0
176
     1
 93
       13
176
     1
 44
0.0
176
     1
173
     0
176
     1
1001
ACAD
1000
AcDbSavedByObjectVersion
1070
     0
  0
VISUALSTYLE
  5
C6
102
{ACAD_XDICTIONARY
360
168
102
}
102
{ACAD_REACTORS
330
C3
102
}
330
C3
100
AcDbVisualStyle
  2
Gouraud
 70
     2
177
     2
291
     1
 71
     2
176
     1
 72
     2
176
     1
 73
     1
176
     1
 90
        2
176
     1
 40
0.6
176
     1
 41
30.0
176
     1
 63
     7
421
 16777215
176
     1
 74
     0
176
     1
 91
        0
176
     1
 64
     7
176
     1
 65
   257
176
     1
 75
     1
176
     1
175
     1
176
     1
 42
1.0
176
     1
 92
        0
176
     1
 66
     7
176
     1
 43
1.0
176
     1
 76
     1
176
     1
 77
     6
176
     1
 78
     2
176
     1
 67
     7
176
     1
 79
     5
176
     1
170
     0
176
     1
171
     0
176
     1
290
     0
176
     1
 93
       13
176
     1
 44
0.0
176
     1
173
     0
176
     1
1001
ACAD
1000
AcDbSavedByObjectVersion
1070
     0
  0
VISUALSTYLE
  5
C7
102
{ACAD_XDICTIONARY
360
16A
102
}
102
{ACAD_REACTORS
330
C3
102
}
330
C3
100
AcDbVisualStyle
  2
GouraudWithEdges
 70
     3
177
     2
291
     1
 71
     2
176
     1
 72
     2
176
     1
 73
     1
176
     1
 90
        2
176
     1
 40
0.6
176
     1
 41
30.0
176
     1
 63
     7
421
 16777215
176
     1
 74
     1
176
     1
 91
        0
176
     1
 64
     7
176
     1
 65
   257
176
     1
 75
     1
176
     1
175
     1
176
     1
 42
1.0
176
     1
 92
        0
176
     1
 66
   257
176
     1
 43
1.0
176
     1
 76
     1
176
     1
 77
     6
176
     1
 78
     2
176
     1
 67
     7
176
     1
 79
     5
176
     1
170
     0
176
     1
171
     0
176
     1
290
     0
176
     1
 93
       13
176
     1
 44
0.0
176
     1
173
     0
176
     1
1001
ACAD
1000
AcDbSavedByObjectVersion
1070
     0
  0
VISUALSTYLE
  5
CB
102
{ACAD_XDICTIONARY
360
172
102
}
102
{ACAD_REACTORS
330
C3
102
}
330
C3
100
AcDbVisualStyle
  2
Hidden
 70
     6
177
     2
291
     0
 71
     1
176
     1
 72
     2
176
     1
 73
     2
176
     1
 90
        0
176
     1
 40
0.6
176
     1
 41
30.0
176
     1
 63
     7
421
 16777215
176
     1
 74
     2
176
     1
 91
        2
176
     1
 64
     7
176
     1
 65
   257
176
     1
 75
     2
176
     1
175
     1
176
     1
 42
40.0
176
     1
 92
        0
176
     1
 66
   257
176
     1
 43
1.0
176
     1
 76
     1
176
     1
 77
     6
176
     1
 78
     2
176
     1
 67
     7
176
     1
 79
     3
176
     1
170
     0
176
     1
171
     0
176
     1
290
     0
176
     1
 93
        1
176
     1
 44
0.0
176
     1
173
     0
176
     1
1001
ACAD
1000
AcDbSavedByObjectVersion
1070
     0
  0
VISUALSTYLE
  5
D9
102
{ACAD_XDICTIONARY
360
18E
102
}
102
{ACAD_REACTORS
330
C3
102
}
330
C3
100
AcDbVisualStyle
  2
JitterOff
 70
    20
177
     2
291
     1
 71
     2
176
     0
 72
     2
176
     0
 73
     0
176
     0
 90
        0
176
     0
 40
0.6
176
     0
 41
30.0
176
     0
 63
     7
421
 16777215
176
     0
 74
     1
176
     0
 91
        4
176
     0
 64
     7
176
     0
 65
   257
176
     0
 75
     1
176
     0
175
     1
176
     0
 42
1.0
176
     0
 92
       10
176
     2
 66
     7
176
     0
 43
1.0
176
     0
 76
     1
176
     0
 77
     6
176
     0
 78
     2
176
     0
 67
     7
176
     0
 79
     5
176
     0
170
     0
176
     0
171
     0
176
     0
290
     0
176
     0
 93
        1
176
     0
 44
0.0
176
     0
173
     0
176
     0
1001
ACAD
1000
AcDbSavedByObjectVersion
1070
     0
  0
VISUALSTYLE
  5
D1
102
{ACAD_XDICTIONARY
360
17E
102
}
102
{ACAD_REACTORS
330
C3
102
}
330
C3
100
AcDbVisualStyle
  2
Linepattern
 70
    14
177
     2
291
     1
 71
     2
176
     1
 72
     2
176
     1
 73
     0
176
     1
 90
        0
176
     1
 40
0.6
176
     1
 41
30.0
176
     1
 63
     7
421
 16777215
176
     1
 74
     1
176
     1
 91
        4
176
     1
 64
     7
176
     1
 65
   257
176
     1
 75
     7
176
     1
175
     7
176
     1
 42
1.0
176
     1
 92
        8
176
     1
 66
     7
176
     1
 43
1.0
176
     1
 76
     1
176
     1
 77
     6
176
     1
 78
     2
176
     1
 67
     7
176
     1
 79
     5
176
     1
170
     0
176
     1
171
     0
176
     1
290
     0
176
     1
 93
        1
176
     1
 44
0.0
176
     1
173
     0
176
     1
1001
ACAD
1000
AcDbSavedByObjectVersion
1070
     0
  0
VISUALSTYLE
  5
DA
102
{ACAD_XDICTIONARY
360
190
102
}
102
{ACAD_REACTORS
330
C3
102
}
330
C3
100
AcDbVisualStyle
  2
OverhangOff
 70
    21
177
     2
291
     1
 71
     2
176
     0
 72
     2
176
     0
 73
     0
176
     0
 90
        0
176
     0
 40
0.6
176
     0
 41
30.0
176
     0
 63
     7
421
 16777215
176
     0
 74
     1
176
     0
 91
        4
176
     0
 64
     7
176
     0
 65
   257
176
     0
 75
     1
176
     0
175
     1
176
     0
 42
1.0
176
     0
 92
        9
176
     2
 66
     7
176
     0
 43
1.0
176
     0
 76
     1
176
     0
 77
     6
176
     0
 78
     2
176
     0
 67
     7
176
     0
 79
     5
176
     0
170
     0
176
     0
171
     0
176
     0
290
     0
176
     0
 93
        1
176
     0
 44
0.0
176
     0
173
     0
176
     0
1001
ACAD
1000
AcDbSavedByObjectVersion
1070
     0
  0
VISUALSTYLE
  5
CD
102
{ACAD_XDICTIONARY
360
176
102
}
102
{ACAD_REACTORS
330
C3
102
}
330
C3
100
AcDbVisualStyle
  2
Realistic
 70
     8
177
     2
291
     0
 71
     2
176
     1
 72
     3
176
     1
 73
     0
176
     1
 90
        2
176
     1
 40
0.6
176
     1
 41
30.0
176
     1
 63
     7
421
 16777215
176
     1
 74
     0
176
     1
 91
        0
176
     1
 64
     7
176
     1
 65
   257
176
     1
 75
     1
176
     1
175
     1
176
     1
 42
1.0
176
     1
 92
        8
176
     1
 66
   257
176
     1
 43
1.0
176
     1
 76
     1
176
     1
 77
     6
176
     1
 78
     2
176
     1
 67
     7
176
     1
 79
     3
176
     1
170
     0
176
     1
171
     0
176
     1
290
     0
176
     1
 93
       13
176
     1
 44
0.0
176
     1
173
     0
176
     1
1001
ACAD
1000
AcDbSavedByObjectVersion
1070
     0
  0
VISUALSTYLE
  5
D8
102
{ACAD_XDICTIONARY
360
18C
102
}
102
{ACAD_REACTORS
330
C3
102
}
330
C3
100
AcDbVisualStyle
  2
Shaded
 70
    27
177
     2
291
     0
 71
     2
176
     1
 72
     2
176
     1
 73
     1
176
     1
 90
        2
176
     1
 40
0.6
176
     1
 41
30.0
176
     1
 63
     7
421
 16777215
176
     1
 74
     0
176
     1
 91
        4
176
     1
 64
     7
176
     1
 65
   257
176
     1
 75
     1
176
     1
175
     1
176
     1
 42
1.0
176
     1
 92
        8
176
     1
 66
   257
176
     1
 43
1.0
176
     1
 76
     1
176
     1
 77
     6
176
     1
 78
     2
176
     1
 67
     8
425
  7895160
176
     1
 79
     3
176
     1
170
     0
176
     1
171
     0
176
     1
290
     0
176
     1
 93
        5
176
     1
 44
0.0
176
     1
173
     0
176
     1
1001
ACAD
1000
AcDbSavedByObjectVersion
1070
     0
  0
VISUALSTYLE
  5
D7
102
{ACAD_XDICTIONARY
360
18A
102
}
102
{ACAD_REACTORS
330
C3
102
}
330
C3
100
AcDbVisualStyle
  2
Shaded with edges
 70
    26
177
     2
291
     0
 71
     2
176
     1
 72
     2
176
     1
 73
     1
176
     1
 90
        2
176
     1
 40
0.6
176
     1
 41
30.0
176
     1
 63
     7
421
 16777215
176
     1
 74
     1
176
     1
 91
       10
176
     1
 64
     7
176
     1
 65
   257
176
     1
 75
     2
176
     1
175
     1
176
     1
 42
1.0
176
     1
 92
        8
176
     1
 66
   257
176
     1
 43
1.0
176
     1
 76
     1
176
     1
 77
     6
176
     1
 78
     2
176
     1
 67
     7
176
     1
 79
     3
176
     1
170
     0
176
     1
171
     0
176
     1
290
     0
176
     1
 93
        5
176
     1
 44
0.0
176
     1
173
     0
176
     1
1001
ACAD
1000
AcDbSavedByObjectVersion
1070
     0
  0
VISUALSTYLE
  5
D4
102
{ACAD_XDICTIONARY
360
184
102
}
102
{ACAD_REACTORS
330
C3
102
}
330
C3
100
AcDbVisualStyle
  2
Shades of Gray
 70
    23
177
     2
291
     0
 71
     2
176
     1
 72
     2
176
     1
 73
     3
176
     1
 90
        0
176
     1
 40
0.6
176
     1
 41
30.0
176
     1
 63
     7
421
 16777215
176
     1
 74
     2
176
     1
 91
        2
176
     1
 64
     7
176
     1
 65
     7
176
     1
 75
     1
176
     1
175
     1
176
     1
 42
40.0
176
     1
 92
        8
176
     1
 66
     7
176
     1
 43
1.0
176
     1
 76
     1
176
     1
 77
     6
176
     1
 78
     2
176
     1
 67
     7
176
     1
 79
     3
176
     1
170
     0
176
     1
171
     0
176
     1
290
     0
176
     1
 93
        1
176
     1
 44
0.0
176
     1
173
     0
176
     1
1001
ACAD
1000
AcDbSavedByObjectVersion
1070
     0
  0
VISUALSTYLE
  5
D5
102
{ACAD_XDICTIONARY
360
186
102
}
102
{ACAD_REACTORS
330
C3
102
}
330
C3
100
AcDbVisualStyle
  2
Sketchy
 70
    24
177
     2
291
     0
 71
     1
176
     1
 72
     2
176
     1
 73
     2
176
     1
 90
        0
176
     1
 40
0.6
176
     1
 41
30.0
176
     1
 63
     7
421
 16777215
176
     1
 74
     2
176
     1
 91
        2
176
     1
 64
     7
176
     1
 65
     7
176
     1
 75
     1
176
     1
175
     1
176
     1
 42
40.0
176
     1
 92
       11
176
     1
 66
     7
176
     1
 43
1.0
176
     1
 76
     1
176
     1
 77
     6
176
     1
 78
     2
176
     1
 67
     7
176
     1
 79
     6
176
     1
170
     0
176
     1
171
     0
176
     1
290
     0
176
     1
 93
        1
176
     1
 44
0.0
176
     1
173
     0
176
     1
1001
ACAD
1000
AcDbSavedByObjectVersion
1070
     0
  0
VISUALSTYLE
  5
D0
102
{ACAD_XDICTIONARY
360
17C
102
}
102
{ACAD_REACTORS
330
C3
102
}
330
C3
100
AcDbVisualStyle
  2
Thicken
 70
    13
177
     2
291
     1
 71
     2
176
     1
 72
     2
176
     1
 73
     0
176
     1
 90
        0
176
     1
 40
0.6
176
     1
 41
30.0
176
     1
 63
     7
421
 16777215
176
     1
 74
     1
176
     1
 91
        4
176
     1
 64
     7
176
     1
 65
   257
176
     1
 75
     1
176
     1
175
     1
176
     1
 42
1.0
176
     1
 92
       12
176
     1
 66
     7
176
     1
 43
1.0
176
     1
 76
     1
176
     1
 77
     6
176
     1
 78
     2
176
     1
 67
     7
176
     1
 79
     5
176
     1
170
     0
176
     1
171
     0
176
     1
290
     0
176
     1
 93
        1
176
     1
 44
0.0
176
     1
173
     0
176
     1
1001
ACAD
1000
AcDbSavedByObjectVersion
1070
     0
  0
VISUALSTYLE
  5
CA
102
{ACAD_XDICTIONARY
360
170
102
}
102
{ACAD_REACTORS
330
C3
102
}
330
C3
100
AcDbVisualStyle
  2
Wireframe
 70
     5
177
     2
291
     0
 71
     0
176
     1
 72
     2
176
     1
 73
     0
176
     1
 90
        0
176
     1
 40
0.6
176
     1
 41
30.0
176
     1
 63
     7
421
 16777215
176
     1
 74
     1
176
     1
 91
        4
176
     1
 64
     7
176
     1
 65
   257
176
     1
 75
     1
176
     1
175
     1
176
     1
 42
1.0
176
     1
 92
        0
176
     1
 66
   257
176
     1
 43
1.0
176
     1
 76
     1
176
     1
 77
     6
176
     1
 78
     2
176
     1
 67
     7
176
     1
 79
     3
176
     1
170
     0
176
     1
171
     0
176
     1
290
     0
176
     1
 93
        1
176
     1
 44
0.0
176
     1
173
     0
176
     1
1001
ACAD
1000
AcDbSavedByObjectVersion
1070
     0
  0
VISUALSTYLE
  5
D6
102
{ACAD_XDICTIONARY
360
188
102
}
102
{ACAD_REACTORS
330
C3
102
}
330
C3
100
AcDbVisualStyle
  2
X-Ray
 70
    25
177
     2
291
     0
 71
     2
176
     1
 72
     2
176
     1
 73
     1
176
     1
 90
        1
176
     1
 40
0.5
176
     1
 41
30.0
176
     1
 63
     7
421
 16777215
176
     1
 74
     1
176
     1
 91
        0
176
     1
 64
     7
176
     1
 65
   257
176
     1
 75
     1
176
     1
175
     1
176
     1
 42
1.0
176
     1
 92
        8
176
     1
 66
     7
176
     1
 43
1.0
176
     1
 76
     1
176
     1
 77
     6
176
     1
 78
     2
176
     1
 67
     7
176
     1
 79
     3
176
     1
170
     0
176
     1
171
     0
176
     1
290
     0
176
     1
 93
       13
176
     1
 44
0.0
176
     1
173
     0
176
     1
1001
ACAD
1000
AcDbSavedByObjectVersion
1070
     0
  0
DICTIONARYVAR
  5
15D
102
{ACAD_REACTORS
330
157
102
}
330
157
100
DictionaryVariables
280
     0
  1
1:1
  0
DICTIONARYVAR
  5
159
102
{ACAD_REACTORS
330
157
102
}
330
157
100
DictionaryVariables
280
     0
  1
STANDARD
  0
DICTIONARYVAR
  5
158
102
{ACAD_REACTORS
330
157
102
}
330
157
100
DictionaryVariables
280
     0
  1
STANDARD
  0
DICTIONARYVAR
  5
15A
102
{ACAD_REACTORS
330
157
102
}
330
157
100
DictionaryVariables
280
     0
  1
Imperial24
  0
DICTIONARYVAR
  5
15B
102
{ACAD_REACTORS
330
157
102
}
330
157
100
DictionaryVariables
280
     0
  1
Imperial24
  0
DICTIONARYVAR
  5
15F
102
{ACAD_REACTORS
330
157
102
}
330
157
100
DictionaryVariables
280
     0
  1
1
  0
DICTIONARYVAR
  5
160
102
{ACAD_REACTORS
330
157
102
}
330
157
100
DictionaryVariables
280
     0
  1
15
  0
DICTIONARYVAR
  5
15E
102
{ACAD_REACTORS
330
157
102
}
330
157
100
DictionaryVariables
280
     0
  1
0
  0
DICTIONARYVAR
  5
15C
102
{ACAD_REACTORS
330
157
102
}
330
157
100
DictionaryVariables
280
     0
  1
0
  0
DICTIONARY
  5
198
330
F6
100
AcDbDictionary
280
     1
281
     1
  3
ACAD_XREC_ROUNDTRIP
360
199
  0
DICTIONARY
  5
B4
330
B3
100
AcDbDictionary
280
     1
281
     1
  3
BUMPTILE
360
B6
  3
DIFFUSETILE
360
B5
  3
OPACITYTILE
360
B9
  3
REFLECTIONTILE
360
B8
  3
REFRACTIONTILE
360
BA
  3
SPECULARTILE
360
B7
  0
DICTIONARY
  5
AC
330
AB
100
AcDbDictionary
280
     1
281
     1
  3
BUMPTILE
360
AE
  3
DIFFUSETILE
360
AD
  3
OPACITYTILE
360
B1
  3
REFLECTIONTILE
360
B0
  3
REFRACTIONTILE
360
B2
  3
SPECULARTILE
360
AF
  0
DICTIONARY
  5
BC
330
BB
100
AcDbDictionary
280
     1
281
     1
  3
BUMPTILE
360
BE
  3
DIFFUSETILE
360
BD
  3
OPACITYTILE
360
C1
  3
REFLECTIONTILE
360
C0
  3
REFRACTIONTILE
360
C2
  3
SPECULARTILE
360
BF
  0
DICTIONARY
  5
194
330
F2
100
AcDbDictionary
280
     1
281
     1
  3
ACAD_XREC_ROUNDTRIP
360
195
  0
DICTIONARY
  5
196
330
F4
100
AcDbDictionary
280
     1
281
     1
  3
ACAD_XREC_ROUNDTRIP
360
197
  0
DICTIONARY
  5
161
330
DE
100
AcDbDictionary
280
     1
281
     1
  3
ACAD_ROUNDTRIP_2008_TABLESTYLE_CELLSTYLEMAP
360
162
  0
DICTIONARY
  5
16E
330
C9
100
AcDbDictionary
280
     1
281
     1
  3
ACAD_XREC_ROUNDTRIP
360
16F
  0
DICTIONARY
  5
16C
330
C8
100
AcDbDictionary
280
     1
281
     1
  3
ACAD_XREC_ROUNDTRIP
360
16D
  0
DICTIONARY
  5
17A
330
CF
100
AcDbDictionary
280
     1
281
     1
  3
ACAD_XREC_ROUNDTRIP
360
17B
  0
DICTIONARY
  5
182
330
D3
100
AcDbDictionary
280
     1
281
     1
  3
ACAD_XREC_ROUNDTRIP
360
183
  0
DICTIONARY
  5
174
330
CC
100
AcDbDictionary
280
     1
281
     1
  3
ACAD_XREC_ROUNDTRIP
360
175
  0
DICTIONARY
  5
178
330
CE
100
AcDbDictionary
280
     1
281
     1
  3
ACAD_XREC_ROUNDTRIP
360
179
  0
DICTIONARY
  5
192
330
DB
100
AcDbDictionary
280
     1
281
     1
  3
ACAD_XREC_ROUNDTRIP
360
193
  0
DICTIONARY
  5
180
330
D2
100
AcDbDictionary
280
     1
281
     1
  3
ACAD_XREC_ROUNDTRIP
360
181
  0
DICTIONARY
  5
164
330
C4
100
AcDbDictionary
280
     1
281
     1
  3
ACAD_XREC_ROUNDTRIP
360
165
  0
DICTIONARY
  5
166
330
C5
100
AcDbDictionary
280
     1
281
     1
  3
ACAD_XREC_ROUNDTRIP
360
167
  0
DICTIONARY
  5
168
330
C6
100
AcDbDictionary
280
     1
281
     1
  3
ACAD_XREC_ROUNDTRIP
360
169
  0
DICTIONARY
  5
16A
330
C7
100
AcDbDictionary
280
     1
281
     1
  3
ACAD_XREC_ROUNDTRIP
360
16B
  0
DICTIONARY
  5
172
330
CB
100
AcDbDictionary
280
     1
281
     1
  3
ACAD_XREC_ROUNDTRIP
360
173
  0
DICTIONARY
  5
18E
330
D9
100
AcDbDictionary
280
     1
281
     1
  3
ACAD_XREC_ROUNDTRIP
360
18F
  0
DICTIONARY
  5
17E
330
D1
100
AcDbDictionary
280
     1
281
     1
  3
ACAD_XREC_ROUNDTRIP
360
17F
  0
DICTIONARY
  5
190
330
DA
100
AcDbDictionary
280
     1
281
     1
  3
ACAD_XREC_ROUNDTRIP
360
191
  0
DICTIONARY
  5
176
330
CD
100
AcDbDictionary
280
     1
281
     1
  3
ACAD_XREC_ROUNDTRIP
360
177
  0
DICTIONARY
  5
18C
330
D8
100
AcDbDictionary
280
     1
281
     1
  3
ACAD_XREC_ROUNDTRIP
360
18D
  0
DICTIONARY
  5
18A
330
D7
100
AcDbDictionary
280
     1
281
     1
  3
ACAD_XREC_ROUNDTRIP
360
18B
  0
DICTIONARY
  5
184
330
D4
100
AcDbDictionary
280
     1
281
     1
  3
ACAD_XREC_ROUNDTRIP
360
185
  0
DICTIONARY
  5
186
330
D5
100
AcDbDictionary
280
     1
281
     1
  3
ACAD_XREC_ROUNDTRIP
360
187
  0
DICTIONARY
  5
17C
330
D0
100
AcDbDictionary
280
     1
281
     1
  3
ACAD_XREC_ROUNDTRIP
360
17D
  0
DICTIONARY
  5
170
330
CA
100
AcDbDictionary
280
     1
281
     1
  3
ACAD_XREC_ROUNDTRIP
360
171
  0
DICTIONARY
  5
188
330
D6
100
AcDbDictionary
280
     1
281
     1
  3
ACAD_XREC_ROUNDTRIP
360
189
  0
XRECORD
  5
199
102
{ACAD_REACTORS
330
198
102
}
330
198
100
AcDbXrecord
280
     1
102
DISPLAYNAME
  1
Imperial24
102
FLAGS
 90
        0
  0
XRECORD
  5
B6
102
{ACAD_REACTORS
330
B4
102
}
330
B4
100
AcDbXrecord
280
     1
270
     1
271
     1
  0
XRECORD
  5
B5
102
{ACAD_REACTORS
330
B4
102
}
330
B4
100
AcDbXrecord
280
     1
270
     1
271
     1
  0
XRECORD
  5
B9
102
{ACAD_REACTORS
330
B4
102
}
330
B4
100
AcDbXrecord
280
     1
270
     1
271
     1
  0
XRECORD
  5
B8
102
{ACAD_REACTORS
330
B4
102
}
330
B4
100
AcDbXrecord
280
     1
270
     1
271
     1
  0
XRECORD
  5
BA
102
{ACAD_REACTORS
330
B4
102
}
330
B4
100
AcDbXrecord
280
     1
270
     1
271
     1
  0
XRECORD
  5
B7
102
{ACAD_REACTORS
330
B4
102
}
330
B4
100
AcDbXrecord
280
     1
270
     1
271
     1
  0
XRECORD
  5
AE
102
{ACAD_REACTORS
330
AC
102
}
330
AC
100
AcDbXrecord
280
     1
270
     1
271
     1
  0
XRECORD
  5
AD
102
{ACAD_REACTORS
330
AC
102
}
330
AC
100
AcDbXrecord
280
     1
270
     1
271
     1
  0
XRECORD
  5
B1
102
{ACAD_REACTORS
330
AC
102
}
330
AC
100
AcDbXrecord
280
     1
270
     1
271
     1
  0
XRECORD
  5
B0
102
{ACAD_REACTORS
330
AC
102
}
330
AC
100
AcDbXrecord
280
     1
270
     1
271
     1
  0
XRECORD
  5
B2
102
{ACAD_REACTORS
330
AC
102
}
330
AC
100
AcDbXrecord
280
     1
270
     1
271
     1
  0
XRECORD
  5
AF
102
{ACAD_REACTORS
330
AC
102
}
330
AC
100
AcDbXrecord
280
     1
270
     1
271
     1
  0
XRECORD
  5
BE
102
{ACAD_REACTORS
330
BC
102
}
330
BC
100
AcDbXrecord
280
     1
270
     1
271
     1
  0
XRECORD
  5
BD
102
{ACAD_REACTORS
330
BC
102
}
330
BC
100
AcDbXrecord
280
     1
270
     1
271
     1
  0
XRECORD
  5
C1
102
{ACAD_REACTORS
330
BC
102
}
330
BC
100
AcDbXrecord
280
     1
270
     1
271
     1
  0
XRECORD
  5
C0
102
{ACAD_REACTORS
330
BC
102
}
330
BC
100
AcDbXrecord
280
     1
270
     1
271
     1
  0
XRECORD
  5
C2
102
{ACAD_REACTORS
330
BC
102
}
330
BC
100
AcDbXrecord
280
     1
270
     1
271
     1
  0
XRECORD
  5
BF
102
{ACAD_REACTORS
330
BC
102
}
330
BC
100
AcDbXrecord
280
     1
270
     1
271
     1
  0
XRECORD
  5
195
102
{ACAD_REACTORS
330
194
102
}
330
194
100
AcDbXrecord
280
     1
102
ACAD_ROUNDTRIP_2012_MLEADER_STYLE
298
     1
  0
XRECORD
  5
197
102
{ACAD_REACTORS
330
196
102
}
330
196
100
AcDbXrecord
280
     1
102
DISPLAYNAME
  1
Imperial24
102
FLAGS
 90
        0
  0
CELLSTYLEMAP
  5
162
102
{ACAD_REACTORS
330
161
102
}
330
161
100
AcDbCellStyleMap
 90
        3
300
CELLSTYLE
  1
TABLEFORMAT_BEGIN
 90
        5
170
     1
 91
        0
 92
    32768
 62
   257
 93
        1
300
CONTENTFORMAT
  1
CONTENTFORMAT_BEGIN
 90
        0
 91
        0
 92
      512
 93
        0
300

 40
0.0
140
1.0
 94
        5
 62
     0
340
11
144
0.25
309
CONTENTFORMAT_END
171
     0
 94
        0
309
TABLEFORMAT_END
  1
CELLSTYLE_BEGIN
 90
        1
 91
        1
300
_TITLE
309
CELLSTYLE_END
300
CELLSTYLE
  1
TABLEFORMAT_BEGIN
 90
        5
170
     1
 91
        0
 92
        0
 62
   257
 93
        1
300
CONTENTFORMAT
  1
CONTENTFORMAT_BEGIN
 90
        0
 91
        0
 92
      512
 93
        0
300

 40
0.0
140
1.0
 94
        5
 62
     0
340
11
144
0.18
309
CONTENTFORMAT_END
171
     0
 94
        0
309
TABLEFORMAT_END
  1
CELLSTYLE_BEGIN
 90
        2
 91
        1
300
_HEADER
309
CELLSTYLE_END
300
CELLSTYLE
  1
TABLEFORMAT_BEGIN
 90
        5
170
     1
 91
        0
 92
        0
 62
   257
 93
        1
300
CONTENTFORMAT
  1
CONTENTFORMAT_BEGIN
 90
        0
 91
        0
 92
      512
 93
        0
300

 40
0.0
140
1.0
 94
        2
 62
     0
340
11
144
0.18
309
CONTENTFORMAT_END
171
     0
 94
        0
309
TABLEFORMAT_END
  1
CELLSTYLE_BEGIN
 90
        3
 91
        2
300
_DATA
309
CELLSTYLE_END
  0
XRECORD
  5
16F
102
{ACAD_REACTORS
330
16E
102
}
330
16E
100
AcDbXrecord
280
     1
102
RTVSPost2010Prop28
280
     1
102
RTVSPost2010PropOp28
 70
     1
102
RTVSPost2010Prop29
280
     1
102
RTVSPost2010PropOp29
 70
     1
102
RTVSPost2010Prop30
280
     0
102
RTVSPost2010PropOp30
 70
     1
102
RTVSPost2010Prop31
280
     0
102
RTVSPost2010PropOp31
 70
     1
102
RTVSPost2010Prop32
280
     0
102
RTVSPost2010PropOp32
 70
     1
102
RTVSPost2010Prop33
280
     0
102
RTVSPost2010PropOp33
 70
     1
102
RTVSPost2010Prop34
280
     0
102
RTVSPost2010PropOp34
 70
     1
102
RTVSPost2010Prop35
280
     0
102
RTVSPost2010PropOp35
 70
     1
102
RTVSPost2010Prop36
280
     0
102
RTVSPost2010PropOp36
 70
     1
102
RTVSPost2010Prop37
 90
       50
102
RTVSPost2010PropOp37
 70
     1
102
RTVSPost2010Prop38
140
0.0
102
RTVSPost2010PropOp38
 70
     1
102
RTVSPost2010Prop39
140
1.0
102
RTVSPost2010PropOp39
 70
     1
102
RTVSPost2010Prop40
 90
        0
102
RTVSPost2010PropOp40
 70
     1
102
RTVSPost2010Prop41ColorIndex
 90
       18
102
RTVSPost2010Prop41ColorRGB
 90
        0
102
RTVSPost2010PropOp41
 70
     1
102
RTVSPost2010Prop42
 90
       50
102
RTVSPost2010PropOp42
 70
     1
102
RTVSPost2010Prop43
 90
        3
102
RTVSPost2010PropOp43
 70
     1
102
RTVSPost2010Prop44ColorIndex
 90
        5
102
RTVSPost2010Prop44ColorRGB
 90
      255
102
RTVSPost2010PropOp44
 70
     1
102
RTVSPost2010Prop45
280
     0
102
RTVSPost2010PropOp45
 70
     1
102
RTVSPost2010Prop46
 90
       50
102
RTVSPost2010PropOp46
 70
     1
102
RTVSPost2010Prop47
 90
       50
102
RTVSPost2010PropOp47
 70
     1
102
RTVSPost2010Prop48
 90
       50
102
RTVSPost2010PropOp48
 70
     1
102
RTVSPost2010Prop49
280
     0
102
RTVSPost2010PropOp49
 70
     1
102
RTVSPost2010Prop50
 90
       50
102
RTVSPost2010PropOp50
 70
     1
102
RTVSPost2010Prop51ColorIndex
 90
      256
102
RTVSPost2010Prop51ColorRGB
 90
-16777216
102
RTVSPost2010PropOp51
 70
     0
102
RTVSPost2010Prop52
140
1.0
102
RTVSPost2010PropOp52
 70
     0
102
RTVSPost2010Prop53
 90
        2
102
RTVSPost2010PropOp53
 70
     1
102
RTVSPost2010Prop54
  1
strokes_ogs.tif
102
RTVSPost2010PropOp54
 70
     1
102
RTVSPost2010Prop55
280
     0
102
RTVSPost2010PropOp55
 70
     1
102
RTVSPost2010Prop56
140
1.0
102
RTVSPost2010PropOp56
 70
     1
102
RTVSPost2010Prop57
140
1.0
102
RTVSPost2010PropOp57
 70
     1
  0
XRECORD
  5
16D
102
{ACAD_REACTORS
330
16C
102
}
330
16C
100
AcDbXrecord
280
     1
102
RTVSPost2010Prop28
280
     0
102
RTVSPost2010PropOp28
 70
     1
102
RTVSPost2010Prop29
280
     1
102
RTVSPost2010PropOp29
 70
     1
102
RTVSPost2010Prop30
280
     1
102
RTVSPost2010PropOp30
 70
     1
102
RTVSPost2010Prop31
280
     0
102
RTVSPost2010PropOp31
 70
     1
102
RTVSPost2010Prop32
280
     0
102
RTVSPost2010PropOp32
 70
     1
102
RTVSPost2010Prop33
280
     0
102
RTVSPost2010PropOp33
 70
     1
102
RTVSPost2010Prop34
280
     0
102
RTVSPost2010PropOp34
 70
     1
102
RTVSPost2010Prop35
280
     0
102
RTVSPost2010PropOp35
 70
     1
102
RTVSPost2010Prop36
280
     0
102
RTVSPost2010PropOp36
 70
     1
102
RTVSPost2010Prop37
 90
       50
102
RTVSPost2010PropOp37
 70
     1
102
RTVSPost2010Prop38
140
0.0
102
RTVSPost2010PropOp38
 70
     1
102
RTVSPost2010Prop39
140
1.0
102
RTVSPost2010PropOp39
 70
     1
102
RTVSPost2010Prop40
 90
        0
102
RTVSPost2010PropOp40
 70
     1
102
RTVSPost2010Prop41ColorIndex
 90
       18
102
RTVSPost2010Prop41ColorRGB
 90
        0
102
RTVSPost2010PropOp41
 70
     1
102
RTVSPost2010Prop42
 90
       50
102
RTVSPost2010PropOp42
 70
     1
102
RTVSPost2010Prop43
 90
        3
102
RTVSPost2010PropOp43
 70
     1
102
RTVSPost2010Prop44ColorIndex
 90
        5
102
RTVSPost2010Prop44ColorRGB
 90
      255
102
RTVSPost2010PropOp44
 70
     1
102
RTVSPost2010Prop45
280
     0
102
RTVSPost2010PropOp45
 70
     1
102
RTVSPost2010Prop46
 90
       50
102
RTVSPost2010PropOp46
 70
     1
102
RTVSPost2010Prop47
 90
       50
102
RTVSPost2010PropOp47
 70
     1
102
RTVSPost2010Prop48
 90
       50
102
RTVSPost2010PropOp48
 70
     1
102
RTVSPost2010Prop49
280
     0
102
RTVSPost2010PropOp49
 70
     1
102
RTVSPost2010Prop50
 90
       50
102
RTVSPost2010PropOp50
 70
     1
102
RTVSPost2010Prop51ColorIndex
 90
      256
102
RTVSPost2010Prop51ColorRGB
 90
-16777216
102
RTVSPost2010PropOp51
 70
     0
102
RTVSPost2010Prop52
140
1.0
102
RTVSPost2010PropOp52
 70
     0
102
RTVSPost2010Prop53
 90
        2
102
RTVSPost2010PropOp53
 70
     1
102
RTVSPost2010Prop54
  1
strokes_ogs.tif
102
RTVSPost2010PropOp54
 70
     1
102
RTVSPost2010Prop55
280
     0
102
RTVSPost2010PropOp55
 70
     1
102
RTVSPost2010Prop56
140
1.0
102
RTVSPost2010PropOp56
 70
     1
102
RTVSPost2010Prop57
140
1.0
102
RTVSPost2010PropOp57
 70
     1
  0
XRECORD
  5
17B
102
{ACAD_REACTORS
330
17A
102
}
330
17A
100
AcDbXrecord
280
     1
102
RTVSPost2010Prop28
280
     0
102
RTVSPost2010PropOp28
 70
     1
102
RTVSPost2010Prop29
280
     1
102
RTVSPost2010PropOp29
 70
     1
102
RTVSPost2010Prop30
280
     1
102
RTVSPost2010PropOp30
 70
     1
102
RTVSPost2010Prop31
280
     0
102
RTVSPost2010PropOp31
 70
     1
102
RTVSPost2010Prop32
280
     0
102
RTVSPost2010PropOp32
 70
     1
102
RTVSPost2010Prop33
280
     0
102
RTVSPost2010PropOp33
 70
     1
102
RTVSPost2010Prop34
280
     0
102
RTVSPost2010PropOp34
 70
     1
102
RTVSPost2010Prop35
280
     0
102
RTVSPost2010PropOp35
 70
     1
102
RTVSPost2010Prop36
280
     0
102
RTVSPost2010PropOp36
 70
     1
102
RTVSPost2010Prop37
 90
       50
102
RTVSPost2010PropOp37
 70
     1
102
RTVSPost2010Prop38
140
0.0
102
RTVSPost2010PropOp38
 70
     1
102
RTVSPost2010Prop39
140
1.0
102
RTVSPost2010PropOp39
 70
     1
102
RTVSPost2010Prop40
 90
        0
102
RTVSPost2010PropOp40
 70
     1
102
RTVSPost2010Prop41ColorIndex
 90
       18
102
RTVSPost2010Prop41ColorRGB
 90
        0
102
RTVSPost2010PropOp41
 70
     1
102
RTVSPost2010Prop42
 90
       50
102
RTVSPost2010PropOp42
 70
     1
102
RTVSPost2010Prop43
 90
        3
102
RTVSPost2010PropOp43
 70
     1
102
RTVSPost2010Prop44ColorIndex
 90
        5
102
RTVSPost2010Prop44ColorRGB
 90
      255
102
RTVSPost2010PropOp44
 70
     1
102
RTVSPost2010Prop45
280
     0
102
RTVSPost2010PropOp45
 70
     1
102
RTVSPost2010Prop46
 90
       50
102
RTVSPost2010PropOp46
 70
     1
102
RTVSPost2010Prop47
 90
       50
102
RTVSPost2010PropOp47
 70
     1
102
RTVSPost2010Prop48
 90
       50
102
RTVSPost2010PropOp48
 70
     1
102
RTVSPost2010Prop49
280
     0
102
RTVSPost2010PropOp49
 70
     1
102
RTVSPost2010Prop50
 90
       50
102
RTVSPost2010PropOp50
 70
     1
102
RTVSPost2010Prop51ColorIndex
 90
      256
102
RTVSPost2010Prop51ColorRGB
 90
-16777216
102
RTVSPost2010PropOp51
 70
     0
102
RTVSPost2010Prop52
140
1.0
102
RTVSPost2010PropOp52
 70
     0
102
RTVSPost2010Prop53
 90
        2
102
RTVSPost2010PropOp53
 70
     1
102
RTVSPost2010Prop54
  1
strokes_ogs.tif
102
RTVSPost2010PropOp54
 70
     1
102
RTVSPost2010Prop55
280
     0
102
RTVSPost2010PropOp55
 70
     1
102
RTVSPost2010Prop56
140
1.0
102
RTVSPost2010PropOp56
 70
     1
102
RTVSPost2010Prop57
140
1.0
102
RTVSPost2010PropOp57
 70
     1
  0
XRECORD
  5
183
102
{ACAD_REACTORS
330
182
102
}
330
182
100
AcDbXrecord
280
     1
102
RTVSPost2010Prop28
280
     0
102
RTVSPost2010PropOp28
 70
     1
102
RTVSPost2010Prop29
280
     1
102
RTVSPost2010PropOp29
 70
     1
102
RTVSPost2010Prop30
280
     1
102
RTVSPost2010PropOp30
 70
     1
102
RTVSPost2010Prop31
280
     0
102
RTVSPost2010PropOp31
 70
     1
102
RTVSPost2010Prop32
280
     0
102
RTVSPost2010PropOp32
 70
     1
102
RTVSPost2010Prop33
280
     0
102
RTVSPost2010PropOp33
 70
     1
102
RTVSPost2010Prop34
280
     0
102
RTVSPost2010PropOp34
 70
     1
102
RTVSPost2010Prop35
280
     0
102
RTVSPost2010PropOp35
 70
     1
102
RTVSPost2010Prop36
280
     0
102
RTVSPost2010PropOp36
 70
     1
102
RTVSPost2010Prop37
 90
       50
102
RTVSPost2010PropOp37
 70
     1
102
RTVSPost2010Prop38
140
0.0
102
RTVSPost2010PropOp38
 70
     1
102
RTVSPost2010Prop39
140
1.0
102
RTVSPost2010PropOp39
 70
     1
102
RTVSPost2010Prop40
 90
        0
102
RTVSPost2010PropOp40
 70
     1
102
RTVSPost2010Prop41ColorIndex
 90
       18
102
RTVSPost2010Prop41ColorRGB
 90
        0
102
RTVSPost2010PropOp41
 70
     1
102
RTVSPost2010Prop42
 90
       50
102
RTVSPost2010PropOp42
 70
     1
102
RTVSPost2010Prop43
 90
        3
102
RTVSPost2010PropOp43
 70
     1
102
RTVSPost2010Prop44ColorIndex
 90
        5
102
RTVSPost2010Prop44ColorRGB
 90
      255
102
RTVSPost2010PropOp44
 70
     1
102
RTVSPost2010Prop45
280
     0
102
RTVSPost2010PropOp45
 70
     1
102
RTVSPost2010Prop46
 90
       50
102
RTVSPost2010PropOp46
 70
     1
102
RTVSPost2010Prop47
 90
       50
102
RTVSPost2010PropOp47
 70
     1
102
RTVSPost2010Prop48
 90
       50
102
RTVSPost2010PropOp48
 70
     1
102
RTVSPost2010Prop49
280
     0
102
RTVSPost2010PropOp49
 70
     1
102
RTVSPost2010Prop50
 90
       50
102
RTVSPost2010PropOp50
 70
     1
102
RTVSPost2010Prop51ColorIndex
 90
      256
102
RTVSPost2010Prop51ColorRGB
 90
-16777216
102
RTVSPost2010PropOp51
 70
     0
102
RTVSPost2010Prop52
140
1.0
102
RTVSPost2010PropOp52
 70
     0
102
RTVSPost2010Prop53
 90
        2
102
RTVSPost2010PropOp53
 70
     1
102
RTVSPost2010Prop54
  1
strokes_ogs.tif
102
RTVSPost2010PropOp54
 70
     1
102
RTVSPost2010Prop55
280
     0
102
RTVSPost2010PropOp55
 70
     1
102
RTVSPost2010Prop56
140
1.0
102
RTVSPost2010PropOp56
 70
     1
102
RTVSPost2010Prop57
140
1.0
102
RTVSPost2010PropOp57
 70
     1
  0
XRECORD
  5
175
102
{ACAD_REACTORS
330
174
102
}
330
174
100
AcDbXrecord
280
     1
102
RTVSPost2010Prop28
280
     0
102
RTVSPost2010PropOp28
 70
     1
102
RTVSPost2010Prop29
280
     1
102
RTVSPost2010PropOp29
 70
     1
102
RTVSPost2010Prop30
280
     1
102
RTVSPost2010PropOp30
 70
     1
102
RTVSPost2010Prop31
280
     0
102
RTVSPost2010PropOp31
 70
     1
102
RTVSPost2010Prop32
280
     0
102
RTVSPost2010PropOp32
 70
     1
102
RTVSPost2010Prop33
280
     0
102
RTVSPost2010PropOp33
 70
     1
102
RTVSPost2010Prop34
280
     0
102
RTVSPost2010PropOp34
 70
     1
102
RTVSPost2010Prop35
280
     0
102
RTVSPost2010PropOp35
 70
     1
102
RTVSPost2010Prop36
280
     0
102
RTVSPost2010PropOp36
 70
     1
102
RTVSPost2010Prop37
 90
       50
102
RTVSPost2010PropOp37
 70
     1
102
RTVSPost2010Prop38
140
0.0
102
RTVSPost2010PropOp38
 70
     1
102
RTVSPost2010Prop39
140
1.0
102
RTVSPost2010PropOp39
 70
     1
102
RTVSPost2010Prop40
 90
        0
102
RTVSPost2010PropOp40
 70
     1
102
RTVSPost2010Prop41ColorIndex
 90
       18
102
RTVSPost2010Prop41ColorRGB
 90
        0
102
RTVSPost2010PropOp41
 70
     1
102
RTVSPost2010Prop42
 90
       50
102
RTVSPost2010PropOp42
 70
     1
102
RTVSPost2010Prop43
 90
        3
102
RTVSPost2010PropOp43
 70
     1
102
RTVSPost2010Prop44ColorIndex
 90
        5
102
RTVSPost2010Prop44ColorRGB
 90
      255
102
RTVSPost2010PropOp44
 70
     1
102
RTVSPost2010Prop45
280
     0
102
RTVSPost2010PropOp45
 70
     1
102
RTVSPost2010Prop46
 90
       50
102
RTVSPost2010PropOp46
 70
     1
102
RTVSPost2010Prop47
 90
       50
102
RTVSPost2010PropOp47
 70
     1
102
RTVSPost2010Prop48
 90
       50
102
RTVSPost2010PropOp48
 70
     1
102
RTVSPost2010Prop49
280
     0
102
RTVSPost2010PropOp49
 70
     1
102
RTVSPost2010Prop50
 90
       50
102
RTVSPost2010PropOp50
 70
     1
102
RTVSPost2010Prop51ColorIndex
 90
      256
102
RTVSPost2010Prop51ColorRGB
 90
-16777216
102
RTVSPost2010PropOp51
 70
     0
102
RTVSPost2010Prop52
140
1.0
102
RTVSPost2010PropOp52
 70
     0
102
RTVSPost2010Prop53
 90
        2
102
RTVSPost2010PropOp53
 70
     1
102
RTVSPost2010Prop54
  1
strokes_ogs.tif
102
RTVSPost2010PropOp54
 70
     1
102
RTVSPost2010Prop55
280
     0
102
RTVSPost2010PropOp55
 70
     1
102
RTVSPost2010Prop56
140
1.0
102
RTVSPost2010PropOp56
 70
     1
102
RTVSPost2010Prop57
140
1.0
102
RTVSPost2010PropOp57
 70
     1
  0
XRECORD
  5
179
102
{ACAD_REACTORS
330
178
102
}
330
178
100
AcDbXrecord
280
     1
102
RTVSPost2010Prop28
280
     0
102
RTVSPost2010PropOp28
 70
     1
102
RTVSPost2010Prop29
280
     1
102
RTVSPost2010PropOp29
 70
     1
102
RTVSPost2010Prop30
280
     1
102
RTVSPost2010PropOp30
 70
     1
102
RTVSPost2010Prop31
280
     0
102
RTVSPost2010PropOp31
 70
     1
102
RTVSPost2010Prop32
280
     0
102
RTVSPost2010PropOp32
 70
     1
102
RTVSPost2010Prop33
280
     0
102
RTVSPost2010PropOp33
 70
     1
102
RTVSPost2010Prop34
280
     0
102
RTVSPost2010PropOp34
 70
     1
102
RTVSPost2010Prop35
280
     0
102
RTVSPost2010PropOp35
 70
     1
102
RTVSPost2010Prop36
280
     0
102
RTVSPost2010PropOp36
 70
     1
102
RTVSPost2010Prop37
 90
       50
102
RTVSPost2010PropOp37
 70
     1
102
RTVSPost2010Prop38
140
0.0
102
RTVSPost2010PropOp38
 70
     1
102
RTVSPost2010Prop39
140
1.0
102
RTVSPost2010PropOp39
 70
     1
102
RTVSPost2010Prop40
 90
        0
102
RTVSPost2010PropOp40
 70
     1
102
RTVSPost2010Prop41ColorIndex
 90
       18
102
RTVSPost2010Prop41ColorRGB
 90
        0
102
RTVSPost2010PropOp41
 70
     1
102
RTVSPost2010Prop42
 90
       50
102
RTVSPost2010PropOp42
 70
     1
102
RTVSPost2010Prop43
 90
        3
102
RTVSPost2010PropOp43
 70
     1
102
RTVSPost2010Prop44ColorIndex
 90
        5
102
RTVSPost2010Prop44ColorRGB
 90
      255
102
RTVSPost2010PropOp44
 70
     1
102
RTVSPost2010Prop45
280
     0
102
RTVSPost2010PropOp45
 70
     1
102
RTVSPost2010Prop46
 90
       50
102
RTVSPost2010PropOp46
 70
     1
102
RTVSPost2010Prop47
 90
       50
102
RTVSPost2010PropOp47
 70
     1
102
RTVSPost2010Prop48
 90
       50
102
RTVSPost2010PropOp48
 70
     1
102
RTVSPost2010Prop49
280
     0
102
RTVSPost2010PropOp49
 70
     1
102
RTVSPost2010Prop50
 90
       50
102
RTVSPost2010PropOp50
 70
     1
102
RTVSPost2010Prop51ColorIndex
 90
      256
102
RTVSPost2010Prop51ColorRGB
 90
-16777216
102
RTVSPost2010PropOp51
 70
     0
102
RTVSPost2010Prop52
140
1.0
102
RTVSPost2010PropOp52
 70
     0
102
RTVSPost2010Prop53
 90
        2
102
RTVSPost2010PropOp53
 70
     1
102
RTVSPost2010Prop54
  1
strokes_ogs.tif
102
RTVSPost2010PropOp54
 70
     1
102
RTVSPost2010Prop55
280
     0
102
RTVSPost2010PropOp55
 70
     1
102
RTVSPost2010Prop56
140
1.0
102
RTVSPost2010PropOp56
 70
     1
102
RTVSPost2010Prop57
140
1.0
102
RTVSPost2010PropOp57
 70
     1
  0
XRECORD
  5
193
102
{ACAD_REACTORS
330
192
102
}
330
192
100
AcDbXrecord
280
     1
102
RTVSPost2010Prop28
280
     0
102
RTVSPost2010PropOp28
 70
     0
102
RTVSPost2010Prop29
280
     1
102
RTVSPost2010PropOp29
 70
     0
102
RTVSPost2010Prop30
280
     1
102
RTVSPost2010PropOp30
 70
     0
102
RTVSPost2010Prop31
280
     0
102
RTVSPost2010PropOp31
 70
     0
102
RTVSPost2010Prop32
280
     0
102
RTVSPost2010PropOp32
 70
     0
102
RTVSPost2010Prop33
280
     0
102
RTVSPost2010PropOp33
 70
     0
102
RTVSPost2010Prop34
280
     0
102
RTVSPost2010PropOp34
 70
     0
102
RTVSPost2010Prop35
280
     0
102
RTVSPost2010PropOp35
 70
     0
102
RTVSPost2010Prop36
280
     0
102
RTVSPost2010PropOp36
 70
     0
102
RTVSPost2010Prop37
 90
       50
102
RTVSPost2010PropOp37
 70
     0
102
RTVSPost2010Prop38
140
0.0
102
RTVSPost2010PropOp38
 70
     0
102
RTVSPost2010Prop39
140
1.0
102
RTVSPost2010PropOp39
 70
     0
102
RTVSPost2010Prop40
 90
        0
102
RTVSPost2010PropOp40
 70
     0
102
RTVSPost2010Prop41ColorIndex
 90
       18
102
RTVSPost2010Prop41ColorRGB
 90
        0
102
RTVSPost2010PropOp41
 70
     0
102
RTVSPost2010Prop42
 90
       50
102
RTVSPost2010PropOp42
 70
     0
102
RTVSPost2010Prop43
 90
        3
102
RTVSPost2010PropOp43
 70
     0
102
RTVSPost2010Prop44ColorIndex
 90
        5
102
RTVSPost2010Prop44ColorRGB
 90
      255
102
RTVSPost2010PropOp44
 70
     0
102
RTVSPost2010Prop45
280
     0
102
RTVSPost2010PropOp45
 70
     0
102
RTVSPost2010Prop46
 90
       50
102
RTVSPost2010PropOp46
 70
     0
102
RTVSPost2010Prop47
 90
       50
102
RTVSPost2010PropOp47
 70
     0
102
RTVSPost2010Prop48
 90
       50
102
RTVSPost2010PropOp48
 70
     0
102
RTVSPost2010Prop49
280
     0
102
RTVSPost2010PropOp49
 70
     0
102
RTVSPost2010Prop50
 90
       50
102
RTVSPost2010PropOp50
 70
     0
102
RTVSPost2010Prop51ColorIndex
 90
      256
102
RTVSPost2010Prop51ColorRGB
 90
-16777216
102
RTVSPost2010PropOp51
 70
     0
102
RTVSPost2010Prop52
140
1.0
102
RTVSPost2010PropOp52
 70
     0
102
RTVSPost2010Prop53
 90
        2
102
RTVSPost2010PropOp53
 70
     0
102
RTVSPost2010Prop54
  1
strokes_ogs.tif
102
RTVSPost2010PropOp54
 70
     0
102
RTVSPost2010Prop55
280
     0
102
RTVSPost2010PropOp55
 70
     0
102
RTVSPost2010Prop56
140
1.0
102
RTVSPost2010PropOp56
 70
     0
102
RTVSPost2010Prop57
140
1.0
102
RTVSPost2010PropOp57
 70
     0
  0
XRECORD
  5
181
102
{ACAD_REACTORS
330
180
102
}
330
180
100
AcDbXrecord
280
     1
102
RTVSPost2010Prop28
280
     0
102
RTVSPost2010PropOp28
 70
     1
102
RTVSPost2010Prop29
280
     1
102
RTVSPost2010PropOp29
 70
     1
102
RTVSPost2010Prop30
280
     1
102
RTVSPost2010PropOp30
 70
     1
102
RTVSPost2010Prop31
280
     0
102
RTVSPost2010PropOp31
 70
     1
102
RTVSPost2010Prop32
280
     0
102
RTVSPost2010PropOp32
 70
     1
102
RTVSPost2010Prop33
280
     0
102
RTVSPost2010PropOp33
 70
     1
102
RTVSPost2010Prop34
280
     0
102
RTVSPost2010PropOp34
 70
     1
102
RTVSPost2010Prop35
280
     0
102
RTVSPost2010PropOp35
 70
     1
102
RTVSPost2010Prop36
280
     0
102
RTVSPost2010PropOp36
 70
     1
102
RTVSPost2010Prop37
 90
       50
102
RTVSPost2010PropOp37
 70
     1
102
RTVSPost2010Prop38
140
0.0
102
RTVSPost2010PropOp38
 70
     1
102
RTVSPost2010Prop39
140
1.0
102
RTVSPost2010PropOp39
 70
     1
102
RTVSPost2010Prop40
 90
        0
102
RTVSPost2010PropOp40
 70
     1
102
RTVSPost2010Prop41ColorIndex
 90
       18
102
RTVSPost2010Prop41ColorRGB
 90
        0
102
RTVSPost2010PropOp41
 70
     1
102
RTVSPost2010Prop42
 90
       50
102
RTVSPost2010PropOp42
 70
     1
102
RTVSPost2010Prop43
 90
        3
102
RTVSPost2010PropOp43
 70
     1
102
RTVSPost2010Prop44ColorIndex
 90
        5
102
RTVSPost2010Prop44ColorRGB
 90
      255
102
RTVSPost2010PropOp44
 70
     1
102
RTVSPost2010Prop45
280
     0
102
RTVSPost2010PropOp45
 70
     1
102
RTVSPost2010Prop46
 90
       50
102
RTVSPost2010PropOp46
 70
     1
102
RTVSPost2010Prop47
 90
       50
102
RTVSPost2010PropOp47
 70
     1
102
RTVSPost2010Prop48
 90
       50
102
RTVSPost2010PropOp48
 70
     1
102
RTVSPost2010Prop49
280
     0
102
RTVSPost2010PropOp49
 70
     1
102
RTVSPost2010Prop50
 90
       50
102
RTVSPost2010PropOp50
 70
     1
102
RTVSPost2010Prop51ColorIndex
 90
      256
102
RTVSPost2010Prop51ColorRGB
 90
-16777216
102
RTVSPost2010PropOp51
 70
     0
102
RTVSPost2010Prop52
140
1.0
102
RTVSPost2010PropOp52
 70
     0
102
RTVSPost2010Prop53
 90
        2
102
RTVSPost2010PropOp53
 70
     1
102
RTVSPost2010Prop54
  1
strokes_ogs.tif
102
RTVSPost2010PropOp54
 70
     1
102
RTVSPost2010Prop55
280
     0
102
RTVSPost2010PropOp55
 70
     1
102
RTVSPost2010Prop56
140
1.0
102
RTVSPost2010PropOp56
 70
     1
102
RTVSPost2010Prop57
140
1.0
102
RTVSPost2010PropOp57
 70
     1
  0
XRECORD
  5
165
102
{ACAD_REACTORS
330
164
102
}
330
164
100
AcDbXrecord
280
     1
102
RTVSPost2010Prop28
280
     0
102
RTVSPost2010PropOp28
 70
     1
102
RTVSPost2010Prop29
280
     1
102
RTVSPost2010PropOp29
 70
     1
102
RTVSPost2010Prop30
280
     1
102
RTVSPost2010PropOp30
 70
     1
102
RTVSPost2010Prop31
280
     0
102
RTVSPost2010PropOp31
 70
     1
102
RTVSPost2010Prop32
280
     0
102
RTVSPost2010PropOp32
 70
     1
102
RTVSPost2010Prop33
280
     0
102
RTVSPost2010PropOp33
 70
     1
102
RTVSPost2010Prop34
280
     0
102
RTVSPost2010PropOp34
 70
     1
102
RTVSPost2010Prop35
280
     0
102
RTVSPost2010PropOp35
 70
     1
102
RTVSPost2010Prop36
280
     0
102
RTVSPost2010PropOp36
 70
     1
102
RTVSPost2010Prop37
 90
       50
102
RTVSPost2010PropOp37
 70
     1
102
RTVSPost2010Prop38
140
0.0
102
RTVSPost2010PropOp38
 70
     1
102
RTVSPost2010Prop39
140
1.0
102
RTVSPost2010PropOp39
 70
     1
102
RTVSPost2010Prop40
 90
        0
102
RTVSPost2010PropOp40
 70
     1
102
RTVSPost2010Prop41ColorIndex
 90
       18
102
RTVSPost2010Prop41ColorRGB
 90
        0
102
RTVSPost2010PropOp41
 70
     1
102
RTVSPost2010Prop42
 90
       50
102
RTVSPost2010PropOp42
 70
     1
102
RTVSPost2010Prop43
 90
        3
102
RTVSPost2010PropOp43
 70
     1
102
RTVSPost2010Prop44ColorIndex
 90
        5
102
RTVSPost2010Prop44ColorRGB
 90
      255
102
RTVSPost2010PropOp44
 70
     1
102
RTVSPost2010Prop45
280
     0
102
RTVSPost2010PropOp45
 70
     1
102
RTVSPost2010Prop46
 90
       50
102
RTVSPost2010PropOp46
 70
     1
102
RTVSPost2010Prop47
 90
       50
102
RTVSPost2010PropOp47
 70
     1
102
RTVSPost2010Prop48
 90
       50
102
RTVSPost2010PropOp48
 70
     1
102
RTVSPost2010Prop49
280
     0
102
RTVSPost2010PropOp49
 70
     1
102
RTVSPost2010Prop50
 90
       50
102
RTVSPost2010PropOp50
 70
     1
102
RTVSPost2010Prop51ColorIndex
 90
      256
102
RTVSPost2010Prop51ColorRGB
 90
-16777216
102
RTVSPost2010PropOp51
 70
     0
102
RTVSPost2010Prop52
140
1.0
102
RTVSPost2010PropOp52
 70
     0
102
RTVSPost2010Prop53
 90
        2
102
RTVSPost2010PropOp53
 70
     1
102
RTVSPost2010Prop54
  1
strokes_ogs.tif
102
RTVSPost2010PropOp54
 70
     1
102
RTVSPost2010Prop55
280
     0
102
RTVSPost2010PropOp55
 70
     1
102
RTVSPost2010Prop56
140
1.0
102
RTVSPost2010PropOp56
 70
     1
102
RTVSPost2010Prop57
140
1.0
102
RTVSPost2010PropOp57
 70
     1
  0
XRECORD
  5
167
102
{ACAD_REACTORS
330
166
102
}
330
166
100
AcDbXrecord
280
     1
102
RTVSPost2010Prop28
280
     0
102
RTVSPost2010PropOp28
 70
     1
102
RTVSPost2010Prop29
280
     1
102
RTVSPost2010PropOp29
 70
     1
102
RTVSPost2010Prop30
280
     1
102
RTVSPost2010PropOp30
 70
     1
102
RTVSPost2010Prop31
280
     0
102
RTVSPost2010PropOp31
 70
     1
102
RTVSPost2010Prop32
280
     0
102
RTVSPost2010PropOp32
 70
     1
102
RTVSPost2010Prop33
280
     0
102
RTVSPost2010PropOp33
 70
     1
102
RTVSPost2010Prop34
280
     0
102
RTVSPost2010PropOp34
 70
     1
102
RTVSPost2010Prop35
280
     0
102
RTVSPost2010PropOp35
 70
     1
102
RTVSPost2010Prop36
280
     0
102
RTVSPost2010PropOp36
 70
     1
102
RTVSPost2010Prop37
 90
       50
102
RTVSPost2010PropOp37
 70
     1
102
RTVSPost2010Prop38
140
0.0
102
RTVSPost2010PropOp38
 70
     1
102
RTVSPost2010Prop39
140
1.0
102
RTVSPost2010PropOp39
 70
     1
102
RTVSPost2010Prop40
 90
        0
102
RTVSPost2010PropOp40
 70
     1
102
RTVSPost2010Prop41ColorIndex
 90
       18
102
RTVSPost2010Prop41ColorRGB
 90
        0
102
RTVSPost2010PropOp41
 70
     1
102
RTVSPost2010Prop42
 90
       50
102
RTVSPost2010PropOp42
 70
     1
102
RTVSPost2010Prop43
 90
        3
102
RTVSPost2010PropOp43
 70
     1
102
RTVSPost2010Prop44ColorIndex
 90
        5
102
RTVSPost2010Prop44ColorRGB
 90
      255
102
RTVSPost2010PropOp44
 70
     1
102
RTVSPost2010Prop45
280
     0
102
RTVSPost2010PropOp45
 70
     1
102
RTVSPost2010Prop46
 90
       50
102
RTVSPost2010PropOp46
 70
     1
102
RTVSPost2010Prop47
 90
       50
102
RTVSPost2010PropOp47
 70
     1
102
RTVSPost2010Prop48
 90
       50
102
RTVSPost2010PropOp48
 70
     1
102
RTVSPost2010Prop49
280
     0
102
RTVSPost2010PropOp49
 70
     1
102
RTVSPost2010Prop50
 90
       50
102
RTVSPost2010PropOp50
 70
     1
102
RTVSPost2010Prop51ColorIndex
 90
      256
102
RTVSPost2010Prop51ColorRGB
 90
-16777216
102
RTVSPost2010PropOp51
 70
     0
102
RTVSPost2010Prop52
140
1.0
102
RTVSPost2010PropOp52
 70
     0
102
RTVSPost2010Prop53
 90
        2
102
RTVSPost2010PropOp53
 70
     1
102
RTVSPost2010Prop54
  1
strokes_ogs.tif
102
RTVSPost2010PropOp54
 70
     1
102
RTVSPost2010Prop55
280
     0
102
RTVSPost2010PropOp55
 70
     1
102
RTVSPost2010Prop56
140
1.0
102
RTVSPost2010PropOp56
 70
     1
102
RTVSPost2010Prop57
140
1.0
102
RTVSPost2010PropOp57
 70
     1
  0
XRECORD
  5
169
102
{ACAD_REACTORS
330
168
102
}
330
168
100
AcDbXrecord
280
     1
102
RTVSPost2010Prop28
280
     0
102
RTVSPost2010PropOp28
 70
     1
102
RTVSPost2010Prop29
280
     1
102
RTVSPost2010PropOp29
 70
     1
102
RTVSPost2010Prop30
280
     1
102
RTVSPost2010PropOp30
 70
     1
102
RTVSPost2010Prop31
280
     0
102
RTVSPost2010PropOp31
 70
     1
102
RTVSPost2010Prop32
280
     0
102
RTVSPost2010PropOp32
 70
     1
102
RTVSPost2010Prop33
280
     0
102
RTVSPost2010PropOp33
 70
     1
102
RTVSPost2010Prop34
280
     0
102
RTVSPost2010PropOp34
 70
     1
102
RTVSPost2010Prop35
280
     0
102
RTVSPost2010PropOp35
 70
     1
102
RTVSPost2010Prop36
280
     0
102
RTVSPost2010PropOp36
 70
     1
102
RTVSPost2010Prop37
 90
       50
102
RTVSPost2010PropOp37
 70
     1
102
RTVSPost2010Prop38
140
0.0
102
RTVSPost2010PropOp38
 70
     1
102
RTVSPost2010Prop39
140
1.0
102
RTVSPost2010PropOp39
 70
     1
102
RTVSPost2010Prop40
 90
        0
102
RTVSPost2010PropOp40
 70
     1
102
RTVSPost2010Prop41ColorIndex
 90
       18
102
RTVSPost2010Prop41ColorRGB
 90
        0
102
RTVSPost2010PropOp41
 70
     1
102
RTVSPost2010Prop42
 90
       50
102
RTVSPost2010PropOp42
 70
     1
102
RTVSPost2010Prop43
 90
        3
102
RTVSPost2010PropOp43
 70
     1
102
RTVSPost2010Prop44ColorIndex
 90
        5
102
RTVSPost2010Prop44ColorRGB
 90
      255
102
RTVSPost2010PropOp44
 70
     1
102
RTVSPost2010Prop45
280
     0
102
RTVSPost2010PropOp45
 70
     1
102
RTVSPost2010Prop46
 90
       50
102
RTVSPost2010PropOp46
 70
     1
102
RTVSPost2010Prop47
 90
       50
102
RTVSPost2010PropOp47
 70
     1
102
RTVSPost2010Prop48
 90
       50
102
RTVSPost2010PropOp48
 70
     1
102
RTVSPost2010Prop49
280
     0
102
RTVSPost2010PropOp49
 70
     1
102
RTVSPost2010Prop50
 90
       50
102
RTVSPost2010PropOp50
 70
     1
102
RTVSPost2010Prop51ColorIndex
 90
      256
102
RTVSPost2010Prop51ColorRGB
 90
-16777216
102
RTVSPost2010PropOp51
 70
     0
102
RTVSPost2010Prop52
140
1.0
102
RTVSPost2010PropOp52
 70
     0
102
RTVSPost2010Prop53
 90
        2
102
RTVSPost2010PropOp53
 70
     1
102
RTVSPost2010Prop54
  1
strokes_ogs.tif
102
RTVSPost2010PropOp54
 70
     1
102
RTVSPost2010Prop55
280
     0
102
RTVSPost2010PropOp55
 70
     1
102
RTVSPost2010Prop56
140
1.0
102
RTVSPost2010PropOp56
 70
     1
102
RTVSPost2010Prop57
140
1.0
102
RTVSPost2010PropOp57
 70
     1
  0
XRECORD
  5
16B
102
{ACAD_REACTORS
330
16A
102
}
330
16A
100
AcDbXrecord
280
     1
102
RTVSPost2010Prop28
280
     0
102
RTVSPost2010PropOp28
 70
     1
102
RTVSPost2010Prop29
280
     1
102
RTVSPost2010PropOp29
 70
     1
102
RTVSPost2010Prop30
280
     1
102
RTVSPost2010PropOp30
 70
     1
102
RTVSPost2010Prop31
280
     0
102
RTVSPost2010PropOp31
 70
     1
102
RTVSPost2010Prop32
280
     0
102
RTVSPost2010PropOp32
 70
     1
102
RTVSPost2010Prop33
280
     0
102
RTVSPost2010PropOp33
 70
     1
102
RTVSPost2010Prop34
280
     0
102
RTVSPost2010PropOp34
 70
     1
102
RTVSPost2010Prop35
280
     0
102
RTVSPost2010PropOp35
 70
     1
102
RTVSPost2010Prop36
280
     0
102
RTVSPost2010PropOp36
 70
     1
102
RTVSPost2010Prop37
 90
       50
102
RTVSPost2010PropOp37
 70
     1
102
RTVSPost2010Prop38
140
0.0
102
RTVSPost2010PropOp38
 70
     1
102
RTVSPost2010Prop39
140
1.0
102
RTVSPost2010PropOp39
 70
     1
102
RTVSPost2010Prop40
 90
        0
102
RTVSPost2010PropOp40
 70
     1
102
RTVSPost2010Prop41ColorIndex
 90
       18
102
RTVSPost2010Prop41ColorRGB
 90
        0
102
RTVSPost2010PropOp41
 70
     1
102
RTVSPost2010Prop42
 90
       50
102
RTVSPost2010PropOp42
 70
     1
102
RTVSPost2010Prop43
 90
        3
102
RTVSPost2010PropOp43
 70
     1
102
RTVSPost2010Prop44ColorIndex
 90
        5
102
RTVSPost2010Prop44ColorRGB
 90
      255
102
RTVSPost2010PropOp44
 70
     1
102
RTVSPost2010Prop45
280
     0
102
RTVSPost2010PropOp45
 70
     1
102
RTVSPost2010Prop46
 90
       50
102
RTVSPost2010PropOp46
 70
     1
102
RTVSPost2010Prop47
 90
       50
102
RTVSPost2010PropOp47
 70
     1
102
RTVSPost2010Prop48
 90
       50
102
RTVSPost2010PropOp48
 70
     1
102
RTVSPost2010Prop49
280
     0
102
RTVSPost2010PropOp49
 70
     1
102
RTVSPost2010Prop50
 90
       50
102
RTVSPost2010PropOp50
 70
     1
102
RTVSPost2010Prop51ColorIndex
 90
      256
102
RTVSPost2010Prop51ColorRGB
 90
-16777216
102
RTVSPost2010PropOp51
 70
     0
102
RTVSPost2010Prop52
140
1.0
102
RTVSPost2010PropOp52
 70
     0
102
RTVSPost2010Prop53
 90
        2
102
RTVSPost2010PropOp53
 70
     1
102
RTVSPost2010Prop54
  1
strokes_ogs.tif
102
RTVSPost2010PropOp54
 70
     1
102
RTVSPost2010Prop55
280
     0
102
RTVSPost2010PropOp55
 70
     1
102
RTVSPost2010Prop56
140
1.0
102
RTVSPost2010PropOp56
 70
     1
102
RTVSPost2010Prop57
140
1.0
102
RTVSPost2010PropOp57
 70
     1
  0
XRECORD
  5
173
102
{ACAD_REACTORS
330
172
102
}
330
172
100
AcDbXrecord
280
     1
102
RTVSPost2010Prop28
280
     0
102
RTVSPost2010PropOp28
 70
     1
102
RTVSPost2010Prop29
280
     1
102
RTVSPost2010PropOp29
 70
     1
102
RTVSPost2010Prop30
280
     1
102
RTVSPost2010PropOp30
 70
     1
102
RTVSPost2010Prop31
280
     0
102
RTVSPost2010PropOp31
 70
     1
102
RTVSPost2010Prop32
280
     0
102
RTVSPost2010PropOp32
 70
     1
102
RTVSPost2010Prop33
280
     0
102
RTVSPost2010PropOp33
 70
     1
102
RTVSPost2010Prop34
280
     0
102
RTVSPost2010PropOp34
 70
     1
102
RTVSPost2010Prop35
280
     0
102
RTVSPost2010PropOp35
 70
     1
102
RTVSPost2010Prop36
280
     0
102
RTVSPost2010PropOp36
 70
     1
102
RTVSPost2010Prop37
 90
       50
102
RTVSPost2010PropOp37
 70
     1
102
RTVSPost2010Prop38
140
0.0
102
RTVSPost2010PropOp38
 70
     1
102
RTVSPost2010Prop39
140
1.0
102
RTVSPost2010PropOp39
 70
     1
102
RTVSPost2010Prop40
 90
        0
102
RTVSPost2010PropOp40
 70
     1
102
RTVSPost2010Prop41ColorIndex
 90
       18
102
RTVSPost2010Prop41ColorRGB
 90
        0
102
RTVSPost2010PropOp41
 70
     1
102
RTVSPost2010Prop42
 90
       50
102
RTVSPost2010PropOp42
 70
     1
102
RTVSPost2010Prop43
 90
        3
102
RTVSPost2010PropOp43
 70
     1
102
RTVSPost2010Prop44ColorIndex
 90
        5
102
RTVSPost2010Prop44ColorRGB
 90
      255
102
RTVSPost2010PropOp44
 70
     1
102
RTVSPost2010Prop45
280
     0
102
RTVSPost2010PropOp45
 70
     1
102
RTVSPost2010Prop46
 90
       50
102
RTVSPost2010PropOp46
 70
     1
102
RTVSPost2010Prop47
 90
       50
102
RTVSPost2010PropOp47
 70
     1
102
RTVSPost2010Prop48
 90
       50
102
RTVSPost2010PropOp48
 70
     1
102
RTVSPost2010Prop49
280
     0
102
RTVSPost2010PropOp49
 70
     1
102
RTVSPost2010Prop50
 90
       50
102
RTVSPost2010PropOp50
 70
     1
102
RTVSPost2010Prop51ColorIndex
 90
      256
102
RTVSPost2010Prop51ColorRGB
 90
-16777216
102
RTVSPost2010PropOp51
 70
     0
102
RTVSPost2010Prop52
140
1.0
102
RTVSPost2010PropOp52
 70
     0
102
RTVSPost2010Prop53
 90
        2
102
RTVSPost2010PropOp53
 70
     1
102
RTVSPost2010Prop54
  1
strokes_ogs.tif
102
RTVSPost2010PropOp54
 70
     1
102
RTVSPost2010Prop55
280
     0
102
RTVSPost2010PropOp55
 70
     1
102
RTVSPost2010Prop56
140
1.0
102
RTVSPost2010PropOp56
 70
     1
102
RTVSPost2010Prop57
140
1.0
102
RTVSPost2010PropOp57
 70
     1
  0
XRECORD
  5
18F
102
{ACAD_REACTORS
330
18E
102
}
330
18E
100
AcDbXrecord
280
     1
102
RTVSPost2010Prop28
280
     0
102
RTVSPost2010PropOp28
 70
     0
102
RTVSPost2010Prop29
280
     1
102
RTVSPost2010PropOp29
 70
     0
102
RTVSPost2010Prop30
280
     1
102
RTVSPost2010PropOp30
 70
     0
102
RTVSPost2010Prop31
280
     0
102
RTVSPost2010PropOp31
 70
     0
102
RTVSPost2010Prop32
280
     0
102
RTVSPost2010PropOp32
 70
     0
102
RTVSPost2010Prop33
280
     0
102
RTVSPost2010PropOp33
 70
     0
102
RTVSPost2010Prop34
280
     0
102
RTVSPost2010PropOp34
 70
     0
102
RTVSPost2010Prop35
280
     0
102
RTVSPost2010PropOp35
 70
     0
102
RTVSPost2010Prop36
280
     0
102
RTVSPost2010PropOp36
 70
     0
102
RTVSPost2010Prop37
 90
       50
102
RTVSPost2010PropOp37
 70
     0
102
RTVSPost2010Prop38
140
0.0
102
RTVSPost2010PropOp38
 70
     0
102
RTVSPost2010Prop39
140
1.0
102
RTVSPost2010PropOp39
 70
     0
102
RTVSPost2010Prop40
 90
        0
102
RTVSPost2010PropOp40
 70
     0
102
RTVSPost2010Prop41ColorIndex
 90
       18
102
RTVSPost2010Prop41ColorRGB
 90
        0
102
RTVSPost2010PropOp41
 70
     0
102
RTVSPost2010Prop42
 90
       50
102
RTVSPost2010PropOp42
 70
     0
102
RTVSPost2010Prop43
 90
        3
102
RTVSPost2010PropOp43
 70
     0
102
RTVSPost2010Prop44ColorIndex
 90
        5
102
RTVSPost2010Prop44ColorRGB
 90
      255
102
RTVSPost2010PropOp44
 70
     0
102
RTVSPost2010Prop45
280
     0
102
RTVSPost2010PropOp45
 70
     0
102
RTVSPost2010Prop46
 90
       50
102
RTVSPost2010PropOp46
 70
     0
102
RTVSPost2010Prop47
 90
       50
102
RTVSPost2010PropOp47
 70
     0
102
RTVSPost2010Prop48
 90
       50
102
RTVSPost2010PropOp48
 70
     0
102
RTVSPost2010Prop49
280
     0
102
RTVSPost2010PropOp49
 70
     0
102
RTVSPost2010Prop50
 90
       50
102
RTVSPost2010PropOp50
 70
     0
102
RTVSPost2010Prop51ColorIndex
 90
      256
102
RTVSPost2010Prop51ColorRGB
 90
-16777216
102
RTVSPost2010PropOp51
 70
     0
102
RTVSPost2010Prop52
140
1.0
102
RTVSPost2010PropOp52
 70
     0
102
RTVSPost2010Prop53
 90
        2
102
RTVSPost2010PropOp53
 70
     0
102
RTVSPost2010Prop54
  1
strokes_ogs.tif
102
RTVSPost2010PropOp54
 70
     0
102
RTVSPost2010Prop55
280
     0
102
RTVSPost2010PropOp55
 70
     0
102
RTVSPost2010Prop56
140
1.0
102
RTVSPost2010PropOp56
 70
     0
102
RTVSPost2010Prop57
140
1.0
102
RTVSPost2010PropOp57
 70
     0
  0
XRECORD
  5
17F
102
{ACAD_REACTORS
330
17E
102
}
330
17E
100
AcDbXrecord
280
     1
102
RTVSPost2010Prop28
280
     0
102
RTVSPost2010PropOp28
 70
     1
102
RTVSPost2010Prop29
280
     1
102
RTVSPost2010PropOp29
 70
     1
102
RTVSPost2010Prop30
280
     1
102
RTVSPost2010PropOp30
 70
     1
102
RTVSPost2010Prop31
280
     0
102
RTVSPost2010PropOp31
 70
     1
102
RTVSPost2010Prop32
280
     0
102
RTVSPost2010PropOp32
 70
     1
102
RTVSPost2010Prop33
280
     0
102
RTVSPost2010PropOp33
 70
     1
102
RTVSPost2010Prop34
280
     0
102
RTVSPost2010PropOp34
 70
     1
102
RTVSPost2010Prop35
280
     0
102
RTVSPost2010PropOp35
 70
     1
102
RTVSPost2010Prop36
280
     0
102
RTVSPost2010PropOp36
 70
     1
102
RTVSPost2010Prop37
 90
       50
102
RTVSPost2010PropOp37
 70
     1
102
RTVSPost2010Prop38
140
0.0
102
RTVSPost2010PropOp38
 70
     1
102
RTVSPost2010Prop39
140
1.0
102
RTVSPost2010PropOp39
 70
     1
102
RTVSPost2010Prop40
 90
        0
102
RTVSPost2010PropOp40
 70
     1
102
RTVSPost2010Prop41ColorIndex
 90
       18
102
RTVSPost2010Prop41ColorRGB
 90
        0
102
RTVSPost2010PropOp41
 70
     1
102
RTVSPost2010Prop42
 90
       50
102
RTVSPost2010PropOp42
 70
     1
102
RTVSPost2010Prop43
 90
        3
102
RTVSPost2010PropOp43
 70
     1
102
RTVSPost2010Prop44ColorIndex
 90
        5
102
RTVSPost2010Prop44ColorRGB
 90
      255
102
RTVSPost2010PropOp44
 70
     1
102
RTVSPost2010Prop45
280
     0
102
RTVSPost2010PropOp45
 70
     1
102
RTVSPost2010Prop46
 90
       50
102
RTVSPost2010PropOp46
 70
     1
102
RTVSPost2010Prop47
 90
       50
102
RTVSPost2010PropOp47
 70
     1
102
RTVSPost2010Prop48
 90
       50
102
RTVSPost2010PropOp48
 70
     1
102
RTVSPost2010Prop49
280
     0
102
RTVSPost2010PropOp49
 70
     1
102
RTVSPost2010Prop50
 90
       50
102
RTVSPost2010PropOp50
 70
     1
102
RTVSPost2010Prop51ColorIndex
 90
      256
102
RTVSPost2010Prop51ColorRGB
 90
-16777216
102
RTVSPost2010PropOp51
 70
     0
102
RTVSPost2010Prop52
140
1.0
102
RTVSPost2010PropOp52
 70
     0
102
RTVSPost2010Prop53
 90
        2
102
RTVSPost2010PropOp53
 70
     1
102
RTVSPost2010Prop54
  1
strokes_ogs.tif
102
RTVSPost2010PropOp54
 70
     1
102
RTVSPost2010Prop55
280
     0
102
RTVSPost2010PropOp55
 70
     1
102
RTVSPost2010Prop56
140
1.0
102
RTVSPost2010PropOp56
 70
     1
102
RTVSPost2010Prop57
140
1.0
102
RTVSPost2010PropOp57
 70
     1
  0
XRECORD
  5
191
102
{ACAD_REACTORS
330
190
102
}
330
190
100
AcDbXrecord
280
     1
102
RTVSPost2010Prop28
280
     0
102
RTVSPost2010PropOp28
 70
     0
102
RTVSPost2010Prop29
280
     1
102
RTVSPost2010PropOp29
 70
     0
102
RTVSPost2010Prop30
280
     1
102
RTVSPost2010PropOp30
 70
     0
102
RTVSPost2010Prop31
280
     0
102
RTVSPost2010PropOp31
 70
     0
102
RTVSPost2010Prop32
280
     0
102
RTVSPost2010PropOp32
 70
     0
102
RTVSPost2010Prop33
280
     0
102
RTVSPost2010PropOp33
 70
     0
102
RTVSPost2010Prop34
280
     0
102
RTVSPost2010PropOp34
 70
     0
102
RTVSPost2010Prop35
280
     0
102
RTVSPost2010PropOp35
 70
     0
102
RTVSPost2010Prop36
280
     0
102
RTVSPost2010PropOp36
 70
     0
102
RTVSPost2010Prop37
 90
       50
102
RTVSPost2010PropOp37
 70
     0
102
RTVSPost2010Prop38
140
0.0
102
RTVSPost2010PropOp38
 70
     0
102
RTVSPost2010Prop39
140
1.0
102
RTVSPost2010PropOp39
 70
     0
102
RTVSPost2010Prop40
 90
        0
102
RTVSPost2010PropOp40
 70
     0
102
RTVSPost2010Prop41ColorIndex
 90
       18
102
RTVSPost2010Prop41ColorRGB
 90
        0
102
RTVSPost2010PropOp41
 70
     0
102
RTVSPost2010Prop42
 90
       50
102
RTVSPost2010PropOp42
 70
     0
102
RTVSPost2010Prop43
 90
        3
102
RTVSPost2010PropOp43
 70
     0
102
RTVSPost2010Prop44ColorIndex
 90
        5
102
RTVSPost2010Prop44ColorRGB
 90
      255
102
RTVSPost2010PropOp44
 70
     0
102
RTVSPost2010Prop45
280
     0
102
RTVSPost2010PropOp45
 70
     0
102
RTVSPost2010Prop46
 90
       50
102
RTVSPost2010PropOp46
 70
     0
102
RTVSPost2010Prop47
 90
       50
102
RTVSPost2010PropOp47
 70
     0
102
RTVSPost2010Prop48
 90
       50
102
RTVSPost2010PropOp48
 70
     0
102
RTVSPost2010Prop49
280
     0
102
RTVSPost2010PropOp49
 70
     0
102
RTVSPost2010Prop50
 90
       50
102
RTVSPost2010PropOp50
 70
     0
102
RTVSPost2010Prop51ColorIndex
 90
      256
102
RTVSPost2010Prop51ColorRGB
 90
-16777216
102
RTVSPost2010PropOp51
 70
     0
102
RTVSPost2010Prop52
140
1.0
102
RTVSPost2010PropOp52
 70
     0
102
RTVSPost2010Prop53
 90
        2
102
RTVSPost2010PropOp53
 70
     0
102
RTVSPost2010Prop54
  1
strokes_ogs.tif
102
RTVSPost2010PropOp54
 70
     0
102
RTVSPost2010Prop55
280
     0
102
RTVSPost2010PropOp55
 70
     0
102
RTVSPost2010Prop56
140
1.0
102
RTVSPost2010PropOp56
 70
     0
102
RTVSPost2010Prop57
140
1.0
102
RTVSPost2010PropOp57
 70
     0
  0
XRECORD
  5
177
102
{ACAD_REACTORS
330
176
102
}
330
176
100
AcDbXrecord
280
     1
102
RTVSPost2010Prop28
280
     0
102
RTVSPost2010PropOp28
 70
     1
102
RTVSPost2010Prop29
280
     1
102
RTVSPost2010PropOp29
 70
     1
102
RTVSPost2010Prop30
280
     1
102
RTVSPost2010PropOp30
 70
     1
102
RTVSPost2010Prop31
280
     0
102
RTVSPost2010PropOp31
 70
     1
102
RTVSPost2010Prop32
280
     0
102
RTVSPost2010PropOp32
 70
     1
102
RTVSPost2010Prop33
280
     0
102
RTVSPost2010PropOp33
 70
     1
102
RTVSPost2010Prop34
280
     0
102
RTVSPost2010PropOp34
 70
     1
102
RTVSPost2010Prop35
280
     0
102
RTVSPost2010PropOp35
 70
     1
102
RTVSPost2010Prop36
280
     0
102
RTVSPost2010PropOp36
 70
     1
102
RTVSPost2010Prop37
 90
       50
102
RTVSPost2010PropOp37
 70
     1
102
RTVSPost2010Prop38
140
0.0
102
RTVSPost2010PropOp38
 70
     1
102
RTVSPost2010Prop39
140
1.0
102
RTVSPost2010PropOp39
 70
     1
102
RTVSPost2010Prop40
 90
        0
102
RTVSPost2010PropOp40
 70
     1
102
RTVSPost2010Prop41ColorIndex
 90
       18
102
RTVSPost2010Prop41ColorRGB
 90
        0
102
RTVSPost2010PropOp41
 70
     1
102
RTVSPost2010Prop42
 90
       50
102
RTVSPost2010PropOp42
 70
     1
102
RTVSPost2010Prop43
 90
        3
102
RTVSPost2010PropOp43
 70
     1
102
RTVSPost2010Prop44ColorIndex
 90
        5
102
RTVSPost2010Prop44ColorRGB
 90
      255
102
RTVSPost2010PropOp44
 70
     1
102
RTVSPost2010Prop45
280
     0
102
RTVSPost2010PropOp45
 70
     1
102
RTVSPost2010Prop46
 90
       50
102
RTVSPost2010PropOp46
 70
     1
102
RTVSPost2010Prop47
 90
       50
102
RTVSPost2010PropOp47
 70
     1
102
RTVSPost2010Prop48
 90
       50
102
RTVSPost2010PropOp48
 70
     1
102
RTVSPost2010Prop49
280
     0
102
RTVSPost2010PropOp49
 70
     1
102
RTVSPost2010Prop50
 90
       50
102
RTVSPost2010PropOp50
 70
     1
102
RTVSPost2010Prop51ColorIndex
 90
      256
102
RTVSPost2010Prop51ColorRGB
 90
-16777216
102
RTVSPost2010PropOp51
 70
     0
102
RTVSPost2010Prop52
140
1.0
102
RTVSPost2010PropOp52
 70
     0
102
RTVSPost2010Prop53
 90
        2
102
RTVSPost2010PropOp53
 70
     1
102
RTVSPost2010Prop54
  1
strokes_ogs.tif
102
RTVSPost2010PropOp54
 70
     1
102
RTVSPost2010Prop55
280
     0
102
RTVSPost2010PropOp55
 70
     1
102
RTVSPost2010Prop56
140
1.0
102
RTVSPost2010PropOp56
 70
     1
102
RTVSPost2010Prop57
140
1.0
102
RTVSPost2010PropOp57
 70
     1
  0
XRECORD
  5
18D
102
{ACAD_REACTORS
330
18C
102
}
330
18C
100
AcDbXrecord
280
     1
102
RTVSPost2010Prop28
280
     0
102
RTVSPost2010PropOp28
 70
     1
102
RTVSPost2010Prop29
280
     1
102
RTVSPost2010PropOp29
 70
     1
102
RTVSPost2010Prop30
280
     1
102
RTVSPost2010PropOp30
 70
     1
102
RTVSPost2010Prop31
280
     0
102
RTVSPost2010PropOp31
 70
     1
102
RTVSPost2010Prop32
280
     0
102
RTVSPost2010PropOp32
 70
     1
102
RTVSPost2010Prop33
280
     0
102
RTVSPost2010PropOp33
 70
     1
102
RTVSPost2010Prop34
280
     0
102
RTVSPost2010PropOp34
 70
     1
102
RTVSPost2010Prop35
280
     0
102
RTVSPost2010PropOp35
 70
     1
102
RTVSPost2010Prop36
280
     0
102
RTVSPost2010PropOp36
 70
     1
102
RTVSPost2010Prop37
 90
       50
102
RTVSPost2010PropOp37
 70
     1
102
RTVSPost2010Prop38
140
0.0
102
RTVSPost2010PropOp38
 70
     1
102
RTVSPost2010Prop39
140
1.0
102
RTVSPost2010PropOp39
 70
     1
102
RTVSPost2010Prop40
 90
        0
102
RTVSPost2010PropOp40
 70
     1
102
RTVSPost2010Prop41ColorIndex
 90
       18
102
RTVSPost2010Prop41ColorRGB
 90
        0
102
RTVSPost2010PropOp41
 70
     1
102
RTVSPost2010Prop42
 90
       50
102
RTVSPost2010PropOp42
 70
     1
102
RTVSPost2010Prop43
 90
        3
102
RTVSPost2010PropOp43
 70
     1
102
RTVSPost2010Prop44ColorIndex
 90
        5
102
RTVSPost2010Prop44ColorRGB
 90
      255
102
RTVSPost2010PropOp44
 70
     1
102
RTVSPost2010Prop45
280
     0
102
RTVSPost2010PropOp45
 70
     1
102
RTVSPost2010Prop46
 90
       50
102
RTVSPost2010PropOp46
 70
     1
102
RTVSPost2010Prop47
 90
       50
102
RTVSPost2010PropOp47
 70
     1
102
RTVSPost2010Prop48
 90
       50
102
RTVSPost2010PropOp48
 70
     1
102
RTVSPost2010Prop49
280
     0
102
RTVSPost2010PropOp49
 70
     1
102
RTVSPost2010Prop50
 90
       50
102
RTVSPost2010PropOp50
 70
     1
102
RTVSPost2010Prop51ColorIndex
 90
      256
102
RTVSPost2010Prop51ColorRGB
 90
-16777216
102
RTVSPost2010PropOp51
 70
     0
102
RTVSPost2010Prop52
140
1.0
102
RTVSPost2010PropOp52
 70
     0
102
RTVSPost2010Prop53
 90
        2
102
RTVSPost2010PropOp53
 70
     1
102
RTVSPost2010Prop54
  1
strokes_ogs.tif
102
RTVSPost2010PropOp54
 70
     1
102
RTVSPost2010Prop55
280
     0
102
RTVSPost2010PropOp55
 70
     1
102
RTVSPost2010Prop56
140
1.0
102
RTVSPost2010PropOp56
 70
     1
102
RTVSPost2010Prop57
140
1.0
102
RTVSPost2010PropOp57
 70
     1
  0
XRECORD
  5
18B
102
{ACAD_REACTORS
330
18A
102
}
330
18A
100
AcDbXrecord
280
     1
102
RTVSPost2010Prop28
280
     0
102
RTVSPost2010PropOp28
 70
     1
102
RTVSPost2010Prop29
280
     1
102
RTVSPost2010PropOp29
 70
     1
102
RTVSPost2010Prop30
280
     1
102
RTVSPost2010PropOp30
 70
     1
102
RTVSPost2010Prop31
280
     0
102
RTVSPost2010PropOp31
 70
     1
102
RTVSPost2010Prop32
280
     0
102
RTVSPost2010PropOp32
 70
     1
102
RTVSPost2010Prop33
280
     0
102
RTVSPost2010PropOp33
 70
     1
102
RTVSPost2010Prop34
280
     0
102
RTVSPost2010PropOp34
 70
     1
102
RTVSPost2010Prop35
280
     0
102
RTVSPost2010PropOp35
 70
     1
102
RTVSPost2010Prop36
280
     0
102
RTVSPost2010PropOp36
 70
     1
102
RTVSPost2010Prop37
 90
       50
102
RTVSPost2010PropOp37
 70
     1
102
RTVSPost2010Prop38
140
0.0
102
RTVSPost2010PropOp38
 70
     1
102
RTVSPost2010Prop39
140
1.0
102
RTVSPost2010PropOp39
 70
     1
102
RTVSPost2010Prop40
 90
        0
102
RTVSPost2010PropOp40
 70
     1
102
RTVSPost2010Prop41ColorIndex
 90
       18
102
RTVSPost2010Prop41ColorRGB
 90
        0
102
RTVSPost2010PropOp41
 70
     1
102
RTVSPost2010Prop42
 90
       50
102
RTVSPost2010PropOp42
 70
     1
102
RTVSPost2010Prop43
 90
        3
102
RTVSPost2010PropOp43
 70
     1
102
RTVSPost2010Prop44ColorIndex
 90
        5
102
RTVSPost2010Prop44ColorRGB
 90
      255
102
RTVSPost2010PropOp44
 70
     1
102
RTVSPost2010Prop45
280
     0
102
RTVSPost2010PropOp45
 70
     1
102
RTVSPost2010Prop46
 90
       50
102
RTVSPost2010PropOp46
 70
     1
102
RTVSPost2010Prop47
 90
       50
102
RTVSPost2010PropOp47
 70
     1
102
RTVSPost2010Prop48
 90
       50
102
RTVSPost2010PropOp48
 70
     1
102
RTVSPost2010Prop49
280
     0
102
RTVSPost2010PropOp49
 70
     1
102
RTVSPost2010Prop50
 90
       50
102
RTVSPost2010PropOp50
 70
     1
102
RTVSPost2010Prop51ColorIndex
 90
      256
102
RTVSPost2010Prop51ColorRGB
 90
-16777216
102
RTVSPost2010PropOp51
 70
     0
102
RTVSPost2010Prop52
140
1.0
102
RTVSPost2010PropOp52
 70
     0
102
RTVSPost2010Prop53
 90
        2
102
RTVSPost2010PropOp53
 70
     1
102
RTVSPost2010Prop54
  1
strokes_ogs.tif
102
RTVSPost2010PropOp54
 70
     1
102
RTVSPost2010Prop55
280
     0
102
RTVSPost2010PropOp55
 70
     1
102
RTVSPost2010Prop56
140
1.0
102
RTVSPost2010PropOp56
 70
     1
102
RTVSPost2010Prop57
140
1.0
102
RTVSPost2010PropOp57
 70
     1
  0
XRECORD
  5
185
102
{ACAD_REACTORS
330
184
102
}
330
184
100
AcDbXrecord
280
     1
102
RTVSPost2010Prop28
280
     0
102
RTVSPost2010PropOp28
 70
     1
102
RTVSPost2010Prop29
280
     1
102
RTVSPost2010PropOp29
 70
     1
102
RTVSPost2010Prop30
280
     1
102
RTVSPost2010PropOp30
 70
     1
102
RTVSPost2010Prop31
280
     0
102
RTVSPost2010PropOp31
 70
     1
102
RTVSPost2010Prop32
280
     0
102
RTVSPost2010PropOp32
 70
     1
102
RTVSPost2010Prop33
280
     0
102
RTVSPost2010PropOp33
 70
     1
102
RTVSPost2010Prop34
280
     0
102
RTVSPost2010PropOp34
 70
     1
102
RTVSPost2010Prop35
280
     0
102
RTVSPost2010PropOp35
 70
     1
102
RTVSPost2010Prop36
280
     0
102
RTVSPost2010PropOp36
 70
     1
102
RTVSPost2010Prop37
 90
       50
102
RTVSPost2010PropOp37
 70
     1
102
RTVSPost2010Prop38
140
0.0
102
RTVSPost2010PropOp38
 70
     1
102
RTVSPost2010Prop39
140
1.0
102
RTVSPost2010PropOp39
 70
     1
102
RTVSPost2010Prop40
 90
        0
102
RTVSPost2010PropOp40
 70
     1
102
RTVSPost2010Prop41ColorIndex
 90
       18
102
RTVSPost2010Prop41ColorRGB
 90
        0
102
RTVSPost2010PropOp41
 70
     1
102
RTVSPost2010Prop42
 90
       50
102
RTVSPost2010PropOp42
 70
     1
102
RTVSPost2010Prop43
 90
        3
102
RTVSPost2010PropOp43
 70
     1
102
RTVSPost2010Prop44ColorIndex
 90
        5
102
RTVSPost2010Prop44ColorRGB
 90
      255
102
RTVSPost2010PropOp44
 70
     1
102
RTVSPost2010Prop45
280
     0
102
RTVSPost2010PropOp45
 70
     1
102
RTVSPost2010Prop46
 90
       50
102
RTVSPost2010PropOp46
 70
     1
102
RTVSPost2010Prop47
 90
       50
102
RTVSPost2010PropOp47
 70
     1
102
RTVSPost2010Prop48
 90
       50
102
RTVSPost2010PropOp48
 70
     1
102
RTVSPost2010Prop49
280
     0
102
RTVSPost2010PropOp49
 70
     1
102
RTVSPost2010Prop50
 90
       50
102
RTVSPost2010PropOp50
 70
     1
102
RTVSPost2010Prop51ColorIndex
 90
      256
102
RTVSPost2010Prop51ColorRGB
 90
-16777216
102
RTVSPost2010PropOp51
 70
     0
102
RTVSPost2010Prop52
140
1.0
102
RTVSPost2010PropOp52
 70
     0
102
RTVSPost2010Prop53
 90
        2
102
RTVSPost2010PropOp53
 70
     1
102
RTVSPost2010Prop54
  1
strokes_ogs.tif
102
RTVSPost2010PropOp54
 70
     1
102
RTVSPost2010Prop55
280
     0
102
RTVSPost2010PropOp55
 70
     1
102
RTVSPost2010Prop56
140
1.0
102
RTVSPost2010PropOp56
 70
     1
102
RTVSPost2010Prop57
140
1.0
102
RTVSPost2010PropOp57
 70
     1
  0
XRECORD
  5
187
102
{ACAD_REACTORS
330
186
102
}
330
186
100
AcDbXrecord
280
     1
102
RTVSPost2010Prop28
280
     0
102
RTVSPost2010PropOp28
 70
     1
102
RTVSPost2010Prop29
280
     1
102
RTVSPost2010PropOp29
 70
     1
102
RTVSPost2010Prop30
280
     1
102
RTVSPost2010PropOp30
 70
     1
102
RTVSPost2010Prop31
280
     0
102
RTVSPost2010PropOp31
 70
     1
102
RTVSPost2010Prop32
280
     0
102
RTVSPost2010PropOp32
 70
     1
102
RTVSPost2010Prop33
280
     0
102
RTVSPost2010PropOp33
 70
     1
102
RTVSPost2010Prop34
280
     0
102
RTVSPost2010PropOp34
 70
     1
102
RTVSPost2010Prop35
280
     0
102
RTVSPost2010PropOp35
 70
     1
102
RTVSPost2010Prop36
280
     0
102
RTVSPost2010PropOp36
 70
     1
102
RTVSPost2010Prop37
 90
       50
102
RTVSPost2010PropOp37
 70
     1
102
RTVSPost2010Prop38
140
0.0
102
RTVSPost2010PropOp38
 70
     1
102
RTVSPost2010Prop39
140
1.0
102
RTVSPost2010PropOp39
 70
     1
102
RTVSPost2010Prop40
 90
        0
102
RTVSPost2010PropOp40
 70
     1
102
RTVSPost2010Prop41ColorIndex
 90
       18
102
RTVSPost2010Prop41ColorRGB
 90
        0
102
RTVSPost2010PropOp41
 70
     1
102
RTVSPost2010Prop42
 90
       50
102
RTVSPost2010PropOp42
 70
     1
102
RTVSPost2010Prop43
 90
        3
102
RTVSPost2010PropOp43
 70
     1
102
RTVSPost2010Prop44ColorIndex
 90
        5
102
RTVSPost2010Prop44ColorRGB
 90
      255
102
RTVSPost2010PropOp44
 70
     1
102
RTVSPost2010Prop45
280
     0
102
RTVSPost2010PropOp45
 70
     1
102
RTVSPost2010Prop46
 90
       50
102
RTVSPost2010PropOp46
 70
     1
102
RTVSPost2010Prop47
 90
       50
102
RTVSPost2010PropOp47
 70
     1
102
RTVSPost2010Prop48
 90
       50
102
RTVSPost2010PropOp48
 70
     1
102
RTVSPost2010Prop49
280
     0
102
RTVSPost2010PropOp49
 70
     1
102
RTVSPost2010Prop50
 90
       50
102
RTVSPost2010PropOp50
 70
     1
102
RTVSPost2010Prop51ColorIndex
 90
      256
102
RTVSPost2010Prop51ColorRGB
 90
-16777216
102
RTVSPost2010PropOp51
 70
     0
102
RTVSPost2010Prop52
140
1.0
102
RTVSPost2010PropOp52
 70
     0
102
RTVSPost2010Prop53
 90
        2
102
RTVSPost2010PropOp53
 70
     1
102
RTVSPost2010Prop54
  1
strokes_ogs.tif
102
RTVSPost2010PropOp54
 70
     1
102
RTVSPost2010Prop55
280
     0
102
RTVSPost2010PropOp55
 70
     1
102
RTVSPost2010Prop56
140
1.0
102
RTVSPost2010PropOp56
 70
     1
102
RTVSPost2010Prop57
140
1.0
102
RTVSPost2010PropOp57
 70
     1
  0
XRECORD
  5
17D
102
{ACAD_REACTORS
330
17C
102
}
330
17C
100
AcDbXrecord
280
     1
102
RTVSPost2010Prop28
280
     0
102
RTVSPost2010PropOp28
 70
     1
102
RTVSPost2010Prop29
280
     1
102
RTVSPost2010PropOp29
 70
     1
102
RTVSPost2010Prop30
280
     1
102
RTVSPost2010PropOp30
 70
     1
102
RTVSPost2010Prop31
280
     0
102
RTVSPost2010PropOp31
 70
     1
102
RTVSPost2010Prop32
280
     0
102
RTVSPost2010PropOp32
 70
     1
102
RTVSPost2010Prop33
280
     0
102
RTVSPost2010PropOp33
 70
     1
102
RTVSPost2010Prop34
280
     0
102
RTVSPost2010PropOp34
 70
     1
102
RTVSPost2010Prop35
280
     0
102
RTVSPost2010PropOp35
 70
     1
102
RTVSPost2010Prop36
280
     0
102
RTVSPost2010PropOp36
 70
     1
102
RTVSPost2010Prop37
 90
       50
102
RTVSPost2010PropOp37
 70
     1
102
RTVSPost2010Prop38
140
0.0
102
RTVSPost2010PropOp38
 70
     1
102
RTVSPost2010Prop39
140
1.0
102
RTVSPost2010PropOp39
 70
     1
102
RTVSPost2010Prop40
 90
        0
102
RTVSPost2010PropOp40
 70
     1
102
RTVSPost2010Prop41ColorIndex
 90
       18
102
RTVSPost2010Prop41ColorRGB
 90
        0
102
RTVSPost2010PropOp41
 70
     1
102
RTVSPost2010Prop42
 90
       50
102
RTVSPost2010PropOp42
 70
     1
102
RTVSPost2010Prop43
 90
        3
102
RTVSPost2010PropOp43
 70
     1
102
RTVSPost2010Prop44ColorIndex
 90
        5
102
RTVSPost2010Prop44ColorRGB
 90
      255
102
RTVSPost2010PropOp44
 70
     1
102
RTVSPost2010Prop45
280
     0
102
RTVSPost2010PropOp45
 70
     1
102
RTVSPost2010Prop46
 90
       50
102
RTVSPost2010PropOp46
 70
     1
102
RTVSPost2010Prop47
 90
       50
102
RTVSPost2010PropOp47
 70
     1
102
RTVSPost2010Prop48
 90
       50
102
RTVSPost2010PropOp48
 70
     1
102
RTVSPost2010Prop49
280
     0
102
RTVSPost2010PropOp49
 70
     1
102
RTVSPost2010Prop50
 90
       50
102
RTVSPost2010PropOp50
 70
     1
102
RTVSPost2010Prop51ColorIndex
 90
      256
102
RTVSPost2010Prop51ColorRGB
 90
-16777216
102
RTVSPost2010PropOp51
 70
     0
102
RTVSPost2010Prop52
140
1.0
102
RTVSPost2010PropOp52
 70
     0
102
RTVSPost2010Prop53
 90
        2
102
RTVSPost2010PropOp53
 70
     1
102
RTVSPost2010Prop54
  1
strokes_ogs.tif
102
RTVSPost2010PropOp54
 70
     1
102
RTVSPost2010Prop55
280
     0
102
RTVSPost2010PropOp55
 70
     1
102
RTVSPost2010Prop56
140
1.0
102
RTVSPost2010PropOp56
 70
     1
102
RTVSPost2010Prop57
140
1.0
102
RTVSPost2010PropOp57
 70
     1
  0
XRECORD
  5
171
102
{ACAD_REACTORS
330
170
102
}
330
170
100
AcDbXrecord
280
     1
102
RTVSPost2010Prop28
280
     0
102
RTVSPost2010PropOp28
 70
     1
102
RTVSPost2010Prop29
280
     1
102
RTVSPost2010PropOp29
 70
     1
102
RTVSPost2010Prop30
280
     1
102
RTVSPost2010PropOp30
 70
     1
102
RTVSPost2010Prop31
280
     0
102
RTVSPost2010PropOp31
 70
     1
102
RTVSPost2010Prop32
280
     0
102
RTVSPost2010PropOp32
 70
     1
102
RTVSPost2010Prop33
280
     0
102
RTVSPost2010PropOp33
 70
     1
102
RTVSPost2010Prop34
280
     0
102
RTVSPost2010PropOp34
 70
     1
102
RTVSPost2010Prop35
280
     0
102
RTVSPost2010PropOp35
 70
     1
102
RTVSPost2010Prop36
280
     0
102
RTVSPost2010PropOp36
 70
     1
102
RTVSPost2010Prop37
 90
       50
102
RTVSPost2010PropOp37
 70
     1
102
RTVSPost2010Prop38
140
0.0
102
RTVSPost2010PropOp38
 70
     1
102
RTVSPost2010Prop39
140
1.0
102
RTVSPost2010PropOp39
 70
     1
102
RTVSPost2010Prop40
 90
        0
102
RTVSPost2010PropOp40
 70
     1
102
RTVSPost2010Prop41ColorIndex
 90
       18
102
RTVSPost2010Prop41ColorRGB
 90
        0
102
RTVSPost2010PropOp41
 70
     1
102
RTVSPost2010Prop42
 90
       50
102
RTVSPost2010PropOp42
 70
     1
102
RTVSPost2010Prop43
 90
        3
102
RTVSPost2010PropOp43
 70
     1
102
RTVSPost2010Prop44ColorIndex
 90
        5
102
RTVSPost2010Prop44ColorRGB
 90
      255
102
RTVSPost2010PropOp44
 70
     1
102
RTVSPost2010Prop45
280
     0
102
RTVSPost2010PropOp45
 70
     1
102
RTVSPost2010Prop46
 90
       50
102
RTVSPost2010PropOp46
 70
     1
102
RTVSPost2010Prop47
 90
       50
102
RTVSPost2010PropOp47
 70
     1
102
RTVSPost2010Prop48
 90
       50
102
RTVSPost2010PropOp48
 70
     1
102
RTVSPost2010Prop49
280
     0
102
RTVSPost2010PropOp49
 70
     1
102
RTVSPost2010Prop50
 90
       50
102
RTVSPost2010PropOp50
 70
     1
102
RTVSPost2010Prop51ColorIndex
 90
      256
102
RTVSPost2010Prop51ColorRGB
 90
-16777216
102
RTVSPost2010PropOp51
 70
     0
102
RTVSPost2010Prop52
140
1.0
102
RTVSPost2010PropOp52
 70
     0
102
RTVSPost2010Prop53
 90
        2
102
RTVSPost2010PropOp53
 70
     1
102
RTVSPost2010Prop54
  1
strokes_ogs.tif
102
RTVSPost2010PropOp54
 70
     1
102
RTVSPost2010Prop55
280
     0
102
RTVSPost2010PropOp55
 70
     1
102
RTVSPost2010Prop56
140
1.0
102
RTVSPost2010PropOp56
 70
     1
102
RTVSPost2010Prop57
140
1.0
102
RTVSPost2010PropOp57
 70
     1
  0
XRECORD
  5
189
102
{ACAD_REACTORS
330
188
102
}
330
188
100
AcDbXrecord
280
     1
102
RTVSPost2010Prop28
280
     0
102
RTVSPost2010PropOp28
 70
     1
102
RTVSPost2010Prop29
280
     1
102
RTVSPost2010PropOp29
 70
     1
102
RTVSPost2010Prop30
280
     1
102
RTVSPost2010PropOp30
 70
     1
102
RTVSPost2010Prop31
280
     0
102
RTVSPost2010PropOp31
 70
     1
102
RTVSPost2010Prop32
280
     0
102
RTVSPost2010PropOp32
 70
     1
102
RTVSPost2010Prop33
280
     0
102
RTVSPost2010PropOp33
 70
     1
102
RTVSPost2010Prop34
280
     0
102
RTVSPost2010PropOp34
 70
     1
102
RTVSPost2010Prop35
280
     0
102
RTVSPost2010PropOp35
 70
     1
102
RTVSPost2010Prop36
280
     0
102
RTVSPost2010PropOp36
 70
     1
102
RTVSPost2010Prop37
 90
       50
102
RTVSPost2010PropOp37
 70
     1
102
RTVSPost2010Prop38
140
0.0
102
RTVSPost2010PropOp38
 70
     1
102
RTVSPost2010Prop39
140
1.0
102
RTVSPost2010PropOp39
 70
     1
102
RTVSPost2010Prop40
 90
        0
102
RTVSPost2010PropOp40
 70
     1
102
RTVSPost2010Prop41ColorIndex
 90
       18
102
RTVSPost2010Prop41ColorRGB
 90
        0
102
RTVSPost2010PropOp41
 70
     1
102
RTVSPost2010Prop42
 90
       50
102
RTVSPost2010PropOp42
 70
     1
102
RTVSPost2010Prop43
 90
        3
102
RTVSPost2010PropOp43
 70
     1
102
RTVSPost2010Prop44ColorIndex
 90
        5
102
RTVSPost2010Prop44ColorRGB
 90
      255
102
RTVSPost2010PropOp44
 70
     1
102
RTVSPost2010Prop45
280
     0
102
RTVSPost2010PropOp45
 70
     1
102
RTVSPost2010Prop46
 90
       50
102
RTVSPost2010PropOp46
 70
     1
102
RTVSPost2010Prop47
 90
       50
102
RTVSPost2010PropOp47
 70
     1
102
RTVSPost2010Prop48
 90
       50
102
RTVSPost2010PropOp48
 70
     1
102
RTVSPost2010Prop49
280
     0
102
RTVSPost2010PropOp49
 70
     1
102
RTVSPost2010Prop50
 90
       50
102
RTVSPost2010PropOp50
 70
     1
102
RTVSPost2010Prop51ColorIndex
 90
      256
102
RTVSPost2010Prop51ColorRGB
 90
-16777216
102
RTVSPost2010PropOp51
 70
     0
102
RTVSPost2010Prop52
140
1.0
102
RTVSPost2010PropOp52
 70
     0
102
RTVSPost2010Prop53
 90
        2
102
RTVSPost2010PropOp53
 70
     1
102
RTVSPost2010Prop54
  1
strokes_ogs.tif
102
RTVSPost2010PropOp54
 70
     1
102
RTVSPost2010Prop55
280
     0
102
RTVSPost2010PropOp55
 70
     1
102
RTVSPost2010Prop56
140
1.0
102
RTVSPost2010PropOp56
 70
     1
102
RTVSPost2010Prop57
140
1.0
102
RTVSPost2010PropOp57
 70
     1
  0
ENDSEC
  0
EOF
