  0
SECTION
  2
HEADER
  9
$ACADVER
  1
AC1024
  9
$ACADMAINTVER
 70
   205
  9
$DWGCODEPAGE
  3
ANSI_1251
  9
$INSBASE
 10
0.0
 20
0.0
 30
0.0
  9
$EXTMIN
 10
1.000000000000000E+20
 20
1.000000000000000E+20
 30
1.000000000000000E+20
  9
$EXTMAX
 10
-1.000000000000000E+20
 20
-1.000000000000000E+20
 30
-1.000000000000000E+20
  9
$LIMMIN
 10
0.0
 20
0.0
  9
$LIMMAX
 10
12.0
 20
9.0
  9
$ORTHOMODE
 70
     0
  9
$REGENMODE
 70
     1
  9
$FILLMODE
 70
     1
  9
$QTEXTMODE
 70
     0
  9
$MIRRTEXT
 70
     1
  9
$LTSCALE
 40
1.0
  9
$ATTMODE
 70
     1
  9
$TEXTSIZE
 40
0.2
  9
$TRACEWID
 40
0.05
  9
$TEXTSTYLE
  7
Standard
  9
$CLAYER
  8
OracDecor_decorative_elements
  9
$CELTYPE
  6
ByLayer
  9
$CECOLOR
 62
   256
  9
$CELTSCALE
 40
1.0
  9
$DISPSILH
 70
     0
  9
$DIMSCALE
 40
1.0
  9
$DIMASZ
 40
0.18
  9
$DIMEXO
 40
0.0625
  9
$DIMDLI
 40
0.38
  9
$DIMRND
 40
0.0
  9
$DIMDLE
 40
0.0
  9
$DIMEXE
 40
0.18
  9
$DIMTP
 40
0.0
  9
$DIMTM
 40
0.0
  9
$DIMTXT
 40
0.18
  9
$DIMCEN
 40
0.09
  9
$DIMTSZ
 40
0.0
  9
$DIMTOL
 70
     0
  9
$DIMLIM
 70
     0
  9
$DIMTIH
 70
     1
  9
$DIMTOH
 70
     1
  9
$DIMSE1
 70
     0
  9
$DIMSE2
 70
     0
  9
$DIMTAD
 70
     0
  9
$DIMZIN
 70
     0
  9
$DIMBLK
  1

  9
$DIMASO
 70
     1
  9
$DIMSHO
 70
     1
  9
$DIMPOST
  1

  9
$DIMAPOST
  1

  9
$DIMALT
 70
     0
  9
$DIMALTD
 70
     2
  9
$DIMALTF
 40
25.4
  9
$DIMLFAC
 40
1.0
  9
$DIMTOFL
 70
     0
  9
$DIMTVP
 40
0.0
  9
$DIMTIX
 70
     0
  9
$DIMSOXD
 70
     0
  9
$DIMSAH
 70
     0
  9
$DIMBLK1
  1

  9
$DIMBLK2
  1

  9
$DIMSTYLE
  2
Standard
  9
$DIMCLRD
 70
     0
  9
$DIMCLRE
 70
     0
  9
$DIMCLRT
 70
     0
  9
$DIMTFAC
 40
1.0
  9
$DIMGAP
 40
0.09
  9
$DIMJUST
 70
     0
  9
$DIMSD1
 70
     0
  9
$DIMSD2
 70
     0
  9
$DIMTOLJ
 70
     1
  9
$DIMTZIN
 70
     0
  9
$DIMALTZ
 70
     0
  9
$DIMALTTZ
 70
     0
  9
$DIMUPT
 70
     0
  9
$DIMDEC
 70
     4
  9
$DIMTDEC
 70
     4
  9
$DIMALTU
 70
     2
  9
$DIMALTTD
 70
     2
  9
$DIMTXSTY
  7
Standard
  9
$DIMAUNIT
 70
     0
  9
$DIMADEC
 70
     0
  9
$DIMALTRND
 40
0.0
  9
$DIMAZIN
 70
     0
  9
$DIMDSEP
 70
    46
  9
$DIMATFIT
 70
     3
  9
$DIMFRAC
 70
     0
  9
$DIMLDRBLK
  1

  9
$DIMLUNIT
 70
     2
  9
$DIMLWD
 70
    -2
  9
$DIMLWE
 70
    -2
  9
$DIMTMOVE
 70
     0
  9
$DIMFXL
 40
1.0
  9
$DIMFXLON
 70
     0
  9
$DIMJOGANG
 40
0.7853981633974483
  9
$DIMTFILL
 70
     0
  9
$DIMTFILLCLR
 70
     0
  9
$DIMARCSYM
 70
     0
  9
$DIMLTYPE
  6

  9
$DIMLTEX1
  6

  9
$DIMLTEX2
  6

  9
$DIMTXTDIRECTION
 70
     0
  9
$LUNITS
 70
     2
  9
$LUPREC
 70
     4
  9
$SKETCHINC
 40
0.1
  9
$FILLETRAD
 40
0.5
  9
$AUNITS
 70
     0
  9
$AUPREC
 70
     0
  9
$MENU
  1
.
  9
$ELEVATION
 40
0.0
  9
$PELEVATION
 40
0.0
  9
$THICKNESS
 40
0.0
  9
$LIMCHECK
 70
     0
  9
$CHAMFERA
 40
0.5
  9
$CHAMFERB
 40
0.5
  9
$CHAMFERC
 40
1.0
  9
$CHAMFERD
 40
0.0
  9
$SKPOLY
 70
     0
  9
$TDCREATE
 40
2451380.930432396
  9
$TDUCREATE
 40
2451380.805432396
  9
$TDUPDATE
 40
2451380.966180555
  9
$TDUUPDATE
 40
2451380.841180556
  9
$TDINDWG
 40
0.0075613542
  9
$TDUSRTIMER
 40
0.0075523148
  9
$USRTIMER
 70
     1
  9
$ANGBASE
 50
0.0
  9
$ANGDIR
 70
     0
  9
$PDMODE
 70
     0
  9
$PDSIZE
 40
0.0
  9
$PLINEWID
 40
0.0
  9
$SPLFRAME
 70
     0
  9
$SPLINETYPE
 70
     6
  9
$SPLINESEGS
 70
     8
  9
$HANDSEED
  5
13D
  9
$SURFTAB1
 70
     6
  9
$SURFTAB2
 70
     6
  9
$SURFTYPE
 70
     6
  9
$SURFU
 70
     6
  9
$SURFV
 70
     6
  9
$UCSBASE
  2

  9
$UCSNAME
  2

  9
$UCSORG
 10
0.0
 20
0.0
 30
0.0
  9
$UCSXDIR
 10
1.0
 20
0.0
 30
0.0
  9
$UCSYDIR
 10
0.0
 20
1.0
 30
0.0
  9
$UCSORTHOREF
  2

  9
$UCSORTHOVIEW
 70
     0
  9
$UCSORGTOP
 10
0.0
 20
0.0
 30
0.0
  9
$UCSORGBOTTOM
 10
0.0
 20
0.0
 30
0.0
  9
$UCSORGLEFT
 10
0.0
 20
0.0
 30
0.0
  9
$UCSORGRIGHT
 10
0.0
 20
0.0
 30
0.0
  9
$UCSORGFRONT
 10
0.0
 20
0.0
 30
0.0
  9
$UCSORGBACK
 10
0.0
 20
0.0
 30
0.0
  9
$PUCSBASE
  2

  9
$PUCSNAME
  2

  9
$PUCSORG
 10
0.0
 20
0.0
 30
0.0
  9
$PUCSXDIR
 10
1.0
 20
0.0
 30
0.0
  9
$PUCSYDIR
 10
0.0
 20
1.0
 30
0.0
  9
$PUCSORTHOREF
  2

  9
$PUCSORTHOVIEW
 70
     0
  9
$PUCSORGTOP
 10
0.0
 20
0.0
 30
0.0
  9
$PUCSORGBOTTOM
 10
0.0
 20
0.0
 30
0.0
  9
$PUCSORGLEFT
 10
0.0
 20
0.0
 30
0.0
  9
$PUCSORGRIGHT
 10
0.0
 20
0.0
 30
0.0
  9
$PUCSORGFRONT
 10
0.0
 20
0.0
 30
0.0
  9
$PUCSORGBACK
 10
0.0
 20
0.0
 30
0.0
  9
$USERI1
 70
     0
  9
$USERI2
 70
     0
  9
$USERI3
 70
     0
  9
$USERI4
 70
     0
  9
$USERI5
 70
     0
  9
$USERR1
 40
0.0
  9
$USERR2
 40
0.0
  9
$USERR3
 40
0.0
  9
$USERR4
 40
0.0
  9
$USERR5
 40
0.0
  9
$WORLDVIEW
 70
     1
  9
$SHADEDGE
 70
     3
  9
$SHADEDIF
 70
    70
  9
$TILEMODE
 70
     1
  9
$MAXACTVP
 70
    64
  9
$PINSBASE
 10
0.0
 20
0.0
 30
0.0
  9
$PLIMCHECK
 70
     0
  9
$PEXTMIN
 10
1.000000000000000E+20
 20
1.000000000000000E+20
 30
1.000000000000000E+20
  9
$PEXTMAX
 10
-1.000000000000000E+20
 20
-1.000000000000000E+20
 30
-1.000000000000000E+20
  9
$PLIMMIN
 10
0.0
 20
0.0
  9
$PLIMMAX
 10
12.0
 20
9.0
  9
$UNITMODE
 70
     0
  9
$VISRETAIN
 70
     1
  9
$PLINEGEN
 70
     0
  9
$PSLTSCALE
 70
     1
  9
$TREEDEPTH
 70
  3020
  9
$CMLSTYLE
  2
Standard
  9
$CMLJUST
 70
     0
  9
$CMLSCALE
 40
1.0
  9
$PROXYGRAPHICS
 70
     1
  9
$MEASUREMENT
 70
     1
  9
$CELWEIGHT
370
    -1
  9
$ENDCAPS
280
     0
  9
$JOINSTYLE
280
     0
  9
$LWDISPLAY
290
     0
  9
$INSUNITS
 70
     4
  9
$HYPERLINKBASE
  1

  9
$STYLESHEET
  1

  9
$XEDIT
290
     1
  9
$CEPSNTYPE
380
     0
  9
$PSTYLEMODE
290
     1
  9
$FINGERPRINTGUID
  2
{12F50282-3ED8-11D3-A8B7-0060B0F84BC6}
  9
$VERSIONGUID
  2
{12F50293-3ED8-11D3-A8B7-0060B0F84BC6}
  9
$EXTNAMES
290
     1
  9
$PSVPSCALE
 40
0.0
  9
$OLESTARTUP
290
     0
  9
$SORTENTS
280
   127
  9
$INDEXCTL
280
     0
  9
$HIDETEXT
280
     0
  9
$XCLIPFRAME
280
     2
  9
$HALOGAP
280
     0
  9
$OBSCOLOR
 70
   257
  9
$OBSLTYPE
280
     0
  9
$INTERSECTIONDISPLAY
280
     0
  9
$INTERSECTIONCOLOR
 70
   257
  9
$DIMASSOC
280
     1
  9
$PROJECTNAME
  1

  9
$CAMERADISPLAY
290
     0
  9
$LENSLENGTH
 40
50.0
  9
$CAMERAHEIGHT
 40
0.0
  9
$STEPSPERSEC
 40
2.0
  9
$STEPSIZE
 40
6.0
  9
$3DDWFPREC
 40
2.0
  9
$PSOLWIDTH
 40
0.25
  9
$PSOLHEIGHT
 40
4.0
  9
$LOFTANG1
 40
1.570796326794896
  9
$LOFTANG2
 40
1.570796326794896
  9
$LOFTMAG1
 40
0.0
  9
$LOFTMAG2
 40
0.0
  9
$LOFTPARAM
 70
     7
  9
$LOFTNORMALS
280
     1
  9
$LATITUDE
 40
37.795
  9
$LONGITUDE
 40
-122.394
  9
$NORTHDIRECTION
 40
0.0
  9
$TIMEZONE
 70
 -8000
  9
$LIGHTGLYPHDISPLAY
280
     1
  9
$TILEMODELIGHTSYNCH
280
     1
  9
$CMATERIAL
347
AB
  9
$SOLIDHIST
280
     0
  9
$SHOWHIST
280
     1
  9
$DWFFRAME
280
     2
  9
$DGNFRAME
280
     0
  9
$REALWORLDSCALE
290
     1
  9
$INTERFERECOLOR
 62
     1
  9
$INTERFEREOBJVS
345
CD
  9
$INTERFEREVPVS
346
CA
  9
$CSHADOW
280
     0
  9
$SHADOWPLANELOCATION
 40
0.0
  0
ENDSEC
  0
SECTION
  2
CLASSES
  0
CLASS
  1
ACDBDICTIONARYWDFLT
  2
AcDbDictionaryWithDefault
  3
ObjectDBX Classes
 90
        0
 91
        1
280
     0
281
     0
  0
CLASS
  1
ACDBPLACEHOLDER
  2
AcDbPlaceHolder
  3
ObjectDBX Classes
 90
        0
 91
        2
280
     0
281
     0
  0
CLASS
  1
LAYOUT
  2
AcDbLayout
  3
ObjectDBX Classes
 90
        0
 91
        3
280
     0
281
     0
  0
CLASS
  1
MATERIAL
  2
AcDbMaterial
  3
ObjectDBX Classes
 90
     1153
 91
        3
280
     0
281
     0
  0
CLASS
  1
VISUALSTYLE
  2
AcDbVisualStyle
  3
ObjectDBX Classes
 90
     4095
 91
       24
280
     0
281
     0
  0
CLASS
  1
TABLESTYLE
  2
AcDbTableStyle
  3
ObjectDBX Classes
 90
     4095
 91
        1
280
     0
281
     0
  0
CLASS
  1
SCALE
  2
AcDbScale
  3
ObjectDBX Classes
 90
     1153
 91
       17
280
     0
281
     0
  0
CLASS
  1
MLEADERSTYLE
  2
AcDbMLeaderStyle
  3
ACDB_MLEADERSTYLE_CLASS
 90
     4095
 91
        1
280
     0
281
     0
  0
CLASS
  1
ACDBSECTIONVIEWSTYLE
  2
AcDbSectionViewStyle
  3
ObjectDBX Classes
 90
     1025
 91
        1
280
     0
281
     0
  0
CLASS
  1
ACDBDETAILVIEWSTYLE
  2
AcDbDetailViewStyle
  3
ObjectDBX Classes
 90
     1025
 91
        1
280
     0
281
     0
  0
CLASS
  1
MESH
  2
AcDbSubDMesh
  3
ObjectDBX Classes
 90
        0
 91
        1
280
     0
281
     1
  0
CLASS
  1
DICTIONARYVAR
  2
AcDbDictionaryVar
  3
ObjectDBX Classes
 90
        0
 91
        9
280
     0
281
     0
  0
CLASS
  1
CELLSTYLEMAP
  2
AcDbCellStyleMap
  3
ObjectDBX Classes
 90
     1152
 91
        1
280
     0
281
     0
  0
ENDSEC
  0
SECTION
  2
TABLES
  0
TABLE
  2
VPORT
  5
8
330
0
100
AcDbSymbolTable
 70
     1
  0
VPORT
  5
A8
330
8
100
AcDbSymbolTableRecord
100
AcDbViewportTableRecord
  2
*Active
 70
     0
 10
0.0
 20
0.0
 11
1.0
 21
1.0
 12
20.85969161987305
 22
47.96915435791015
 13
0.0
 23
0.0
 14
0.5
 24
0.5
 15
0.5
 25
0.5
 16
-1.0
 26
-1.0
 36
1.0
 17
0.0
 27
0.0
 37
0.0
 40
815.0300025766782
 41
1.41965559773894
 42
50.0
 43
0.0
 44
0.0
 50
0.0
 51
0.0
 71
     0
 72
   100
 73
     1
 74
     3
 75
     0
 76
     0
 77
     0
 78
     0
281
     0
 65
     1
110
0.0
120
0.0
130
0.0
111
1.0
121
0.0
131
0.0
112
0.0
122
1.0
132
0.0
 79
     0
146
0.0
348
C9
 60
     3
 61
     5
292
     1
282
     1
141
0.0
142
0.0
 63
   250
421
  3355443
  0
ENDTAB
  0
TABLE
  2
LTYPE
  5
5
330
0
100
AcDbSymbolTable
 70
     1
  0
LTYPE
  5
14
330
5
100
AcDbSymbolTableRecord
100
AcDbLinetypeTableRecord
  2
ByBlock
 70
     0
  3

 72
    65
 73
     0
 40
0.0
  0
LTYPE
  5
15
330
5
100
AcDbSymbolTableRecord
100
AcDbLinetypeTableRecord
  2
ByLayer
 70
     0
  3

 72
    65
 73
     0
 40
0.0
  0
LTYPE
  5
16
330
5
100
AcDbSymbolTableRecord
100
AcDbLinetypeTableRecord
  2
Continuous
 70
     0
  3
Solid line
 72
    65
 73
     0
 40
0.0
  0
ENDTAB
  0
TABLE
  2
LAYER
  5
2
330
0
100
AcDbSymbolTable
 70
     3
  0
LAYER
  5
10
330
2
100
AcDbSymbolTableRecord
100
AcDbLayerTableRecord
  2
0
 70
     0
 62
     7
  6
Continuous
370
    -3
390
F
347
BB
  0
LAYER
  5
2B
330
2
100
AcDbSymbolTableRecord
100
AcDbLayerTableRecord
  2
ASHADE
 70
     4
 62
     7
  6
Continuous
370
    -3
390
2D
347
BB
  0
LAYER
  5
F8
330
2
100
AcDbSymbolTableRecord
100
AcDbLayerTableRecord
  2
OracDecor_decorative_elements
 70
     0
 62
    96
420
   427782
  6
Continuous
370
    -3
390
F
347
BB
  0
ENDTAB
  0
TABLE
  2
STYLE
  5
3
330
0
100
AcDbSymbolTable
 70
     2
  0
STYLE
  5
11
330
3
100
AcDbSymbolTableRecord
100
AcDbTextStyleTableRecord
  2
Standard
 70
     0
 40
0.0
 41
1.0
 50
0.0
 71
     0
 42
0.2
  3
txt
  4

  0
STYLE
  5
2C
330
3
100
AcDbSymbolTableRecord
100
AcDbTextStyleTableRecord
  2
ASHADE
 70
     0
 40
0.2
 41
1.0
 50
0.0
 71
     0
 42
0.2
  3
simplex
  4

  0
ENDTAB
  0
TABLE
  2
VIEW
  5
6
330
0
100
AcDbSymbolTable
 70
     0
  0
ENDTAB
  0
TABLE
  2
UCS
  5
7
330
0
100
AcDbSymbolTable
 70
     0
  0
ENDTAB
  0
TABLE
  2
APPID
  5
9
330
0
100
AcDbSymbolTable
 70
     6
  0
APPID
  5
12
330
9
100
AcDbSymbolTableRecord
100
AcDbRegAppTableRecord
  2
ACAD
 70
     0
  0
APPID
  5
8F
330
9
100
AcDbSymbolTableRecord
100
AcDbRegAppTableRecord
  2
AVE_RENDER
 70
     0
  0
APPID
  5
90
330
9
100
AcDbSymbolTableRecord
100
AcDbRegAppTableRecord
  2
AVE_ENTITY_MATERIAL
 70
     0
  0
APPID
  5
9C
330
9
100
AcDbSymbolTableRecord
100
AcDbRegAppTableRecord
  2
AVE_FINISH
 70
     0
  0
APPID
  5
9D
330
9
100
AcDbSymbolTableRecord
100
AcDbRegAppTableRecord
  2
AVE_MATERIAL
 70
     0
  0
APPID
  5
9E
330
9
100
AcDbSymbolTableRecord
100
AcDbRegAppTableRecord
  2
AVE_GLOBAL
 70
     0
  0
ENDTAB
  0
TABLE
  2
DIMSTYLE
  5
A
330
0
100
AcDbSymbolTable
 70
     1
100
AcDbDimStyleTable
 71
     0
  0
DIMSTYLE
105
27
330
A
100
AcDbSymbolTableRecord
100
AcDbDimStyleTableRecord
  2
Standard
 70
     0
340
11
  0
ENDTAB
  0
TABLE
  2
BLOCK_RECORD
  5
1
330
0
100
AcDbSymbolTable
 70
     6
  0
BLOCK_RECORD
  5
1F
330
1
100
AcDbSymbolTableRecord
100
AcDbBlockTableRecord
  2
*Model_Space
340
22
 70
     0
280
     1
281
     0
  0
BLOCK_RECORD
  5
1B
330
1
100
AcDbSymbolTableRecord
100
AcDbBlockTableRecord
  2
*Paper_Space
340
1E
 70
     0
280
     1
281
     0
  0
BLOCK_RECORD
  5
23
330
1
100
AcDbSymbolTableRecord
100
AcDbBlockTableRecord
  2
*Paper_Space0
340
26
 70
     0
280
     1
281
     0
  0
BLOCK_RECORD
  5
2E
330
1
100
AcDbSymbolTableRecord
100
AcDbBlockTableRecord
  2
direct
340
0
 70
     0
280
     1
281
     0
  0
BLOCK_RECORD
  5
42
330
1
100
AcDbSymbolTableRecord
100
AcDbBlockTableRecord
  2
overhead
340
0
 70
     0
280
     1
281
     0
  0
BLOCK_RECORD
  5
5F
330
1
100
AcDbSymbolTableRecord
100
AcDbBlockTableRecord
  2
sh_spot
340
0
 70
     0
280
     1
281
     0
  0
BLOCK_RECORD
  5
91
330
1
100
AcDbSymbolTableRecord
100
AcDbBlockTableRecord
  2
AVE_RENDER
340
0
102
{BLKREFS
331
94
331
95
331
96
331
97
331
98
331
99
331
9A
331
9B
102
}
 70
     0
280
     1
281
     0
  0
BLOCK_RECORD
  5
9F
330
1
100
AcDbSymbolTableRecord
100
AcDbBlockTableRecord
  2
AVE_GLOBAL
340
0
102
{BLKREFS
331
A2
102
}
 70
     0
280
     1
281
     0
  0
ENDTAB
  0
ENDSEC
  0
SECTION
  2
BLOCKS
  0
BLOCK
  5
20
330
1F
100
AcDbEntity
  8
0
100
AcDbBlockBegin
  2
*Model_Space
 70
     0
 10
0.0
 20
0.0
 30
0.0
  3
*Model_Space
  1

  0
ENDBLK
  5
21
330
1F
100
AcDbEntity
  8
0
100
AcDbBlockEnd
  0
BLOCK
  5
1C
330
1B
100
AcDbEntity
 67
     1
  8
0
100
AcDbBlockBegin
  2
*Paper_Space
 70
     0
 10
0.0
 20
0.0
 30
0.0
  3
*Paper_Space
  1

  0
ENDBLK
  5
1D
330
1B
100
AcDbEntity
 67
     1
  8
0
100
AcDbBlockEnd
  0
BLOCK
  5
24
330
23
100
AcDbEntity
 67
     1
  8
0
100
AcDbBlockBegin
  2
*Paper_Space0
 70
     0
 10
0.0
 20
0.0
 30
0.0
  3
*Paper_Space0
  1

  0
ENDBLK
  5
25
330
23
100
AcDbEntity
 67
     1
  8
0
100
AcDbBlockEnd
  0
BLOCK
  5
40
330
2E
100
AcDbEntity
  8
0
100
AcDbBlockBegin
  2
direct
 70
     2
 10
0.0
 20
0.0
 30
0.0
  3
direct
  1

  0
ATTDEF
  5
2F
330
2E
100
AcDbEntity
  8
ASHADE
  6
Continuous
 62
     1
100
AcDbText
 10
0.0
 20
-0.1
 30
0.0
 40
0.2
  1

  7
ASHADE
 72
     1
 11
0.0
 21
-0.1
 31
0.0
100
AcDbAttributeDefinition
280
     0
  3
Light Name
  2
SNAME
 70
     0
280
     0
  0
ARC
  5
30
330
2E
100
AcDbEntity
  8
ASHADE
  6
Continuous
 62
     7
100
AcDbCircle
 10
0.0
 20
0.0
 30
0.0
 40
0.3
100
AcDbArc
 50
205.6792886194569
 51
334.3207113805431
  0
ARC
  5
31
330
2E
100
AcDbEntity
  8
ASHADE
  6
Continuous
 62
     7
100
AcDbCircle
 10
0.0
 20
0.0
 30
0.0
 40
0.3
100
AcDbArc
 50
25.67928861945685
 51
154.3207113805431
  0
LINE
  5
32
330
2E
100
AcDbEntity
  8
ASHADE
  6
Continuous
 62
     7
100
AcDbLine
 10
-0.21
 20
0.2142428528562855
 30
0.0
 11
-0.21
 21
0.5
 31
0.0
  0
LINE
  5
33
330
2E
100
AcDbEntity
  8
ASHADE
  6
Continuous
 62
     7
100
AcDbLine
 10
-0.11
 20
0.2791057147390572
 30
0.0
 11
-0.11
 21
0.5
 31
0.0
  0
LINE
  5
34
330
2E
100
AcDbEntity
  8
ASHADE
  6
Continuous
 62
     7
100
AcDbLine
 10
0.21
 20
0.2142428528562855
 30
0.0
 11
0.21
 21
0.5
 31
0.0
  0
ATTDEF
  5
35
330
2E
100
AcDbEntity
  8
ASHADE
  6
Continuous
 62
     7
100
AcDbText
 10
0.0
 20
0.25
 30
0.0
 40
0.01
  1

100
AcDbAttributeDefinition
280
     0
  3
Look-at Y
  2
LAY
 70
     1
280
     0
  0
ATTDEF
  5
36
330
2E
100
AcDbEntity
  8
ASHADE
  6
Continuous
 62
     7
100
AcDbText
 10
0.0
 20
0.22
 30
0.0
 40
0.01
  1
1
100
AcDbAttributeDefinition
280
     0
  3
Light Intensity
  2
INTENSITY
 70
     1
280
     0
  0
ATTDEF
  5
37
330
2E
100
AcDbEntity
  8
ASHADE
  6
Continuous
 62
     7
100
AcDbText
 10
0.0
 20
0.16
 30
0.0
 40
0.01
  1
-1
100
AcDbAttributeDefinition
280
     0
  3
*not used*
  2
BEAMD
 70
     1
280
     0
  0
ATTDEF
  5
38
330
2E
100
AcDbEntity
  8
ASHADE
  6
Continuous
 62
     7
100
AcDbText
 10
0.0
 20
0.175
 30
0.0
 40
0.01
  1
-1
100
AcDbAttributeDefinition
280
     0
  3
*not used*
  2
CONED
 70
     1
280
     0
  0
ATTDEF
  5
39
330
2E
100
AcDbEntity
  8
ASHADE
  6
Continuous
 62
     7
100
AcDbText
 10
0.0
 20
0.19
 30
0.0
 40
0.01
  1
0
100
AcDbAttributeDefinition
280
     0
  3
Depth Map Size
  2
CONEA
 70
     1
280
     0
  0
ATTDEF
  5
3A
330
2E
100
AcDbEntity
  8
ASHADE
  6
Continuous
 62
     7
100
AcDbText
 10
0.0
 20
0.2050000000000001
 30
0.0
 40
0.01
  1
1,1,1
100
AcDbAttributeDefinition
280
     0
  3
Light Color (RGB)
  2
COLOR
 70
     1
280
     0
  0
ATTDEF
  5
3B
330
2E
100
AcDbEntity
  8
ASHADE
  6
Continuous
 62
     7
100
AcDbText
 10
0.0
 20
0.235
 30
0.0
 40
0.01
  1

100
AcDbAttributeDefinition
280
     0
  3
Look-at Z
  2
LAZ
 70
     1
280
     0
  0
LINE
  5
3C
330
2E
100
AcDbEntity
  8
ASHADE
  6
Continuous
 62
     7
100
AcDbLine
 10
0.0
 20
0.3
 30
0.0
 11
0.0
 21
0.5
 31
0.0
  0
LINE
  5
3D
330
2E
100
AcDbEntity
  8
ASHADE
  6
Continuous
 62
     7
100
AcDbLine
 10
0.11
 20
0.2791057147390572
 30
0.0
 11
0.11
 21
0.5
 31
0.0
  0
ATTDEF
  5
3E
330
2E
100
AcDbEntity
  8
ASHADE
  6
Continuous
 62
     7
100
AcDbText
 10
0.0
 20
0.265
 30
0.0
 40
0.01
  1

100
AcDbAttributeDefinition
280
     0
  3
Look-at X
  2
LAX
 70
     1
280
     0
  0
ATTDEF
  5
3F
330
2E
100
AcDbEntity
  8
ASHADE
  6
Continuous
 62
     7
100
AcDbText
 10
0.0
 20
0.28
 30
0.0
 40
0.01
  1

100
AcDbAttributeDefinition
280
     0
  3

  2
GNAME
 70
     1
280
     0
  0
ENDBLK
  5
41
330
2E
100
AcDbEntity
  8
0
100
AcDbBlockEnd
  0
BLOCK
  5
5D
330
42
100
AcDbEntity
  8
0
100
AcDbBlockBegin
  2
overhead
 70
     2
 10
0.0
 20
0.0
 30
0.0
  3
overhead
  1

  0
ATTDEF
  5
43
330
42
100
AcDbEntity
  8
ASHADE
  6
Continuous
 62
     1
100
AcDbText
 10
0.0
 20
-0.1
 30
0.0
 40
0.2
  1

  7
ASHADE
 72
     1
 11
0.0
 21
-0.1
 31
0.0
100
AcDbAttributeDefinition
280
     0
  3
Light Name
  2
SNAME
 70
     0
280
     0
  0
ARC
  5
44
330
42
100
AcDbEntity
  8
ASHADE
  6
Continuous
 62
     7
100
AcDbCircle
 10
0.0
 20
0.0
 30
0.0
 40
0.3
100
AcDbArc
 50
205.6792886194569
 51
334.3207113805431
  0
LINE
  5
45
330
42
100
AcDbEntity
  8
ASHADE
  6
Continuous
 62
     7
100
AcDbLine
 10
-0.2041413561583015
 20
-0.2198324514393848
 30
0.0
 11
-0.2721884748777353
 21
-0.2931099352525131
 31
0.0
  0
LINE
  5
46
330
42
100
AcDbEntity
  8
ASHADE
  6
Continuous
 62
     7
100
AcDbLine
 10
-0.1096591641591904
 20
-0.2792398032442862
 30
0.0
 11
-0.1279356915190555
 21
-0.3257797704516673
 31
0.0
  0
LINE
  5
47
330
42
100
AcDbEntity
  8
ASHADE
  6
Continuous
 62
     7
100
AcDbLine
 10
0.0
 20
-0.2999999999999999
 30
0.0
 11
0.0
 21
-0.4
 31
0.0
  0
LINE
  5
48
330
42
100
AcDbEntity
  8
ASHADE
  6
Continuous
 62
     7
100
AcDbLine
 10
0.1096591641591904
 20
-0.2792398032442862
 30
0.0
 11
0.1279356915190555
 21
-0.3257797704516673
 31
0.0
  0
LINE
  5
49
330
42
100
AcDbEntity
  8
ASHADE
  6
Continuous
 62
     7
100
AcDbLine
 10
0.2041413561583015
 20
-0.2198324514393848
 30
0.0
 11
0.2721884748777353
 21
-0.2931099352525131
 31
0.0
  0
ARC
  5
4A
330
42
100
AcDbEntity
  8
ASHADE
  6
Continuous
 62
     7
100
AcDbCircle
 10
0.0
 20
0.0
 30
0.0
 40
0.3
100
AcDbArc
 50
25.67928861945685
 51
154.3207113805431
  0
LINE
  5
4B
330
42
100
AcDbEntity
  8
ASHADE
  6
Continuous
 62
     7
100
AcDbLine
 10
-0.2703701166919155
 20
0.13
 30
0.0
 11
-0.3154318028072347
 21
0.1516666666666666
 31
0.0
  0
LINE
  5
4C
330
42
100
AcDbEntity
  8
ASHADE
  6
Continuous
 62
     7
100
AcDbLine
 10
-0.2703701166919155
 20
-0.13
 30
0.0
 11
-0.3154318028072347
 21
-0.1516666666666666
 31
0.0
  0
LINE
  5
4D
330
42
100
AcDbEntity
  8
ASHADE
  6
Continuous
 62
     7
100
AcDbLine
 10
-0.2041413561583015
 20
0.2198324514393849
 30
0.0
 11
-0.2721884748777353
 21
0.2931099352525131
 31
0.0
  0
LINE
  5
4E
330
42
100
AcDbEntity
  8
ASHADE
  6
Continuous
 62
     7
100
AcDbLine
 10
-0.1096591641591904
 20
0.2792398032442862
 30
0.0
 11
-0.1279356915190555
 21
0.3257797704516674
 31
0.0
  0
LINE
  5
4F
330
42
100
AcDbEntity
  8
ASHADE
  6
Continuous
 62
     7
100
AcDbLine
 10
0.2703701166919155
 20
-0.13
 30
0.0
 11
0.3154318028072347
 21
-0.1516666666666666
 31
0.0
  0
LINE
  5
50
330
42
100
AcDbEntity
  8
ASHADE
  6
Continuous
 62
     7
100
AcDbLine
 10
0.2703701166919155
 20
0.13
 30
0.0
 11
0.3154318028072347
 21
0.1516666666666666
 31
0.0
  0
LINE
  5
51
330
42
100
AcDbEntity
  8
ASHADE
  6
Continuous
 62
     7
100
AcDbLine
 10
0.0
 20
0.3
 30
0.0
 11
0.0
 21
0.4
 31
0.0
  0
ATTDEF
  5
52
330
42
100
AcDbEntity
  8
ASHADE
  6
Continuous
 62
     7
100
AcDbText
 10
0.0
 20
0.22
 30
0.0
 40
0.01
  1
1
100
AcDbAttributeDefinition
280
     0
  3
Light Intensity
  2
INTENSITY
 70
     1
280
     0
  0
ATTDEF
  5
53
330
42
100
AcDbEntity
  8
ASHADE
  6
Continuous
 62
     7
100
AcDbText
 10
0.0
 20
0.16
 30
0.0
 40
0.01
  1
-1
100
AcDbAttributeDefinition
280
     0
  3
*not used*
  2
BEAMD
 70
     1
280
     0
  0
ATTDEF
  5
54
330
42
100
AcDbEntity
  8
ASHADE
  6
Continuous
 62
     7
100
AcDbText
 10
0.0
 20
0.175
 30
0.0
 40
0.01
  1
-1
100
AcDbAttributeDefinition
280
     0
  3
*not used*
  2
CONED
 70
     1
280
     0
  0
ATTDEF
  5
55
330
42
100
AcDbEntity
  8
ASHADE
  6
Continuous
 62
     7
100
AcDbText
 10
0.0
 20
0.19
 30
0.0
 40
0.01
  1
0
100
AcDbAttributeDefinition
280
     0
  3
Depth Map Size
  2
CONEA
 70
     1
280
     0
  0
ATTDEF
  5
56
330
42
100
AcDbEntity
  8
ASHADE
  6
Continuous
 62
     7
100
AcDbText
 10
0.0
 20
0.2050000000000001
 30
0.0
 40
0.01
  1
1,1,1
100
AcDbAttributeDefinition
280
     0
  3
Light Color (RGB)
  2
COLOR
 70
     1
280
     0
  0
ATTDEF
  5
57
330
42
100
AcDbEntity
  8
ASHADE
  6
Continuous
 62
     7
100
AcDbText
 10
0.0
 20
0.235
 30
0.0
 40
0.01
  1

100
AcDbAttributeDefinition
280
     0
  3
Look-at Z
  2
LAZ
 70
     1
280
     0
  0
ATTDEF
  5
58
330
42
100
AcDbEntity
  8
ASHADE
  6
Continuous
 62
     7
100
AcDbText
 10
0.0
 20
0.25
 30
0.0
 40
0.01
  1

100
AcDbAttributeDefinition
280
     0
  3
Look-at Y
  2
LAY
 70
     1
280
     0
  0
ATTDEF
  5
59
330
42
100
AcDbEntity
  8
ASHADE
  6
Continuous
 62
     7
100
AcDbText
 10
0.0
 20
0.265
 30
0.0
 40
0.01
  1

100
AcDbAttributeDefinition
280
     0
  3
Look-at X
  2
LAX
 70
     1
280
     0
  0
ATTDEF
  5
5A
330
42
100
AcDbEntity
  8
ASHADE
  6
Continuous
 62
     7
100
AcDbText
 10
0.0
 20
0.28
 30
0.0
 40
0.01
  1

100
AcDbAttributeDefinition
280
     0
  3

  2
GNAME
 70
     1
280
     0
  0
LINE
  5
5B
330
42
100
AcDbEntity
  8
ASHADE
  6
Continuous
 62
     7
100
AcDbLine
 10
0.1096591641591904
 20
0.2792398032442862
 30
0.0
 11
0.1279356915190555
 21
0.3257797704516674
 31
0.0
  0
LINE
  5
5C
330
42
100
AcDbEntity
  8
ASHADE
  6
Continuous
 62
     7
100
AcDbLine
 10
0.2041413561583015
 20
0.2198324514393849
 30
0.0
 11
0.2721884748777353
 21
0.2931099352525131
 31
0.0
  0
ENDBLK
  5
5E
330
42
100
AcDbEntity
  8
0
100
AcDbBlockEnd
  0
BLOCK
  5
85
330
5F
100
AcDbEntity
  8
0
100
AcDbBlockBegin
  2
sh_spot
 70
     2
 10
0.0
 20
0.0
 30
0.0
  3
sh_spot
  1

  0
LINE
  5
60
330
5F
100
AcDbEntity
  8
ASHADE
  6
Continuous
 62
     7
100
AcDbLine
 10
0.25
 20
0.26
 30
0.0
 11
-0.25
 21
0.26
 31
0.0
  0
LINE
  5
61
330
5F
100
AcDbEntity
  8
ASHADE
  6
Continuous
 62
     7
100
AcDbLine
 10
-0.25
 20
-0.3399999999999999
 30
0.0
 11
0.25
 21
-0.3399999999999999
 31
0.0
  0
ATTDEF
  5
62
330
5F
100
AcDbEntity
  8
ASHADE
  6
Continuous
 62
     1
100
AcDbText
 10
0.0
 20
-0.1
 30
0.0
 40
0.2
  1

  7
ASHADE
 72
     1
 11
0.0
 21
-0.1
 31
0.0
100
AcDbAttributeDefinition
280
     0
  3
Light Name
  2
SNAME
 70
     0
280
     0
  0
LINE
  5
63
330
5F
100
AcDbEntity
  8
ASHADE
  6
Continuous
 62
     7
100
AcDbLine
 10
-0.25
 20
-0.13
 30
0.0
 11
-0.25
 21
-0.3399999999999999
 31
0.0
  0
LINE
  5
64
330
5F
100
AcDbEntity
  8
ASHADE
  6
Continuous
 62
     7
100
AcDbLine
 10
-0.25
 20
-0.18
 30
0.0
 11
-0.29
 21
-0.18
 31
0.0
  0
LINE
  5
65
330
5F
100
AcDbEntity
  8
ASHADE
  6
Continuous
 62
     7
100
AcDbLine
 10
-0.29
 20
-0.22
 30
0.0
 11
-0.25
 21
-0.22
 31
0.0
  0
LINE
  5
66
330
5F
100
AcDbEntity
  8
ASHADE
  6
Continuous
 62
     7
100
AcDbLine
 10
-0.29
 20
-0.18
 30
0.0
 11
-0.29
 21
-0.22
 31
0.0
  0
LINE
  5
67
330
5F
100
AcDbEntity
  8
ASHADE
  6
Continuous
 62
     7
100
AcDbLine
 10
-0.1045454545454545
 20
0.26
 30
0.0
 11
-0.15
 21
0.46
 31
0.0
  0
LINE
  5
68
330
5F
100
AcDbEntity
  8
ASHADE
  6
Continuous
 62
     7
100
AcDbLine
 10
-0.21
 20
0.26
 30
0.0
 11
-0.301304347826087
 21
0.46
 31
0.0
  0
LINE
  5
69
330
5F
100
AcDbEntity
  8
ASHADE
  6
Continuous
 62
     7
100
AcDbLine
 10
-0.25
 20
0.26
 30
0.0
 11
-0.25
 21
0.13
 31
0.0
  0
LINE
  5
6A
330
5F
100
AcDbEntity
  8
ASHADE
  6
Continuous
 62
     7
100
AcDbLine
 10
-0.25
 20
0.22
 30
0.0
 11
-0.29
 21
0.22
 31
0.0
  0
LINE
  5
6B
330
5F
100
AcDbEntity
  8
ASHADE
  6
Continuous
 62
     7
100
AcDbLine
 10
-0.29
 20
0.1799999999999999
 30
0.0
 11
-0.25
 21
0.1799999999999999
 31
0.0
  0
LINE
  5
6C
330
5F
100
AcDbEntity
  8
ASHADE
  6
Continuous
 62
     7
100
AcDbLine
 10
-0.29
 20
0.22
 30
0.0
 11
-0.29
 21
0.1799999999999999
 31
0.0
  0
ATTDEF
  5
6D
330
5F
100
AcDbEntity
  8
ASHADE
  6
Continuous
 62
     7
100
AcDbText
 10
0.0
 20
-0.24
 30
0.0
 40
0.01
  1
0
100
AcDbAttributeDefinition
280
     0
  3
Depth Map Size
  2
ZSIZE
 70
     1
280
     0
  0
ATTDEF
  5
6E
330
5F
100
AcDbEntity
  8
ASHADE
  6
Continuous
 62
     7
100
AcDbText
 10
0.0
 20
-0.3300000000000001
 30
0.0
 40
0.01
  1
0,0,0
100
AcDbAttributeDefinition
280
     0
  3
Look-from XYZ
  2
LFXYZ
 70
     1
280
     0
  0
ATTDEF
  5
6F
330
5F
100
AcDbEntity
  8
ASHADE
  6
Continuous
 62
     7
100
AcDbText
 10
0.0
 20
-0.315
 30
0.0
 40
0.01
  1
0.0
100
AcDbAttributeDefinition
280
     0
  3
Beam Distribution
  2
BEAMDI
 70
     1
280
     0
  0
ATTDEF
  5
70
330
5F
100
AcDbEntity
  8
ASHADE
  6
Continuous
 62
     7
100
AcDbText
 10
0.0
 20
-0.3
 30
0.0
 40
0.01
  1
0.0
100
AcDbAttributeDefinition
280
     0
  3
Cone Delta
  2
CONEDE
 70
     1
280
     0
  0
ATTDEF
  5
71
330
5F
100
AcDbEntity
  8
ASHADE
  6
Continuous
 62
     7
100
AcDbText
 10
0.0
 20
-0.2850000000000001
 30
0.0
 40
0.01
  1
10.0
100
AcDbAttributeDefinition
280
     0
  3
Cone Angle
  2
CONEAN
 70
     1
280
     0
  0
ATTDEF
  5
72
330
5F
100
AcDbEntity
  8
ASHADE
  6
Continuous
 62
     7
100
AcDbText
 10
0.0
 20
-0.27
 30
0.0
 40
0.01
  1
-1
100
AcDbAttributeDefinition
280
     0
  3
*not used*
  2
BIASMAX
 70
     1
280
     0
  0
ATTDEF
  5
73
330
5F
100
AcDbEntity
  8
ASHADE
  6
Continuous
 62
     7
100
AcDbText
 10
0.0
 20
-0.255
 30
0.0
 40
0.01
  1
-1
100
AcDbAttributeDefinition
280
     0
  3
*not used*
  2
BIASMIN
 70
     1
280
     0
  0
ATTDEF
  5
74
330
5F
100
AcDbEntity
  8
ASHADE
  6
Continuous
 62
     7
100
AcDbText
 10
0.0
 20
-0.225
 30
0.0
 40
0.01
  1
1,1,1
100
AcDbAttributeDefinition
280
     0
  3
Light Color (RGB)
  2
COLOR
 70
     1
280
     0
  0
ATTDEF
  5
75
330
5F
100
AcDbEntity
  8
ASHADE
  6
Continuous
 62
     7
100
AcDbText
 10
0.0
 20
-0.21
 30
0.0
 40
0.01
  1
1
100
AcDbAttributeDefinition
280
     0
  3
Light Intensity
  2
INTENSITY
 70
     1
280
     0
  0
ATTDEF
  5
76
330
5F
100
AcDbEntity
  8
ASHADE
  6
Continuous
 62
     7
100
AcDbText
 10
0.0
 20
-0.15
 30
0.0
 40
0.01
  1

100
AcDbAttributeDefinition
280
     0
  3

  2
GNAME
 70
     1
280
     0
  0
ATTDEF
  5
77
330
5F
100
AcDbEntity
  8
ASHADE
  6
Continuous
 62
     7
100
AcDbText
 10
0.0
 20
-0.195
 30
0.0
 40
0.01
  1

100
AcDbAttributeDefinition
280
     0
  3
Look-at Z
  2
LAZ
 70
     1
280
     0
  0
ATTDEF
  5
78
330
5F
100
AcDbEntity
  8
ASHADE
  6
Continuous
 62
     7
100
AcDbText
 10
0.0
 20
-0.18
 30
0.0
 40
0.01
  1

100
AcDbAttributeDefinition
280
     0
  3
Look-at Y
  2
LAY
 70
     1
280
     0
  0
ATTDEF
  5
79
330
5F
100
AcDbEntity
  8
ASHADE
  6
Continuous
 62
     7
100
AcDbText
 10
0.0
 20
-0.165
 30
0.0
 40
0.01
  1

100
AcDbAttributeDefinition
280
     0
  3
Look-at X
  2
LAX
 70
     1
280
     0
  0
LINE
  5
7A
330
5F
100
AcDbEntity
  8
ASHADE
  6
Continuous
 62
     7
100
AcDbLine
 10
0.25
 20
-0.3399999999999999
 30
0.0
 11
0.25
 21
-0.13
 31
0.0
  0
LINE
  5
7B
330
5F
100
AcDbEntity
  8
ASHADE
  6
Continuous
 62
     7
100
AcDbLine
 10
0.25
 20
-0.18
 30
0.0
 11
0.29
 21
-0.18
 31
0.0
  0
LINE
  5
7C
330
5F
100
AcDbEntity
  8
ASHADE
  6
Continuous
 62
     7
100
AcDbLine
 10
0.29
 20
-0.22
 30
0.0
 11
0.25
 21
-0.22
 31
0.0
  0
LINE
  5
7D
330
5F
100
AcDbEntity
  8
ASHADE
  6
Continuous
 62
     7
100
AcDbLine
 10
0.29
 20
-0.18
 30
0.0
 11
0.29
 21
-0.22
 31
0.0
  0
LINE
  5
7E
330
5F
100
AcDbEntity
  8
ASHADE
  6
Continuous
 62
     7
100
AcDbLine
 10
0.21
 20
0.26
 30
0.0
 11
0.301304347826087
 21
0.46
 31
0.0
  0
LINE
  5
7F
330
5F
100
AcDbEntity
  8
ASHADE
  6
Continuous
 62
     7
100
AcDbLine
 10
0.1045454545454545
 20
0.26
 30
0.0
 11
0.15
 21
0.46
 31
0.0
  0
LINE
  5
80
330
5F
100
AcDbEntity
  8
ASHADE
  6
Continuous
 62
     7
100
AcDbLine
 10
0.0
 20
0.26
 30
0.0
 11
0.0
 21
0.46
 31
0.0
  0
LINE
  5
81
330
5F
100
AcDbEntity
  8
ASHADE
  6
Continuous
 62
     7
100
AcDbLine
 10
0.25
 20
0.13
 30
0.0
 11
0.25
 21
0.26
 31
0.0
  0
LINE
  5
82
330
5F
100
AcDbEntity
  8
ASHADE
  6
Continuous
 62
     7
100
AcDbLine
 10
0.25
 20
0.22
 30
0.0
 11
0.29
 21
0.22
 31
0.0
  0
LINE
  5
83
330
5F
100
AcDbEntity
  8
ASHADE
  6
Continuous
 62
     7
100
AcDbLine
 10
0.29
 20
0.1799999999999999
 30
0.0
 11
0.25
 21
0.1799999999999999
 31
0.0
  0
LINE
  5
84
330
5F
100
AcDbEntity
  8
ASHADE
  6
Continuous
 62
     7
100
AcDbLine
 10
0.29
 20
0.22
 30
0.0
 11
0.29
 21
0.1799999999999999
 31
0.0
  0
ENDBLK
  5
86
330
5F
100
AcDbEntity
  8
0
100
AcDbBlockEnd
  0
BLOCK
  5
92
330
91
100
AcDbEntity
  8
ASHADE
100
AcDbBlockBegin
  2
AVE_RENDER
 70
     0
 10
0.0
 20
0.0
 30
0.0
  3
AVE_RENDER
  1
AVE_RENDER
  0
ENDBLK
  5
93
330
91
100
AcDbEntity
  8
0
100
AcDbBlockEnd
  0
BLOCK
  5
A0
330
9F
100
AcDbEntity
  8
ASHADE
100
AcDbBlockBegin
  2
AVE_GLOBAL
 70
     0
 10
0.0
 20
0.0
 30
0.0
  3
AVE_GLOBAL
  1
AVE_GLOBAL
  0
ENDBLK
  5
A1
330
9F
100
AcDbEntity
  8
0
100
AcDbBlockEnd
  0
ENDSEC
  0
SECTION
  2
ENTITIES
  0
INSERT
  5
94
330
1F
100
AcDbEntity
  8
ASHADE
 62
     1
100
AcDbBlockReference
  2
AVE_RENDER
 10
0.0
 20
0.0
 30
0.0
1001
AVE_RENDER
1002
{
1070
     7
1000
Pref
1070
    30
1070
    20
1070
     1
1070
     0
1000

1070
    10
1070
     1
1070
    10
1040
1.0
1070
     1
1040
0.3
1040
0.7
1040
0.0
1040
10.0
1010
-1.0
1020
-1.0
1030
-1.0
1040
0.3
1070
    49
1070
     0
1070
     0
1010
1.0
1020
1.0
1030
1.0
1040
45.0
1070
     1
1070
     0
1000
WCS
1040
0.0
1070
     0
1040
10.0
1002
}
  0
INSERT
  5
95
330
1F
100
AcDbEntity
  8
ASHADE
 62
     3
100
AcDbBlockReference
  2
AVE_RENDER
 10
0.0
 20
0.0
 30
0.0
1001
AVE_RENDER
1002
{
1070
     0
1000
Full Opt
1070
     0
1070
     1
1070
     1
1070
     1
1070
     0
1070
     0
1070
     0
1070
     1
1070
     1
1040
0.0001
1040
0.0001
1002
}
  0
INSERT
  5
96
330
1F
100
AcDbEntity
  8
ASHADE
 62
     4
100
AcDbBlockReference
  2
AVE_RENDER
 10
0.0
 20
0.0
 30
0.0
1001
AVE_RENDER
1002
{
1070
     0
1000
Quick Opt
1070
     0
1070
     1
1070
     1
1070
     1
1070
     0
1070
     0
1070
     1
1002
}
  0
INSERT
  5
97
330
1F
100
AcDbEntity
  8
ASHADE
 62
     5
100
AcDbBlockReference
  2
AVE_RENDER
 10
0.0
 20
0.0
 30
0.0
1001
AVE_RENDER
1002
{
1070
     1
1000
Scanl Opt
1070
     2
1070
     0
1070
     2
1040
2.0
1040
4.0
1070
     0
1070
     1
1070
     0
1040
0.03
1002
}
  0
INSERT
  5
98
330
1F
100
AcDbEntity
  8
ASHADE
 62
     6
100
AcDbBlockReference
  2
AVE_RENDER
 10
0.0
 20
0.0
 30
0.0
1001
AVE_RENDER
1002
{
1070
     2
1000
Raytr Opt
1070
     2
1070
     0
1070
     2
1040
2.0
1040
4.0
1070
     0
1070
     1
1070
     1
1040
0.03
1070
     3
1040
0.03
1002
}
  0
INSERT
  5
99
330
1F
100
AcDbEntity
  8
ASHADE
 62
     7
100
AcDbBlockReference
  2
AVE_RENDER
 10
0.0
 20
0.0
 30
0.0
1001
AVE_RENDER
1002
{
1070
     0
1000
RFile Opt
1070
     1
1070
   640
1070
   480
1070
 10000
1070
     1
1070
     8
1070
     8
1070
     0
1070
     0
1070
     0
1070
     0
1070
     0
1070
     0
1070
     0
1002
}
  0
INSERT
  5
9A
330
1F
100
AcDbEntity
  8
ASHADE
 62
     8
100
AcDbBlockReference
  2
AVE_RENDER
 10
0.0
 20
0.0
 30
0.0
1001
AVE_RENDER
1002
{
1070
     0
1000
Fog Opt
1070
     0
1070
     0
1040
0.0
1040
1.0
1040
0.0
1040
1.0
1010
0.5
1020
0.5
1030
0.5
1002
}
  0
INSERT
  5
9B
330
1F
100
AcDbEntity
  8
ASHADE
 62
     9
100
AcDbBlockReference
  2
AVE_RENDER
 10
0.0
 20
0.0
 30
0.0
1001
AVE_RENDER
1002
{
1070
     0
1000
BG Opt
1070
     0
1070
     1
1010
0.0
1020
0.0
1030
0.0
1010
1.0
1020
0.0
1030
0.0
1010
0.0
1020
1.0
1030
0.0
1010
0.0
1020
0.0
1030
1.0
1040
0.5
1040
0.33
1040
0.0
1000

1070
     1
1000

1070
     1
1070
     1
1040
1.0
1040
1.0
1040
0.0
1040
0.0
1070
     0
1002
}
  0
INSERT
  5
A2
330
1F
100
AcDbEntity
  8
ASHADE
 62
     1
100
AcDbBlockReference
  2
AVE_GLOBAL
 10
0.0
 20
0.0
 30
0.0
1001
AVE_MATERIAL
1002
{
1000
*GLOBAL*
1000
2
1000
Global finish.
1002
{
1002
}
1002
{
1070
    63
1002
{
1002
{
1010
-1.0
1020
-1.0
1030
-1.0
1002
}
1040
0.1000000014901161
1000

1040
0.0
1002
{
1002
}
1040
0.0
1002
{
1002
}
1040
0.0
1002
}
1002
{
1002
{
1010
-1.0
1020
-1.0
1030
-1.0
1002
}
1040
0.6999999880790711
1000

1040
0.0
1002
{
1002
}
1040
0.0
1002
{
1002
}
1040
0.0
1002
}
1002
{
1002
{
1010
-1.0
1020
-1.0
1030
-1.0
1002
}
1040
0.2000000029802322
1000

1040
0.0
1002
{
1002
}
1040
0.0
1002
{
1002
}
1040
0.0
1002
}
1002
{
1070
     0
1002
{
1070
     1
1002
{
1040
1.0
1040
1.0
1000

1040
0.0
1002
{
1002
}
1040
0.0
1002
{
1002
}
1040
0.0
1002
}
1002
}
1040
1.0
1040
0.0
1040
0.0
1002
}
1002
{
1040
1.0
1040
1.0
1000

1040
0.0
1002
{
1002
}
1040
0.0
1002
{
1002
}
1040
0.0
1002
}
1002
{
1040
0.5
1040
1.0
1000

1040
0.0
1002
{
1002
}
1040
0.0
1002
{
1002
}
1040
0.0
1002
}
1002
{
1070
     0
1040
0.0
1002
{
1002
}
1040
1.0
1002
{
1002
}
1040
0.0
1002
}
1002
{
1040
0.0
1002
{
1002
{
1010
0.0
1020
0.0
1030
0.0
1002
}
1040
1.0
1000

1040
0.0
1002
{
1002
}
1040
0.0
1002
{
1002
}
1040
0.0
1002
}
1002
}
1002
{
1002
{
1070
     1
1002
{
1040
0.0
1040
1.0
1000

1040
0.0
1002
{
1002
}
1040
0.0
1002
{
1002
}
1040
0.0
1002
}
1002
}
1040
0.0
1002
{
1002
}
1010
1.0
1020
0.0
1030
0.0
1010
0.0
1020
1.0
1030
0.0
1010
0.0
1020
0.0
1030
1.0
1070
     0
1002
}
1002
{
1002
{
1040
1.0
1040
1.0
1002
{
1070
     1
1002
{
1040
1.0
1040
1.0
1000

1040
0.0
1002
{
1002
}
1040
0.0
1002
{
1002
}
1040
0.0
1002
}
1002
}
1002
}
1070
     0
1040
0.0
1002
{
1002
}
1002
}
1002
{
1002
}
1002
}
1002
{
1071
        3
1070
     3
1070
     0
1002
{
1070
     2
1070
     0
1070
     0
1040
0.0
1002
}
1070
     0
1070
     2
1002
{
1002
}
1002
}
1002
{
1040
8030.0
1040
190.3000030517578
1040
0.3050000071525574
1040
228.0
1040
545.0
1040
14.0
1040
17.39999961853027
1040
0.4560000002384186
1002
}
1002
}
  0
MESH
  5
F9
330
1F
100
AcDbEntity
  8
OracDecor_decorative_elements
 62
   113
420
  5759375
160
             38096
310
D0940000220400000C00000013000000020000003C0000000600000002000000000000403DF4834000000000004024BF0000000000606240000000403DF4834000000000004024BF00000040A44A60400C000000130000000A0000003C0000000600000002000000000000403DF4834000000000004024BF00000000006062
310
400000000000EC83400000000005804DC000000000006062400C00000013000000120000003C00000006000000020000000000000000EC83400000000005804DC000000000006062400000000000EC83400000000005804DC000000000006060400C000000130000001A0000003C00000006000000020000000000000000EC
310
83400000000005804DC00000000000606040000000403DF4834000000000004024BF00000040A44A60400C00000013000000220000003C0000000600000002000000000000E04CD3834000000000000024BF000000E0B80F6040000000A0EF3383400000000000C023BF000000E0F35460400C000000130000002A0000003C
310
0000000600000002000000000000403DF4834000000000004024BF0000000000606240000000A0EF3383400000000000C023BF000000E0F35460400C00000013000000320000003C0000000600000002000000000000403DF4834000000000004024BF00000040A44A6040000000E04CD3834000000000000024BF000000E0
310
B80F60400C000000130000003A0000003C0000000600000002000000000000403DF4834000000000004024BF000000000060624000000020B82883400000000000C023BF00000000029B60400C00000013000000420000003C0000000600000002000000000000A0EF3383400000000000C023BF000000E0F3546040000000
310
20B82883400000000000C023BF00000000029B60400C000000130000004A0000003C0000000600000002000000000000403DF4834000000000004024BF0000000000606240000000209513834000000000008023BF000000C0B9BE60400C00000013000000520000003C000000060000000200000000000020951383400000
310
0000008023BF000000C0B9BE604000000020B82883400000000000C023BF00000000029B60400C000000130000005A0000003C000000060000000200000000000040F5F9824000000000008023BF000000000086B43F000000009BFA82400000004071D33CC0000000000077BE3F0C00000013000000620000003C00000006
310
000000020000000000000000F48240000000C009003CC00000000000000000000000009BFA82400000004071D33CC0000000000077BE3F0C000000130000006A0000003C00000006000000020000000000000000F4824000000000008023BF00000000000000000000000000F48240000000C009003CC00000000000000000
310
0C00000013000000720000003C00000006000000020000000000000000F4824000000000008023BF000000000000000000000040F5F9824000000000008023BF000000000086B43F0C000000130000007A0000003C000000060000000200000000000000E9F7824000000000008023BF00000000E4DC1B4000000040F5F982
310
4000000000008023BF000000000086B43F0C00000013000000820000003C000000060000000200000000000000E9F7824000000000008023BF00000000E4DC1B40000000A06600834000000000008023BF0000000058761A400C000000130000008A0000003C0000000600000002000000000000A066008340000000000080
310
23BF0000000058761A40000000A03702834000000000008023BF000000004042E03F0C00000013000000920000003C0000000600000002000000000000A03702834000000000008023BF000000004042E03F00000040F5F9824000000000008023BF000000000086B43F0C000000130000009A0000003C0000000600000002
310
00000000000000E9F7824000000000008023BF00000000E4DC1B4000000000E9F7824000000000008023BF00000000B61025400C00000013000000A20000003C00000006000000020000000000000000F4824000000000008023BF000000000000000000000000E9F7824000000000008023BF00000000E4DC1B400C000000
310
13000000AA0000003C00000006000000020000000000000000F4824000000000008023BF0000000000000000000000A0E5EF824000000000008023BF000000007C1025400C00000013000000B20000003C000000060000000200000000000000E9F7824000000000008023BF00000000B6102540000000A0E5EF8240000000
310
00008023BF000000007C1025400C00000013000000BA0000003C00000006000000020000000000000000F48240000000C009003CC00000000000001C400000000000F48240000000C009003CC000000000000024400C00000013000000C20000003C000000060000000200000000000000E9F7824000000000008023BF0000
310
0000E4DC1B400000000000F48240000000C009003CC00000000000001C400C00000013000000CA0000003C00000006000000020000000000000000F48240000000C009003CC0000000000000244000000000E9F7824000000000008023BF00000000B61025400C00000013000000D20000003C000000060000000200000000
310
0000A06600834000000000008023BF0000000058761A4000000020A409834000000000008023BF0000000096C116400C00000013000000DA0000003C000000060000000200000000000020A409834000000000008023BF0000000096C11640000000E0E10A834000000000008023BF000000007849F83F0C00000013000000
310
E20000003C0000000600000002000000000000E0E10A834000000000008023BF000000007849F83F000000A03702834000000000008023BF000000004042E03F0C00000013000000EA0000003C000000060000000200000000000020A409834000000000008023BF0000000096C1164000000080F60E834000000000008023
310
BF00000000087711400C00000013000000F20000003C000000060000000200000000000080F60E834000000000008023BF000000000877114000000040670F834000000000008023BF00000000881707400C00000013000000FA0000003C000000060000000200000000000040670F834000000000008023BF000000008817
310
0740000000E0E10A834000000000008023BF000000007849F83F0C00000013000000020100003C00000006000000020000000000000000EC83400000000005804DC000000000006060400000000000C483400000000005004BC000000000641560400C000000130000000A0100003C00000006000000020000000000000000
310
C483400000000005004BC00000000064156040000000E04CD3834000000000000024BF000000E0B80F60400C00000013000000120100003C0000000600000002000000000000A05FEC8240000000C0FC0B3BC000000000B7412440000000A0E5EF824000000000008023BF000000007C1025400C000000130000001A010000
310
3C00000006000000020000000000000000F48240000000C009003CC00000000000002440000000A05FEC8240000000C0FC0B3BC000000000B74124400C00000013000000220100003C000000060000000200000000000000B0D7824000000000008023BF000000001C0C2D40000000005CD7824000000000008023BF000000
310
0014D52B400C000000130000002A0100003C00000006000000020000000000000003D4824000000040630038C0000000009C352C4000000000B0D7824000000000008023BF000000001C0C2D400C00000013000000320100003C00000006000000020000000000000003D4824000000040630038C0000000009C352C400000
310
00E094D4824000000000A41238C000000000647B2A400C000000130000003A0100003C0000000600000002000000000000E094D4824000000000A41238C000000000647B2A40000000005CD7824000000000008023BF0000000014D52B400C00000013000000420100003C00000006000000020000000000000000BC824000
310
0000C0090035C00000000070502C40000000C0EEBE824000000000008023BF000000001C0C2D400C000000130000004A0100003C00000006000000020000000000000003D4824000000040630038C0000000009C352C400000000000BC8240000000C0090035C00000000070502C400C00000013000000520100003C000000
310
0600000002000000000000C0EEBE824000000000008023BF000000001C0C2D4000000000B0D7824000000000008023BF000000001C0C2D400C000000130000005A0100003C0000000600000002000000000000005CD7824000000000008023BF0000000014D52B40000000C0BDD8824000000000008023BF00000000C4EB29
310
400C00000013000000620100003C0000000600000002000000000000E094D4824000000000A41238C000000000647B2A4000000000C7D6824000000080EB5838C0000000006CBD28400C000000130000006A0100003C000000060000000200000000000000C7D6824000000080EB5838C0000000006CBD2840000000C0BDD8
310
824000000000008023BF00000000C4EB29400C00000013000000720100003C0000000600000002000000000000C0BDD8824000000000008023BF00000000C4EB2940000000A0BCDD824000000000008023BF00000000729727400C000000130000007A0100003C000000060000000200000000000000C7D6824000000080EB
310
5838C0000000006CBD2840000000C059DC824000000020430B39C00000000040A326400C00000013000000820100003C0000000600000002000000000000C059DC824000000020430B39C00000000040A32640000000A0BCDD824000000000008023BF00000000729727400C000000130000008A0100003C00000006000000
310
02000000000000C059DC824000000020430B39C00000000040A32640000000E04EE3824000000020E5E939C000000000583325400C00000013000000920100003C0000000600000002000000000000E04EE3824000000020E5E939C0000000005833254000000020D7E5824000000000008023BF000000000CE425400C0000
310
00130000009A0100003C0000000600000002000000000000A0BCDD824000000000008023BF000000007297274000000020D7E5824000000000008023BF000000000CE425400C00000013000000A20100003C0000000600000002000000000000E04EE3824000000020E5E939C00000000058332540000000A05FEC82400000
310
00C0FC0B3BC000000000B74124400C00000013000000AA0100003C000000060000000200000000000020D7E5824000000000008023BF000000000CE42540000000A0E5EF824000000000008023BF000000007C1025400C00000013000000B20100003C00000006000000020000000000000000BC8240000000C0090035C000
310
000020F2755240000000C0EEBE824000000000008023BF000000807C5E52400C00000013000000BA0100003C00000006000000020000000000000000BC8240000000C0090035C000000020F27552400000000000BC8240000000C0090035C00000000070502C400C00000013000000C20100003C0000000600000002000000
310
000000C0EEBE824000000000008023BF000000001C0C2D40000000C0EEBE824000000000008023BF000000807C5E52400C00000013000000CA0100003C000000060000000200000000000040C5EF824000000000008023BF000000807C5E5240000000C0EEBE824000000000008023BF000000807C5E52400C000000130000
310
00D20100003C00000006000000020000000000000000EC8240000000C009003BC000000020A67C524000000040C5EF824000000000008023BF000000807C5E52400C00000013000000DA0100003C00000006000000020000000000000000BC8240000000C0090035C000000020F27552400000000000EC8240000000C00900
310
3BC000000020A67C52400C00000013000000E20100003C000000060000000200000000000040C5EF824000000000008023BF000000807C5E524000000040C5EF824000000000008023BF000000807C1E56400C00000013000000EA0100003C00000006000000020000000000000000EC8240000000C009003BC000000020A6
310
3C564000000040C5EF824000000000008023BF000000807C1E56400C00000013000000F20100003C00000006000000020000000000000000EC8240000000C009003BC000000020A63C56400000000000EC8240000000C009003BC000000020A67C52400C00000013000000FA0100003C000000060000000200000000000080
310
3008834000000000008023BF000000807C1E564000000040C5EF824000000000008023BF000000807C1E56400C00000013000000020200003C00000006000000020000000000000000048340000000C009003EC00000000000405640000000803008834000000000008023BF000000807C1E56400C000000130000000A0200
310
003C00000006000000020000000000000000EC8240000000C009003BC000000020A63C56400000000000048340000000C009003EC000000000004056400C00000013000000120200003C0000000600000002000000000000803008834000000000008023BF000000E0D9275740000000803008834000000000008023BF0000
310
00807C1E56400C000000130000001A0200003C00000006000000020000000000000000048340000000C009003EC00000000000405740000000803008834000000000008023BF000000E0D92757400C00000013000000220200003C00000006000000020000000000000000048340000000C009003EC0000000000040564000
310
00000000048340000000C009003EC000000000004057400C000000130000002A0200003C00000006000000020000000000000000C483400000000005004BC00000000064156040000000203ED1834000000020E6D34BC00000000084DC5F400C00000013000000320200003C0000000600000002000000000000203ED18340
310
00000020E6D34BC00000000084DC5F400000002044D8834000000000000024BF0000004068FE5F400C000000130000003A0200003C0000000600000002000000000000E04CD3834000000000000024BF000000E0B80F60400000002044D8834000000000000024BF0000004068FE5F400C00000013000000420200003C0000
310
000600000002000000000000803008834000000000008023BF000000E0D927574000000040C5EF824000000000008023BF000000807C1E56400C000000130000004A0200003C000000060000000200000000000040C5EF824000000000008023BF000000807C1E5640000000C0EEBE824000000000008023BF000000807C5E
310
52400C00000013000000520200003C0000000600000002000000000000005CD7824000000000008023BF0000000014D52B40000000E06756824000000000004023BF00000000CB162C400C000000130000005A0200003C0000000600000002000000000000C0EEBE824000000000008023BF000000001C0C2D40000000E067
310
56824000000000004023BF00000000CB162C400C00000013000000620200003C0000000600000002000000000000E0874D8240000000402F151DC0000000A0DF77524000000000464E8240000000C0CBA41CC000000080BC1B31400C000000130000006A0200003C000000060000000200000000000020CC32824000000000
310
130022C0000000007D26314000000000464E8240000000C0CBA41CC000000080BC1B31400C00000013000000720200003C000000060000000200000000000020CC32824000000000130022C0000000007D26314000000040CC32824000000000130022C0000000A0DF7752400C000000130000007A0200003C000000060000
310
000200000000000040CC32824000000000130022C0000000A0DF775240000000E0874D8240000000402F151DC0000000A0DF7752400C00000013000000820200003C000000060000000200000000000020CC32824000000000130022C0000000007D263140000000A05F378240000000C096E91CC0000000009F722B400C00
310
0000130000008A0200003C000000060000000200000000000020CC32824000000000130022C0000000007D263140000000E0BB488240000000404CFA1CC0000000005FA92E400C00000013000000920200003C0000000600000002000000000000A05F378240000000C096E91CC0000000009F722B40000000E0BB48824000
310
0000404CFA1CC0000000005FA92E400C000000130000009A0200003C000000060000000200000000000000464E8240000000C0CBA41CC000000080BC1B3140000000E0BB488240000000404CFA1CC0000000005FA92E400C00000013000000A20200003C0000000600000002000000000000403F588240000000C021A01FC0
310
00000000ADA25540000000E0B13D824000000080852723C000000080819755400C00000013000000AA0200003C00000006000000020000000000002085E28240000000E02EA242C000000080ECF65F40000000E0B13D824000000080852723C000000080819755400C00000013000000B20200003C00000006000000020000
310
000000002085E28240000000E02EA242C000000080ECF65F40000000E0C0F8824000000000D20842C000000080ECF65F400C00000013000000BA0200003C0000000600000002000000000000E0C0F8824000000000D20842C000000080ECF65F40000000403F588240000000C021A01FC000000000ADA255400C0000001300
310
0000C20200003C0000000600000002000000000000E03045824000000000000023BF000000003E52284000000020FA41824000000000704512C000000000601E29400C00000013000000CA0200003C0000000600000002000000000000E0E635824000000000000023BF0000000004902740000000E0304582400000000000
310
0023BF000000003E5228400C00000013000000D20200003C0000000600000002000000000000E0E635824000000000000023BF000000000490274000000020CC3282400000000063BE11C000000000B65628400C00000013000000DA0200003C000000060000000200000000000020CC3282400000000063BE11C000000000
310
B656284000000020FA41824000000000704512C000000000601E29400C00000013000000E20200003C000000060000000200000000000020CC3282400000000063BE11C000000000B656284000000020CC328240000000000DF917C0000000004E2429400C00000013000000EA0200003C0000000600000002000000000000
310
20CC328240000000000DF917C0000000004E242940000000A05F378240000000C096E91CC0000000009F722B400C00000013000000F20200003C0000000600000002000000000000A05F378240000000C096E91CC0000000009F722B4000000020FA41824000000000704512C000000000601E29400C00000013000000FA02
310
00003C000000060000000200000000000000C05D824000000000004023BF000000A0DF77524000000020A55A82400000008063BE11C0000000A0DF7752400C00000013000000020300003C000000060000000200000000000000C05D824000000000004023BF0000000023C3304000000000C05D824000000000004023BF00
310
0000A0DF7752400C000000130000000A0300003C000000060000000200000000000000C05D824000000000004023BF0000000023C3304000000020A55A82400000008063BE11C0000000007D2631400C00000013000000120300003C000000060000000200000000000020A55A82400000008063BE11C0000000A0DF775240
310
00000020A55A82400000008063BE11C0000000007D2631400C000000130000001A0300003C0000000600000002000000000000C0EEBE824000000000008023BF000000807C5E5240000000405C66824000000000004023BF000000A0806855400C00000013000000220300003C0000000600000002000000000000C0EEBE82
310
4000000000008023BF000000807C5E524000000000C05D824000000000004023BF000000A0DF7752400C000000130000002A0300003C000000060000000200000000000000C05D824000000000004023BF000000A0DF775240000000405C66824000000000004023BF000000A0806855400C00000013000000320300003C00
310
00000600000002000000000000E06756824000000000004023BF00000000CB162C40000000603253824000000000245D12C000000000FAE42C400C000000130000003A0300003C000000060000000200000000000020A55A82400000008063BE11C0000000007D263140000000603253824000000000245D12C000000000FA
310
E42C400C00000013000000420300003C000000060000000200000000000000C05D824000000000004023BF0000000023C33040000000E06756824000000000004023BF00000000CB162C400C000000130000004A0300003C0000000600000002000000000000405C66824000000000004023BF000000A08068554000000060
310
BB64824000000040B23315C0000000400DAB55400C00000013000000520300003C000000060000000200000000000020A55A82400000008063BE11C0000000A0DF77524000000060BB64824000000040B23315C0000000400DAB55400C000000130000005A0300003C000000060000000200000000000020A55A8240000000
310
8063BE11C0000000A0DF775240000000E0874D8240000000402F151DC0000000A0DF7752400C00000013000000620300003C000000060000000200000000000020A55A82400000008063BE11C0000000007D26314000000000464E8240000000C0CBA41CC000000080BC1B31400C000000130000006A0300003C0000000600
310
000002000000000000603253824000000000245D12C000000000FAE42C40000000E0BB488240000000404CFA1CC0000000005FA92E400C00000013000000720300003C0000000600000002000000000000E0E87F824000000000004023BF000000E03040584000000040960683400000008042CD40C000000080ECF65F400C
310
000000130000007A0300003C0000000600000002000000000000405C66824000000000004023BF000000A080685540000000E0E87F824000000000004023BF000000E0304058400C00000013000000820300003C000000060000000200000000000040960683400000008042CD40C000000080ECF65F4000000060BB648240
310
00000040B23315C0000000400DAB55400C000000130000008A0300003C0000000600000002000000000000A0E1E1824000000000008023BF000000A052455D4000000040960683400000008042CD40C000000080ECF65F400C00000013000000920300003C0000000600000002000000000000208AA9824000000000004023
310
BF000000E091E65A40000000A0E1E1824000000000008023BF000000A052455D400C000000130000009A0300003C0000000600000002000000000000208AA9824000000000004023BF000000E091E65A4000000040960683400000008042CD40C000000080ECF65F400C00000013000000A20300003C000000060000000200
310
0000000000A0E1E1824000000000008023BF000000A052455D4000000080D42B83400000000000C023BF0000008054725F400C00000013000000AA0300003C000000060000000200000000000040960683400000008042CD40C000000080ECF65F4000000080D42B83400000000000C023BF0000008054725F400C00000013
310
000000B20300003C000000060000000200000000000040960683400000008042CD40C000000080ECF65F40000000E0C0F8824000000000D20842C000000080ECF65F400C00000013000000BA0300003C000000060000000200000000000060BB64824000000040B23315C0000000400DAB5540000000403F588240000000C0
310
21A01FC000000000ADA255400C00000013000000C20300003C00000006000000020000000000002085E2824000000040A96441C0000000804D9D6040000000E008F38240000000802F0641C000000020269260400C00000013000000CA0300003C00000006000000020000000000008004E6824000000060A58B40C0000000
310
80A1A760400000002085E2824000000040A96441C0000000804D9D60400C00000013000000D20300003C00000006000000020000000000008004E6824000000060A58B40C000000080A1A76040000000E008F38240000000802F0641C000000020269260400C00000013000000DA0300003C00000006000000020000000000
310
00E008F38240000000802F0641C00000002026926040000000E0C0F8824000000000D20842C000000080ECF65F400C00000013000000E20300003C00000006000000020000000000002085E28240000000E02EA242C000000080ECF65F400000002085E2824000000040A96441C0000000804D9D60400C00000013000000EA
310
0300003C0000000600000002000000000000E03045824000000000000023BF000000003E522840000000E06756824000000000004023BF00000000CB162C400C00000013000000F20300003C0000000600000002000000000000603253824000000000245D12C000000000FAE42C4000000020FA41824000000000704512C0
310
00000000601E29400C00000013000000FA0300003C0000000600000002000000000000E008F38240000000802F0641C0000000202692604000000020B82883400000000000C023BF00000000029B60400C00000013000000020400003C0000000600000002000000000000209513834000000000008023BF000000C0B9BE60
310
400000008004E6824000000060A58B40C000000080A1A760400C000000130000000A0400003C000000060000000200000000000040960683400000008042CD40C000000080ECF65F40000000A0EF3383400000000000C023BF000000E0F35460400C00000013000000120400003C0000000600000002000000000000409606
310
83400000008042CD40C000000080ECF65F40000000E008F38240000000802F0641C000000020269260400C000000130000001A0400003C000000060000000200000000000040960683400000008042CD40C000000080ECF65F4000000060DB3583400000000000C023BF000000E0920260400C00000013000000220400003C
310
000000060000000200000000000060DB3583400000000000C023BF000000E092026040000000A0EF3383400000000000C023BF000000E0F35460400C000000130000002A0400003C000000060000000200000000000080D42B83400000000000C023BF0000008054725F4000000060DB3583400000000000C023BF000000E0
310
920260400C00000013000000320400003C0000000600000002000000000000601DFD824000000040B1233DC00000000036281B400000000000F48240000000C009003CC00000000000001C400C000000130000003A0400003C0000000600000002000000000000A06600834000000000008023BF0000000058761A40000000
310
601DFD824000000040B1233DC00000000036281B400C00000013000000420400003C000000060000000200000000000020D8068340000000200D5B3EC000000000803E1840000000601DFD824000000040B1233DC00000000036281B400C000000130000004A0400003C000000060000000200000000000020A40983400000
310
0000008023BF0000000096C1164000000020D8068340000000200D5B3EC000000000803E18400C00000013000000520400003C0000000600000002000000000000A0660D8340000000E0DB2C3FC0000000004298134000000020D8068340000000200D5B3EC000000000803E18400C000000130000005A0400003C00000006
310
0000000200000000000080F60E834000000000008023BF0000000008771140000000A0660D8340000000E0DB2C3FC000000000429813400C00000013000000620400003C0000000600000002000000000000E0CA0F8340000000C068793FC00000000098690B40000000A0660D8340000000E0DB2C3FC00000000042981340
310
0C000000130000006A0400003C000000060000000200000000000040670F834000000000008023BF0000000088170740000000E0CA0F8340000000C068793FC00000000098690B400C00000013000000720400003C0000000600000002000000000000E0660D834000000020E72C3FC0000000003CD00040000000E0CA0F83
310
40000000C068793FC00000000098690B400C000000130000007A0400003C0000000600000002000000000000E0E10A834000000000008023BF000000007849F83F000000E0660D834000000020E72C3FC0000000003CD000400C00000013000000820400003C0000000600000002000000000000605506834000000040B64A
310
3EC000000000E0BAEC3F000000E0660D834000000020E72C3FC0000000003CD000400C000000130000008A0400003C0000000600000002000000000000A03702834000000000008023BF000000004042E03F000000605506834000000040B64A3EC000000000E0BAEC3F0C00000013000000920400003C0000000600000002
310
000000000000009BFA82400000004071D33CC0000000000077BE3F000000605506834000000040B64A3EC000000000E0BAEC3F0C000000130000009A0400003C0000000600000002000000000000C0EEBE824000000000008023BF000000001C0C2D4000000000C05D824000000000004023BF0000000023C330400C000000
310
13000000A20400003C0000000600000002000000000000403F588240000000C021A01FC000000000ADA25540000000E0874D8240000000402F151DC0000000A0DF7752400C00000013000000AA0400003C000000060000000200000000000040CC32824000000000130022C0000000A0DF775240000000E0B13D8240000000
310
80852723C000000080819755400C00000013000000B20400003C0000000600000002000000000000C0BDD8824000000000008023BF00000000C4EB2940000000E03045824000000000000023BF000000003E5228400C00000013000000BA0400003C0000000600000002000000000000A0BCDD824000000000008023BF0000
310
000072972740000000E0E635824000000000000023BF00000000049027400C00000013000000C20400003C0000000600000002000000000000203ED1834000000020E6D34BC00000000084DC5F40000000E0B7DA8340000000E0836B4CC000000080C88A5F400C00000013000000CA0400003C000000060000000200000000
310
0000E0B7DA8340000000E0836B4CC000000080C88A5F400000006073E2834000000000000024BF00000000C89E5F400C00000013000000D20400003C00000006000000020000000000002044D8834000000000000024BF0000004068FE5F400000006073E2834000000000000024BF00000000C89E5F400C00000013000000
310
DA0400003C0000000600000002000000000000E0B7DA8340000000E0836B4CC000000080C88A5F4000000080F7DE8340000000C07CAF4CC00000008051275F400C00000013000000E20400003C000000060000000200000000000080F7DE8340000000C07CAF4CC00000008051275F4000000020FFE6834000000000004024
310
BF00000060FD295F400C00000013000000EA0400003C00000006000000020000000000006073E2834000000000000024BF00000000C89E5F4000000020FFE6834000000000004024BF00000060FD295F400C00000013000000F20400003C000000060000000200000000000020FFE6834000000000004024BF00000060FD29
310
5F40000000A0CCE6834000000000004024BF000000A0AAAD5E400C00000013000000FA0400003C000000060000000200000000000080F7DE8340000000C07CAF4CC00000008051275F40000000C09CDE834000000020D1A94CC0000000E00BA95E400C00000013000000020500003C0000000600000002000000000000C09C
310
DE834000000020D1A94CC0000000E00BA95E40000000A0CCE6834000000000004024BF000000A0AAAD5E400C000000130000000A0500003C0000000600000002000000000000A0CCE6834000000000004024BF000000A0AAAD5E4000000060BEE2834000000000000024BF00000060E2425E400C0000001300000012050000
310
3C0000000600000002000000000000C09CDE834000000020D1A94CC0000000E00BA95E400000002050DB8340000000A006754CC0000000403A595E400C000000130000001A0500003C00000006000000020000000000002050DB8340000000A006754CC0000000403A595E4000000060BEE2834000000000000024BF000000
310
60E2425E400C00000013000000220500003C000000060000000200000000000060BEE2834000000000000024BF00000060E2425E40000000009BDB834000000000000024BF00000000D7EB5D400C000000130000002A0500003C00000006000000020000000000002050DB8340000000A006754CC0000000403A595E400000
310
00202FD5834000000060F6124CC000000040C7105E400C00000013000000320500003C0000000600000002000000000000202FD5834000000060F6124CC000000040C7105E40000000009BDB834000000000000024BF00000000D7EB5D400C000000130000003A0500003C0000000600000002000000000000009BDB834000
310
000000000024BF00000000D7EB5D4000000020F4CC834000000000000024BF0000004040925D400C00000013000000420500003C0000000600000002000000000000202FD5834000000060F6124CC000000040C7105E40000000E014C883400000002053414BC00000008088C15D400C000000130000004A0500003C000000
310
0600000002000000000000E014C883400000002053414BC00000008088C15D4000000020F4CC834000000000000024BF0000004040925D400C00000013000000520500003C000000060000000200000000000020F4CC834000000000000024BF0000004040925D4000000060D5B9834000000000000024BF000000803F565D
310
400C000000130000005A0500003C0000000600000002000000000000E014C883400000002053414BC00000008088C15D4000000000D5B5834000000020551D4AC0000000E0418A5D400C00000013000000620500003C000000060000000200000000000000D5B5834000000020551D4AC0000000E0418A5D4000000060D5B9
310
834000000000000024BF000000803F565D400C000000130000006A0500003C000000060000000200000000000060D5B9834000000000000024BF000000803F565D40000000602DA6834000000000000024BF00000000F9365D400C00000013000000720500003C000000060000000200000000000000D5B583400000002055
310
1D4AC0000000E0418A5D400000008030A48340000000600C0349C000000000F06C5D400C000000130000007A0500003C00000006000000020000000000008030A48340000000600C0349C000000000F06C5D40000000602DA6834000000000000024BF00000000F9365D400C00000013000000820500003C00000006000000
310
02000000000000602DA6834000000000000024BF00000000F9365D4000000040D793834000000000000024BF00000000B9175D400C000000130000008A0500003C00000006000000020000000000008030A48340000000600C0349C000000000F06C5D4000000060159183400000002056D147C000000040B8485D400C0000
310
0013000000920500003C000000060000000200000000000060159183400000002056D147C000000040B8485D4000000040D793834000000000000024BF00000000B9175D400C000000130000009A0500003C000000060000000200000000000040D793834000000000000024BF00000000B9175D4000000080928183400000
310
0000000024BF0000002042E45C400C00000013000000A20500003C000000060000000200000000000060159183400000002056D147C000000040B8485D4000000020B67D834000000000689B46C000000000C80D5D400C00000013000000AA0500003C000000060000000200000000000020B67D834000000000689B46C000
310
000000C80D5D40000000809281834000000000000024BF0000002042E45C400C00000013000000B20500003C0000000600000002000000000000809281834000000000000024BF0000002042E45C40000000A0317083400000000000C023BF000000806F9C5C400C00000013000000BA0500003C0000000600000002000000
310
00000020B67D834000000000689B46C000000000C80D5D4000000080906B8340000000400E7945C000000040BEBD5C400C00000013000000C20500003C000000060000000200000000000080906B8340000000400E7945C000000040BEBD5C40000000A0317083400000000000C023BF000000806F9C5C400C000000130000
310
00CA0500003C0000000600000002000000000000A0317083400000000000C023BF000000806F9C5C4000000060F05F83400000000000C023BF00000080043E5C400C00000013000000D20500003C000000060000000200000000000080906B8340000000400E7945C000000040BEBD5C4000000020105B8340000000A00671
310
44C00000008095585C400C00000013000000DA0500003C000000060000000200000000000020105B8340000000A0067144C00000008095585C4000000060F05F83400000000000C023BF00000080043E5C400C00000013000000E20500003C000000060000000200000000000060F05F83400000000000C023BF0000008004
310
3E5C4000000080B65183400000000000C023BF00000080F4C55B400C00000013000000EA0500003C000000060000000200000000000020105B8340000000A0067144C00000008095585C40000000A0994C8340000000A09D8943C0000000E0D3D75B400C00000013000000F20500003C0000000600000002000000000000A0
310
994C8340000000A09D8943C0000000E0D3D75B4000000080B65183400000000000C023BF00000080F4C55B400C00000013000000FA0500003C000000060000000200000000000080B65183400000000000C023BF00000080F4C55B4000000020D94583400000000000C023BF000000403C2C5B400C00000013000000020600
310
003C0000000600000002000000000000A0994C8340000000A09D8943C0000000E0D3D75B4000000020314083400000006016C342C0000000808A2F5B400C000000130000000A0600003C000000060000000200000000000020314083400000006016C342C0000000808A2F5B4000000020D94583400000000000C023BF0000
310
00403C2C5B400C00000013000000120600003C000000060000000200000000000020D94583400000000000C023BF000000403C2C5B4000000060413C83400000000000C023BF00000080275E5A400C000000130000001A0600003C000000060000000200000000000020314083400000006016C342C0000000808A2F5B4000
310
000060DC36834000000000CA2D42C0000000405C5A5A400C00000013000000220600003C000000060000000200000000000060DC36834000000000CA2D42C0000000405C5A5A4000000060413C83400000000000C023BF00000080275E5A400C000000130000002A0600003C000000060000000200000000000060413C8340
310
0000000000C023BF00000080275E5A40000000409D3683400000000000C023BF000000E0948459400C00000013000000320600003C000000060000000200000000000060DC36834000000000CA2D42C0000000405C5A5A400000004079318340000000C099D741C0000000C07B8059400C000000130000003A0600003C0000
310
0006000000020000000000004079318340000000C099D741C0000000C07B805940000000409D3683400000000000C023BF000000E0948459400C00000013000000420600003C0000000600000002000000000000409D3683400000000000C023BF000000E094845940000000A0DE3183400000000000C023BF000000A039A9
310
58400C000000130000004A0600003C00000006000000020000000000004079318340000000C099D741C0000000C07B80594000000000C72C8340000000C0748C41C0000000006BA558400C00000013000000520600003C000000060000000200000000000000C72C8340000000C0748C41C0000000006BA55840000000A0DE
310
3183400000000000C023BF000000A039A958400C000000130000005A0600003C0000000600000002000000000000A0DE3183400000000000C023BF000000A039A9584000000000AD2983400000000000C023BF000000C0EDDD57400C00000013000000620600003C000000060000000200000000000000C72C8340000000C0
310
748C41C0000000006BA55840000000C0A424834000000080500A41C000000000B3E357400C000000130000006A0600003C0000000600000002000000000000C0A424834000000080500A41C000000000B3E3574000000000AD2983400000000000C023BF000000C0EDDD57400C00000013000000720600003C000000060000
310
000200000000000000AD2983400000000000C023BF000000C0EDDD5740000000E0AE1983400000000000C023BF00000040D75F57400C000000130000007A0600003C0000000600000002000000000000C0A424834000000080500A41C000000000B3E35740000000001B16834000000080B32140C0000000C0AF7857400C00
310
000013000000820600003C0000000600000002000000000000001B16834000000080B32140C0000000C0AF785740000000E0AE1983400000000000C023BF00000040D75F57400C000000130000008A0600003C0000000600000002000000000000803008834000000000008023BF000000E0D9275740000000E0AE19834000
310
00000000C023BF00000040D75F57400C00000013000000920600003C00000006000000020000000000000000048340000000C009003EC00000000000405740000000001B16834000000080B32140C0000000C0AF7857400C000000130000009A0600003C000000060000000200000000000060DB3583400000000000C023BF
310
000000E0920260400000002044D8834000000000000024BF0000004068FE5F400C00000013000000A20600003C0000000600000002000000000000A0E1E1824000000000008023BF000000A052455D40000000E0AE1983400000000000C023BF00000040D75F57400C00000013000000AA0600003C00000006000000020000
310
00000000A0E1E1824000000000008023BF000000A052455D4000000000AD2983400000000000C023BF000000C0EDDD57400C00000013000000B20600003C0000000600000002000000000000A0E1E1824000000000008023BF000000A052455D40000000A0DE3183400000000000C023BF000000A039A958400C0000001300
310
0000BA0600003C000000060000000200000000000060DB3583400000000000C023BF000000E0920260400000006073E2834000000000000024BF00000000C89E5F400C00000013000000C20600003C000000060000000200000000000060DB3583400000000000C023BF000000E09202604000000020FFE683400000000000
310
4024BF00000060FD295F400C00000013000000CA0600003C000000060000000200000000000080D42B83400000000000C023BF0000008054725F40000000A0CCE6834000000000004024BF000000A0AAAD5E400C00000013000000D20600003C000000060000000200000000000080D42B83400000000000C023BF00000080
310
54725F4000000060BEE2834000000000000024BF00000060E2425E400C00000013000000DA0600003C000000060000000200000000000080D42B83400000000000C023BF0000008054725F40000000009BDB834000000000000024BF00000000D7EB5D400C00000013000000E20600003C0000000600000002000000000000
310
80D42B83400000000000C023BF0000008054725F4000000020F4CC834000000000000024BF0000004040925D400C00000013000000EA0600003C000000060000000200000000000080D42B83400000000000C023BF0000008054725F4000000060D5B9834000000000000024BF000000803F565D400C00000013000000F206
310
00003C000000060000000200000000000080D42B83400000000000C023BF0000008054725F40000000602DA6834000000000000024BF00000000F9365D400C00000013000000FA0600003C000000060000000200000000000080D42B83400000000000C023BF0000008054725F4000000040D793834000000000000024BF00
310
000000B9175D400C00000013000000020700003C000000060000000200000000000080D42B83400000000000C023BF0000008054725F40000000809281834000000000000024BF0000002042E45C400C000000130000000A0700003C000000060000000200000000000080D42B83400000000000C023BF0000008054725F40
310
000000A0317083400000000000C023BF000000806F9C5C400C00000013000000120700003C000000060000000200000000000080D42B83400000000000C023BF0000008054725F4000000060F05F83400000000000C023BF00000080043E5C400C000000130000001A0700003C000000060000000200000000000080D42B83
310
400000000000C023BF0000008054725F4000000080B65183400000000000C023BF00000080F4C55B400C00000013000000220700003C000000060000000200000000000080D42B83400000000000C023BF0000008054725F4000000020D94583400000000000C023BF000000403C2C5B400C000000130000002A0700003C00
310
00000600000002000000000000A0E1E1824000000000008023BF000000A052455D4000000060413C83400000000000C023BF00000080275E5A400C00000013000000320700003C0000000600000002000000000000A0E1E1824000000000008023BF000000A052455D40000000409D3683400000000000C023BF000000E094
310
8459400C000000130000003A0700003C000000060000000200000000000040C5EF824000000000008023BF000000807C1E5640000000E0E87F824000000000004023BF000000E0304058400C00000013000000420700003C0000000600000002000000000000E0E87F824000000000004023BF000000E03040584000000020
310
8AA9824000000000004023BF000000E091E65A400C000000130000004A0700003C0000000600000002000000000000803008834000000000008023BF000000E0D9275740000000208AA9824000000000004023BF000000E091E65A400C00000013000000520700003C00000006000000020000000000000000F48240000000
310
C009003CC000000000000000000000000000F482C0000000C0FDFF3BC000000000000000000C000000130000005A0700003C00000006000000020000000000000000F482C0000000C0FDFF3BC000000000000000000000000000F482C0000000000000023F00000000000000000C00000013000000620700003C0000000600
310
0000020000000000000000F4824000000000008023BF00000000000000000000000000F482C0000000000000023F00000000000000000C000000130000006A0700003C0000000600000002000000000000605506834000000040B64A3EC000000000E0BAEC3F00000060550683C000000040AA4A3EC000000000E0BAEC3F0C
310
00000013000000720700003C0000000600000002000000000000009BFA82C00000004065D33CC0000000000077BE3F00000060550683C000000040AA4A3EC000000000E0BAEC3F0C000000130000007A0700003C0000000600000002000000000000009BFA82400000004071D33CC0000000000077BE3F000000009BFA82C0
310
0000004065D33CC0000000000077BE3F0C00000013000000820700003C0000000600000002000000000000A0660D8340000000E0DB2C3FC00000000042981340000000A0660D83C0000000C0CF2C3FC000000000429813400C000000130000008A0700003C0000000600000002000000000000A0660D83C0000000C0CF2C3F
310
C00000000042981340000000E0CA0F83C0000000C05C793FC00000000098690B400C00000013000000920700003C0000000600000002000000000000E0CA0F8340000000C068793FC00000000098690B40000000E0CA0F83C0000000C05C793FC00000000098690B400C000000130000009A0700003C000000060000000200
310
000000000020D8068340000000200D5B3EC000000000803E184000000020D80683C000000000015B3EC000000000803E18400C00000013000000A20700003C000000060000000200000000000020D80683C000000000015B3EC000000000803E1840000000A0660D83C0000000C0CF2C3FC000000000429813400C00000013
310
000000AA0700003C0000000600000002000000000000601DFD824000000040B1233DC00000000036281B40000000601DFD82C000000040A5233DC00000000036281B400C00000013000000B20700003C0000000600000002000000000000601DFD82C000000040A5233DC00000000036281B4000000020D80683C000000000
310
015B3EC000000000803E18400C00000013000000BA0700003C00000006000000020000000000000000F48240000000C009003CC00000000000001C400000000000F482C0000000C0FDFF3BC00000000000001C400C00000013000000C20700003C00000006000000020000000000000000F482C0000000C0FDFF3BC0000000
310
0000001C40000000601DFD82C000000040A5233DC00000000036281B400C00000013000000CA0700003C00000006000000020000000000000000F48240000000C009003CC000000000000024400000000000F482C0000000C0FDFF3BC000000000000024400C00000013000000D20700003C00000006000000020000000000
310
000000F482C0000000C0FDFF3BC000000000000024400000000000F482C0000000C0FDFF3BC00000000000001C400C00000013000000DA0700003C0000000600000002000000000000A05FEC8240000000C0FC0B3BC000000000B7412440000000A05FEC82C0000000C0F00B3BC000000000B74124400C00000013000000E2
310
0700003C00000006000000020000000000000000F482C0000000C0FDFF3BC00000000000002440000000A05FEC82C0000000C0F00B3BC000000000B74124400C00000013000000EA0700003C0000000600000002000000000000E04EE3824000000020E5E939C00000000058332540000000E04EE382C000000020D9E939C0
310
00000000583325400C00000013000000F20700003C0000000600000002000000000000A05FEC82C0000000C0F00B3BC000000000B7412440000000E04EE382C000000020D9E939C000000000583325400C00000013000000FA0700003C0000000600000002000000000000C059DC824000000020430B39C00000000040A326
310
40000000C059DC82C000000020370B39C00000000040A326400C00000013000000020800003C0000000600000002000000000000C059DC82C000000020370B39C00000000040A32640000000E04EE382C000000020D9E939C000000000583325400C000000130000000A0800003C00000006000000020000000000000000EC
310
8240000000C009003BC000000020A67C52400000000000EC82C0000000C0FDFF3AC000000020A67C52400C00000013000000120800003C00000006000000020000000000000000BC82C0000000E0FDFF34C000000020F27552400000000000EC82C0000000C0FDFF3AC000000020A67C52400C000000130000001A0800003C
310
00000006000000020000000000000000BC8240000000C0090035C000000020F27552400000000000BC82C0000000E0FDFF34C000000020F27552400C00000013000000220800003C00000006000000020000000000000000EC8240000000C009003BC000000020A63C56400000000000EC82C0000000C0FDFF3AC000000020
310
A63C56400C000000130000002A0800003C00000006000000020000000000000000EC82C0000000C0FDFF3AC000000020A67C52400000000000EC82C0000000C0FDFF3AC000000020A63C56400C00000013000000320800003C0000000600000002000000000000001B16834000000080B32140C0000000C0AF785740000000
310
001B1683C000000080AD2140C0000000C0AF7857400C000000130000003A0800003C000000060000000200000000000000000483C0000000C0FDFF3DC00000000000405740000000001B1683C000000080AD2140C0000000C0AF7857400C00000013000000420800003C000000060000000200000000000000000483400000
310
00C009003EC0000000000040574000000000000483C0000000C0FDFF3DC000000000004057400C000000130000004A0800003C0000000600000002000000000000C0A424834000000080500A41C000000000B3E35740000000C0A42483C0000000804A0A41C000000000B3E357400C00000013000000520800003C00000006
310
00000002000000000000C0A42483C0000000804A0A41C000000000B3E35740000000001B1683C000000080AD2140C0000000C0AF7857400C000000130000005A0800003C000000060000000200000000000000C72C8340000000C0748C41C0000000006BA5584000000000C72C83C0000000A06E8C41C0000000006BA55840
310
0C00000013000000620800003C000000060000000200000000000000C72C83C0000000A06E8C41C0000000006BA55840000000C0A42483C0000000804A0A41C000000000B3E357400C000000130000006A0800003C000000060000000200000000000060DC36834000000000CA2D42C0000000405C5A5A4000000060DC3683
310
C000000000C42D42C0000000405C5A5A400C00000013000000720800003C000000060000000200000000000060DC3683C000000000C42D42C0000000405C5A5A4000000040793183C0000000C093D741C0000000C07B8059400C000000130000007A0800003C00000006000000020000000000004079318340000000C099D7
310
41C0000000C07B80594000000040793183C0000000C093D741C0000000C07B8059400C00000013000000820800003C000000060000000200000000000080906B8340000000400E7945C000000040BEBD5C4000000080906B83C000000040087945C000000040BEBD5C400C000000130000008A0800003C0000000600000002
310
00000000000080906B83C000000040087945C000000040BEBD5C4000000020105B83C000000080007144C00000008095585C400C00000013000000920800003C000000060000000200000000000020105B8340000000A0067144C00000008095585C4000000020105B83C000000080007144C00000008095585C400C000000
310
130000009A0800003C00000006000000020000000000008030A48340000000600C0349C000000000F06C5D400000008030A483C000000020060349C000000000F06C5D400C00000013000000A20800003C00000006000000020000000000008030A483C000000020060349C000000000F06C5D4000000060159183C0000000
310
0050D147C000000040B8485D400C00000013000000AA0800003C000000060000000200000000000060159183400000002056D147C000000040B8485D4000000060159183C00000000050D147C000000040B8485D400C00000013000000B20800003C000000060000000200000000000000D5B5834000000020551D4AC00000
310
00E0418A5D4000000000D5B583C0000000E04E1D4AC0000000E0418A5D400C00000013000000BA0800003C000000060000000200000000000000D5B583C0000000E04E1D4AC0000000E0418A5D400000008030A483C000000020060349C000000000F06C5D400C00000013000000C20800003C000000060000000200000000
310
0000E014C883400000002053414BC00000008088C15D40000000E014C883C0000000E04C414BC00000008088C15D400C00000013000000CA0800003C0000000600000002000000000000E014C883C0000000E04C414BC00000008088C15D4000000000D5B583C0000000E04E1D4AC0000000E0418A5D400C00000013000000
310
D20800003C0000000600000002000000000000202FD5834000000060F6124CC000000040C7105E40000000202FD583C000000020F0124CC000000040C7105E400C00000013000000DA0800003C0000000600000002000000000000202FD583C000000020F0124CC000000040C7105E40000000E014C883C0000000E04C414B
310
C00000008088C15D400C00000013000000E20800003C00000006000000020000000000002050DB8340000000A006754CC0000000403A595E400000002050DB83C00000006000754CC0000000403A595E400C00000013000000EA0800003C00000006000000020000000000002050DB83C00000006000754CC0000000403A59
310
5E40000000202FD583C000000020F0124CC000000040C7105E400C00000013000000F20800003C0000000600000002000000000000203ED1834000000020E6D34BC00000000084DC5F40000000203ED183C0000000E0DFD34BC00000000084DC5F400C00000013000000FA0800003C0000000600000002000000000000203E
310
D183C0000000E0DFD34BC00000000084DC5F40000000E0B7DA83C0000000A07D6B4CC000000080C88A5F400C00000013000000020900003C0000000600000002000000000000E0B7DA8340000000E0836B4CC000000080C88A5F40000000E0B7DA83C0000000A07D6B4CC000000080C88A5F400C000000130000000A090000
310
3C00000006000000020000000000000000C483400000000005004BC000000000641560400000000000C483C0000000C0FEFF4AC000000000641560400C00000013000000120900003C00000006000000020000000000000000C483C0000000C0FEFF4AC00000000064156040000000203ED183C0000000E0DFD34BC0000000
310
0084DC5F400C000000130000001A0900003C00000006000000020000000000000000EC83400000000005804DC000000000006062400000000000EC83C0000000C0FE7F4DC000000000006062400C00000013000000220900003C00000006000000020000000000000000EC83C0000000C0FE7F4DC000000000006062400000
310
000000EC83C0000000C0FE7F4DC000000000006060400C000000130000002A0900003C00000006000000020000000000000000EC83400000000005804DC000000000006060400000000000EC83C0000000C0FE7F4DC000000000006060400C00000013000000320900003C0000000600000002000000000000403DF4834000
310
000000004024BF0000000000606240000000403DF483C0000000000000043F00000000006062400C000000130000003A0900003C0000000600000002000000000000403DF483C0000000000000043F00000000006062400000000000EC83C0000000C0FE7F4DC000000000006062400C00000013000000420900003C000000
310
06000000020000000000008004E6824000000060A58B40C000000080A1A760400000008004E682C0000000609F8B40C000000080A1A760400C000000130000004A0900003C000000060000000200000000000020951383C0000000000000023F000000C0B9BE60400000008004E682C0000000609F8B40C000000080A1A760
310
400C00000013000000520900003C0000000600000002000000000000209513834000000000008023BF000000C0B9BE604000000020951383C0000000000000023F000000C0B9BE60400C000000130000005A0900003C000000060000000200000000000020CC32824000000000130022C0000000007D26314000000020CC32
310
82C000000000FCFF21C0000000007D2631400C00000013000000620900003C000000060000000200000000000020CC3282C000000000FCFF21C0000000007D26314000000040CC3282C000000000FCFF21C0000000A0DF7752400C000000130000006A0900003C000000060000000200000000000040CC3282400000000013
310
0022C0000000A0DF77524000000040CC3282C000000000FCFF21C0000000A0DF7752400C00000013000000720900003C000000060000000200000000000020CC3282400000000063BE11C000000000B656284000000020CC3282C00000000035BE11C000000000B65628400C000000130000007A0900003C00000006000000
310
0200000000000020CC3282C00000000035BE11C000000000B656284000000020CC3282C000000000DFF817C0000000004E2429400C00000013000000820900003C000000060000000200000000000020CC328240000000000DF917C0000000004E24294000000020CC3282C000000000DFF817C0000000004E2429400C0000
310
00130000008A0900003C0000000600000002000000000000E0E635824000000000000023BF0000000004902740000000E0E63582C0000000000000003F00000000049027400C00000013000000920900003C0000000600000002000000000000E0E63582C0000000000000003F000000000490274000000020CC3282C00000
310
000035BE11C000000000B65628400C000000130000009A0900003C0000000600000002000000000000403DF483C0000000000000043F00000040A44A60400000000000EC83C0000000C0FE7F4DC000000000006060400C00000013000000A20900003C0000000600000002000000000000403DF483C0000000000000043F00
310
000040A44A6040000000403DF483C0000000000000043F00000000006062400C00000013000000AA0900003C0000000600000002000000000000403DF483C0000000000000043F00000040A44A6040000000E04CD383C0000000000000043F000000E0B80F60400C00000013000000B20900003C0000000600000002000000
310
000000403DF483C0000000000000043F0000000000606240000000A0EF3383C0000000000000033F000000E0F35460400C00000013000000BA0900003C0000000600000002000000000000E04CD383C0000000000000043F000000E0B80F6040000000A0EF3383C0000000000000033F000000E0F35460400C000000130000
310
00C20900003C0000000600000002000000000000A0EF3383C0000000000000033F000000E0F354604000000020B82883C0000000000000023F00000000029B60400C00000013000000CA0900003C0000000600000002000000000000403DF483C0000000000000043F000000000060624000000020B82883C0000000000000
310
023F00000000029B60400C00000013000000D20900003C000000060000000200000000000020951383C0000000000000023F000000C0B9BE604000000020B82883C0000000000000023F00000000029B60400C00000013000000DA0900003C0000000600000002000000000000403DF483C0000000000000043F0000000000
310
60624000000020951383C0000000000000023F000000C0B9BE60400C00000013000000E20900003C000000060000000200000000000040F5F982C0000000000000023F000000000086B43F0000000000F482C0000000000000023F00000000000000000C00000013000000EA0900003C000000060000000200000000000000
310
9BFA82C00000004065D33CC0000000000077BE3F0000000000F482C0000000C0FDFF3BC000000000000000000C00000013000000F20900003C000000060000000200000000000040F5F982C0000000000000023F000000000086B43F000000009BFA82C00000004065D33CC0000000000077BE3F0C00000013000000FA0900
310
003C000000060000000200000000000040F5F982C0000000000000023F000000000086B43F000000A0370283C0000000000000023F000000004042E03F0C00000013000000020A00003C0000000600000002000000000000A0660083C0000000000000023F0000000058761A40000000A0370283C0000000000000023F0000
310
00004042E03F0C000000130000000A0A00003C000000060000000200000000000000E9F782C0000000000000023F00000000E4DC1B40000000A0660083C0000000000000023F0000000058761A400C00000013000000120A00003C000000060000000200000000000040F5F982C0000000000000023F000000000086B43F00
310
000000E9F782C0000000000000023F00000000E4DC1B400C000000130000001A0A00003C000000060000000200000000000000E9F782C0000000000000023F00000000B6102540000000A0E5EF82C0000000000000023F000000007C1025400C00000013000000220A00003C00000006000000020000000000000000F482C0
310
000000000000023F0000000000000000000000A0E5EF82C0000000000000023F000000007C1025400C000000130000002A0A00003C00000006000000020000000000000000F482C0000000000000023F000000000000000000000000E9F782C0000000000000023F00000000E4DC1B400C00000013000000320A00003C0000
310
00060000000200000000000000E9F782C0000000000000023F00000000E4DC1B4000000000E9F782C0000000000000023F00000000B61025400C000000130000003A0A00003C000000060000000200000000000000E9F782C0000000000000023F00000000B61025400000000000F482C0000000C0FDFF3BC0000000000000
310
24400C00000013000000420A00003C000000060000000200000000000000E9F782C0000000000000023F00000000E4DC1B400000000000F482C0000000C0FDFF3BC00000000000001C400C000000130000004A0A00003C0000000600000002000000000000A0370283C0000000000000023F000000004042E03F000000E0E1
310
0A83C0000000000000023F000000007849F83F0C00000013000000520A00003C000000060000000200000000000020A40983C0000000000000023F0000000096C11640000000E0E10A83C0000000000000023F000000007849F83F0C000000130000005A0A00003C0000000600000002000000000000A0660083C000000000
310
0000023F0000000058761A4000000020A40983C0000000000000023F0000000096C116400C00000013000000620A00003C0000000600000002000000000000E0E10A83C0000000000000023F000000007849F83F00000040670F83C0000000000000023F00000000881707400C000000130000006A0A00003C000000060000
310
000200000000000080F60E83C0000000000000023F000000000877114000000040670F83C0000000000000023F00000000881707400C00000013000000720A00003C000000060000000200000000000020A40983C0000000000000023F0000000096C1164000000080F60E83C0000000000000023F00000000087711400C00
310
0000130000007A0A00003C0000000600000002000000000000E04CD383C0000000000000043F000000E0B80F60400000000000C483C0000000C0FEFF4AC000000000641560400C00000013000000820A00003C00000006000000020000000000000000EC83C0000000C0FE7F4DC000000000006060400000000000C483C000
310
0000C0FEFF4AC000000000641560400C000000130000008A0A00003C0000000600000002000000000000A0E5EF82C0000000000000023F000000007C102540000000A05FEC82C0000000C0F00B3BC000000000B74124400C00000013000000920A00003C0000000600000002000000000000005CD782C0000000000000023F
310
0000000014D52B40000000E094D482C000000000981238C000000000647B2A400C000000130000009A0A00003C00000006000000020000000000000003D482C000000040570038C0000000009C352C40000000E094D482C000000000981238C000000000647B2A400C00000013000000A20A00003C00000006000000020000
310
0000000000B0D782C0000000000000023F000000001C0C2D400000000003D482C000000040570038C0000000009C352C400C00000013000000AA0A00003C0000000600000002000000000000005CD782C0000000000000023F0000000014D52B4000000000B0D782C0000000000000023F000000001C0C2D400C0000001300
310
0000B20A00003C000000060000000200000000000000B0D782C0000000000000023F000000001C0C2D40000000C0EEBE82C0000000000000013F000000001C0C2D400C00000013000000BA0A00003C00000006000000020000000000000003D482C000000040570038C0000000009C352C400000000000BC82C0000000E0FD
310
FF34C00000000070502C400C00000013000000C20A00003C0000000600000002000000000000C0EEBE82C0000000000000013F000000001C0C2D400000000000BC82C0000000E0FDFF34C00000000070502C400C00000013000000CA0A00003C0000000600000002000000000000C0BDD882C0000000000000023F00000000
310
C4EB294000000000C7D682C000000080DF5838C0000000006CBD28400C00000013000000D20A00003C0000000600000002000000000000E094D482C000000000981238C000000000647B2A4000000000C7D682C000000080DF5838C0000000006CBD28400C00000013000000DA0A00003C0000000600000002000000000000
310
005CD782C0000000000000023F0000000014D52B40000000C0BDD882C0000000000000023F00000000C4EB29400C00000013000000E20A00003C0000000600000002000000000000A0BCDD82C0000000000000023F0000000072972740000000C059DC82C000000020370B39C00000000040A326400C00000013000000EA0A
310
00003C000000060000000200000000000000C7D682C000000080DF5838C0000000006CBD2840000000C059DC82C000000020370B39C00000000040A326400C00000013000000F20A00003C0000000600000002000000000000C0BDD882C0000000000000023F00000000C4EB2940000000A0BCDD82C0000000000000023F00
310
000000729727400C00000013000000FA0A00003C0000000600000002000000000000A0BCDD82C0000000000000023F000000007297274000000020D7E582C0000000000000023F000000000CE425400C00000013000000020B00003C0000000600000002000000000000E04EE382C000000020D9E939C00000000058332540
310
00000020D7E582C0000000000000023F000000000CE425400C000000130000000A0B00003C0000000600000002000000000000A0E5EF82C0000000000000023F000000007C10254000000020D7E582C0000000000000023F000000000CE425400C00000013000000120B00003C0000000600000002000000000000C0EEBE82
310
C0000000000000013F000000001C0C2D40000000C0EEBE82C0000000000000013F000000807C5E52400C000000130000001A0B00003C00000006000000020000000000000000BC82C0000000E0FDFF34C00000000070502C400000000000BC82C0000000E0FDFF34C000000020F27552400C00000013000000220B00003C00
310
00000600000002000000000000C0EEBE82C0000000000000013F000000807C5E52400000000000BC82C0000000E0FDFF34C000000020F27552400C000000130000002A0B00003C000000060000000200000000000040C5EF82C0000000000000023F000000807C5E52400000000000EC82C0000000C0FDFF3AC000000020A6
310
7C52400C00000013000000320B00003C0000000600000002000000000000C0EEBE82C0000000000000013F000000807C5E524000000040C5EF82C0000000000000023F000000807C5E52400C000000130000003A0B00003C000000060000000200000000000040C5EF82C0000000000000023F000000807C1E564000000000
310
00EC82C0000000C0FDFF3AC000000020A63C56400C00000013000000420B00003C000000060000000200000000000040C5EF82C0000000000000023F000000807C5E524000000040C5EF82C0000000000000023F000000807C1E56400C000000130000004A0B00003C00000006000000020000000000000000EC82C0000000
310
C0FDFF3AC000000020A63C564000000000000483C0000000C0FDFF3DC000000000004056400C00000013000000520B00003C000000060000000200000000000080300883C0000000000000023F000000807C1E564000000000000483C0000000C0FDFF3DC000000000004056400C000000130000005A0B00003C0000000600
310
00000200000000000040C5EF82C0000000000000023F000000807C1E564000000080300883C0000000000000023F000000807C1E56400C00000013000000620B00003C000000060000000200000000000000000483C0000000C0FDFF3DC0000000000040564000000000000483C0000000C0FDFF3DC000000000004057400C
310
000000130000006A0B00003C000000060000000200000000000080300883C0000000000000023F000000E0D927574000000000000483C0000000C0FDFF3DC000000000004057400C00000013000000720B00003C000000060000000200000000000080300883C0000000000000023F000000807C1E564000000080300883C0
310
000000000000023F000000E0D92757400C000000130000007A0B00003C0000000600000002000000000000E04CD383C0000000000000043F000000E0B80F60400000002044D883C0000000000000043F0000004068FE5F400C00000013000000820B00003C00000006000000020000000000002044D883C000000000000004
310
3F0000004068FE5F40000000203ED183C0000000E0DFD34BC00000000084DC5F400C000000130000008A0B00003C000000060000000200000000000040C5EF82C0000000000000023F000000807C1E564000000080300883C0000000000000023F000000E0D92757400C00000013000000920B00003C000000060000000200
310
0000000000C0EEBE82C0000000000000013F000000807C5E524000000040C5EF82C0000000000000023F000000807C1E56400C000000130000009A0B00003C0000000600000002000000000000C0EEBE82C0000000000000013F000000001C0C2D40000000E0675682C0000000000000003F00000000CB162C400C00000013
310
000000A20B00003C0000000600000002000000000000005CD782C0000000000000023F0000000014D52B40000000E0675682C0000000000000003F00000000CB162C400C00000013000000AA0B00003C0000000600000002000000000000E0874D82C00000000001151DC0000000A0DF77524000000040CC3282C000000000
310
FCFF21C0000000A0DF7752400C00000013000000B20B00003C000000060000000200000000000000464E82C0000000409DA41CC000000080BC1B314000000020CC3282C000000000FCFF21C0000000007D2631400C00000013000000BA0B00003C0000000600000002000000000000E0874D82C00000000001151DC0000000
310
A0DF77524000000000464E82C0000000409DA41CC000000080BC1B31400C00000013000000C20B00003C0000000600000002000000000000A05F3782C00000008068E91CC0000000009F722B40000000E0BB4882C0000000001EFA1CC0000000005FA92E400C00000013000000CA0B00003C00000006000000020000000000
310
0020CC3282C000000000FCFF21C0000000007D263140000000E0BB4882C0000000001EFA1CC0000000005FA92E400C00000013000000D20B00003C000000060000000200000000000020CC3282C000000000FCFF21C0000000007D263140000000A05F3782C00000008068E91CC0000000009F722B400C00000013000000DA
310
0B00003C000000060000000200000000000000464E82C0000000409DA41CC000000080BC1B3140000000E0BB4882C0000000001EFA1CC0000000005FA92E400C00000013000000E20B00003C0000000600000002000000000000403F5882C000000040F39F1FC000000000ADA25540000000E0C0F882C000000000CC0842C0
310
00000080ECF65F400C00000013000000EA0B00003C00000006000000020000000000002085E282C0000000E028A242C000000080ECF65F40000000E0C0F882C000000000CC0842C000000080ECF65F400C00000013000000F20B00003C0000000600000002000000000000E0B13D82C0000000806E2723C000000080819755
310
400000002085E282C0000000E028A242C000000080ECF65F400C00000013000000FA0B00003C0000000600000002000000000000403F5882C000000040F39F1FC000000000ADA25540000000E0B13D82C0000000806E2723C000000080819755400C00000013000000020C00003C000000060000000200000000000020FA41
310
82C000000000424512C000000000601E294000000020CC3282C00000000035BE11C000000000B65628400C000000130000000A0C00003C0000000600000002000000000000E0304582C0000000000000003F000000003E522840000000E0E63582C0000000000000003F00000000049027400C00000013000000120C00003C
310
000000060000000200000000000020FA4182C000000000424512C000000000601E2940000000E0304582C0000000000000003F000000003E5228400C000000130000001A0C00003C0000000600000002000000000000A05F3782C00000008068E91CC0000000009F722B4000000020FA4182C000000000424512C000000000
310
601E29400C00000013000000220C00003C0000000600000002000000000000A05F3782C00000008068E91CC0000000009F722B4000000020CC3282C000000000DFF817C0000000004E2429400C000000130000002A0C00003C000000060000000200000000000020A55A82C00000000035BE11C0000000A0DF775240000000
310
20A55A82C00000000035BE11C0000000007D2631400C00000013000000320C00003C000000060000000200000000000000C05D82C0000000000000003F0000000023C3304000000020A55A82C00000000035BE11C0000000007D2631400C000000130000003A0C00003C000000060000000200000000000000C05D82C00000
310
00000000003F000000A0DF77524000000000C05D82C0000000000000003F0000000023C330400C00000013000000420C00003C000000060000000200000000000020A55A82C00000000035BE11C0000000A0DF77524000000000C05D82C0000000000000003F000000A0DF7752400C000000130000004A0C00003C00000006
310
0000000200000000000000C05D82C0000000000000003F000000A0DF775240000000405C6682C0000000000000003F00000080806855400C00000013000000520C00003C0000000600000002000000000000C0EEBE82C0000000000000013F000000807C5E524000000000C05D82C0000000000000003F000000A0DF775240
310
0C000000130000005A0C00003C0000000600000002000000000000C0EEBE82C0000000000000013F000000807C5E5240000000405C6682C0000000000000003F00000080806855400C00000013000000620C00003C0000000600000002000000000000E0675682C0000000000000003F00000000CB162C4000000000C05D82
310
C0000000000000003F0000000023C330400C000000130000006A0C00003C000000060000000200000000000020A55A82C00000000035BE11C0000000007D26314000000060325382C000000080F55C12C000000000FAE42C400C00000013000000720C00003C0000000600000002000000000000E0675682C0000000000000
310
003F00000000CB162C4000000060325382C000000080F55C12C000000000FAE42C400C000000130000007A0C00003C000000060000000200000000000020A55A82C00000000035BE11C0000000A0DF77524000000060BB6482C0000000C0833315C0000000400DAB55400C00000013000000820C00003C0000000600000002
310
000000000000405C6682C0000000000000003F000000808068554000000060BB6482C0000000C0833315C0000000400DAB55400C000000130000008A0C00003C000000060000000200000000000000464E82C0000000409DA41CC000000080BC1B314000000020A55A82C00000000035BE11C0000000007D2631400C000000
310
13000000920C00003C0000000600000002000000000000E0874D82C00000000001151DC0000000A0DF77524000000020A55A82C00000000035BE11C0000000A0DF7752400C000000130000009A0C00003C0000000600000002000000000000E0BB4882C0000000001EFA1CC0000000005FA92E4000000060325382C0000000
310
80F55C12C000000000FAE42C400C00000013000000A20C00003C000000060000000200000000000060BB6482C0000000C0833315C0000000400DAB554000000040960683C0000000803CCD40C000000080ECF65F400C00000013000000AA0C00003C0000000600000002000000000000405C6682C0000000000000003F0000
310
008080685540000000E0E87F82C0000000000000013F000000E0304058400C00000013000000B20C00003C000000060000000200000000000040960683C0000000803CCD40C000000080ECF65F40000000E0E87F82C0000000000000013F000000E0304058400C00000013000000BA0C00003C000000060000000200000000
310
000040960683C0000000803CCD40C000000080ECF65F40000000208AA982C0000000000000013F000000E091E65A400C00000013000000C20C00003C0000000600000002000000000000A0E1E182C0000000000000023F000000A052455D40000000208AA982C0000000000000013F000000E091E65A400C00000013000000
310
CA0C00003C000000060000000200000000000040960683C0000000803CCD40C000000080ECF65F40000000A0E1E182C0000000000000023F000000A052455D400C00000013000000D20C00003C0000000600000002000000000000A0E1E182C0000000000000023F000000A052455D4000000080D42B83C000000000000002
310
3F0000008054725F400C00000013000000DA0C00003C000000060000000200000000000040960683C0000000803CCD40C000000080ECF65F4000000080D42B83C0000000000000023F0000008054725F400C00000013000000E20C00003C0000000600000002000000000000403F5882C000000040F39F1FC000000000ADA2
310
554000000060BB6482C0000000C0833315C0000000400DAB55400C00000013000000EA0C00003C0000000600000002000000000000E0C0F882C000000000CC0842C000000080ECF65F4000000040960683C0000000803CCD40C000000080ECF65F400C00000013000000F20C00003C00000006000000020000000000008004
310
E682C0000000609F8B40C000000080A1A760400000002085E282C000000040A36441C0000000804D9D60400C00000013000000FA0C00003C0000000600000002000000000000E008F382C000000080290641C000000020269260400000002085E282C000000040A36441C0000000804D9D60400C00000013000000020D0000
310
3C00000006000000020000000000008004E682C0000000609F8B40C000000080A1A76040000000E008F382C000000080290641C000000020269260400C000000130000000A0D00003C00000006000000020000000000002085E282C0000000E028A242C000000080ECF65F400000002085E282C000000040A36441C0000000
310
804D9D60400C00000013000000120D00003C0000000600000002000000000000E0C0F882C000000000CC0842C000000080ECF65F40000000E008F382C000000080290641C000000020269260400C000000130000001A0D00003C000000060000000200000000000020FA4182C000000000424512C000000000601E29400000
310
0060325382C000000080F55C12C000000000FAE42C400C00000013000000220D00003C0000000600000002000000000000E0675682C0000000000000003F00000000CB162C40000000E0304582C0000000000000003F000000003E5228400C000000130000002A0D00003C000000060000000200000000000020B82883C000
310
0000000000023F00000000029B6040000000E008F382C000000080290641C000000020269260400C00000013000000320D00003C000000060000000200000000000040960683C0000000803CCD40C000000080ECF65F40000000E008F382C000000080290641C000000020269260400C000000130000003A0D00003C000000
310
0600000002000000000000A0EF3383C0000000000000033F000000E0F354604000000040960683C0000000803CCD40C000000080ECF65F400C00000013000000420D00003C0000000600000002000000000000A0EF3383C0000000000000033F000000E0F354604000000060DB3583C0000000000000033F000000E0920260
310
400C000000130000004A0D00003C000000060000000200000000000040960683C0000000803CCD40C000000080ECF65F4000000060DB3583C0000000000000033F000000E0920260400C00000013000000520D00003C000000060000000200000000000080D42B83C0000000000000023F0000008054725F4000000060DB35
310
83C0000000000000033F000000E0920260400C000000130000005A0D00003C0000000600000002000000000000A0660083C0000000000000023F0000000058761A40000000601DFD82C000000040A5233DC00000000036281B400C00000013000000620D00003C000000060000000200000000000020A40983C00000000000
310
00023F0000000096C1164000000020D80683C000000000015B3EC000000000803E18400C000000130000006A0D00003C000000060000000200000000000080F60E83C0000000000000023F0000000008771140000000A0660D83C0000000C0CF2C3FC000000000429813400C00000013000000720D00003C00000006000000
310
0200000000000040670F83C0000000000000023F0000000088170740000000E0CA0F83C0000000C05C793FC00000000098690B400C000000130000007A0D00003C0000000600000002000000000000E0E10A83C0000000000000023F000000007849F83F000000E0660D83C000000000DB2C3FC0000000003CD000400C0000
310
0013000000820D00003C0000000600000002000000000000E0CA0F83C0000000C05C793FC00000000098690B40000000E0660D83C000000000DB2C3FC0000000003CD000400C000000130000008A0D00003C0000000600000002000000000000A0370283C0000000000000023F000000004042E03F00000060550683C00000
310
0040AA4A3EC000000000E0BAEC3F0C00000013000000920D00003C0000000600000002000000000000E0660D83C000000000DB2C3FC0000000003CD0004000000060550683C000000040AA4A3EC000000000E0BAEC3F0C000000130000009A0D00003C0000000600000002000000000000C0EEBE82C0000000000000013F00
310
0000001C0C2D4000000000C05D82C0000000000000003F0000000023C330400C00000013000000A20D00003C000000060000000200000000000040CC3282C000000000FCFF21C0000000A0DF775240000000E0B13D82C0000000806E2723C000000080819755400C00000013000000AA0D00003C0000000600000002000000
310
000000E0874D82C00000000001151DC0000000A0DF775240000000403F5882C000000040F39F1FC000000000ADA255400C00000013000000B20D00003C0000000600000002000000000000C0BDD882C0000000000000023F00000000C4EB2940000000E0304582C0000000000000003F000000003E5228400C000000130000
310
00BA0D00003C0000000600000002000000000000A0BCDD82C0000000000000023F0000000072972740000000E0E63582C0000000000000003F00000000049027400C00000013000000C20D00003C00000006000000020000000000002044D883C0000000000000043F0000004068FE5F400000006073E283C0000000000000
310
043F00000000C89E5F400C00000013000000CA0D00003C0000000600000002000000000000E0B7DA83C0000000A07D6B4CC000000080C88A5F400000006073E283C0000000000000043F00000000C89E5F400C00000013000000D20D00003C00000006000000020000000000006073E283C0000000000000043F00000000C8
310
9E5F4000000020FFE683C0000000000000043F00000060FD295F400C00000013000000DA0D00003C000000060000000200000000000080F7DE83C00000008076AF4CC00000008051275F4000000020FFE683C0000000000000043F00000060FD295F400C00000013000000E20D00003C0000000600000002000000000000E0
310
B7DA83C0000000A07D6B4CC000000080C88A5F4000000080F7DE83C00000008076AF4CC00000008051275F400C00000013000000EA0D00003C0000000600000002000000000000A0CCE683C0000000000000043F000000A0AAAD5E40000000C09CDE83C0000000E0CAA94CC0000000E00BA95E400C00000013000000F20D00
310
003C000000060000000200000000000080F7DE83C00000008076AF4CC00000008051275F40000000C09CDE83C0000000E0CAA94CC0000000E00BA95E400C00000013000000FA0D00003C000000060000000200000000000020FFE683C0000000000000043F00000060FD295F40000000A0CCE683C0000000000000043F0000
310
00A0AAAD5E400C00000013000000020E00003C000000060000000200000000000060BEE283C0000000000000043F00000060E2425E400000002050DB83C00000006000754CC0000000403A595E400C000000130000000A0E00003C0000000600000002000000000000C09CDE83C0000000E0CAA94CC0000000E00BA95E4000
310
00002050DB83C00000006000754CC0000000403A595E400C00000013000000120E00003C0000000600000002000000000000A0CCE683C0000000000000043F000000A0AAAD5E4000000060BEE283C0000000000000043F00000060E2425E400C000000130000001A0E00003C0000000600000002000000000000009BDB83C0
310
000000000000043F00000000D7EB5D40000000202FD583C000000020F0124CC000000040C7105E400C00000013000000220E00003C000000060000000200000000000060BEE283C0000000000000043F00000060E2425E40000000009BDB83C0000000000000043F00000000D7EB5D400C000000130000002A0E00003C0000
310
00060000000200000000000020F4CC83C0000000000000043F0000004040925D40000000E014C883C0000000E04C414BC00000008088C15D400C00000013000000320E00003C0000000600000002000000000000009BDB83C0000000000000043F00000000D7EB5D4000000020F4CC83C0000000000000043F000000404092
310
5D400C000000130000003A0E00003C000000060000000200000000000060D5B983C0000000000000043F000000803F565D4000000000D5B583C0000000E04E1D4AC0000000E0418A5D400C00000013000000420E00003C000000060000000200000000000020F4CC83C0000000000000043F0000004040925D4000000060D5
310
B983C0000000000000043F000000803F565D400C000000130000004A0E00003C0000000600000002000000000000602DA683C0000000000000043F00000000F9365D400000008030A483C000000020060349C000000000F06C5D400C00000013000000520E00003C000000060000000200000000000060D5B983C000000000
310
0000043F000000803F565D40000000602DA683C0000000000000043F00000000F9365D400C000000130000005A0E00003C000000060000000200000000000040D79383C0000000000000033F00000000B9175D4000000060159183C00000000050D147C000000040B8485D400C00000013000000620E00003C000000060000
310
0002000000000000602DA683C0000000000000043F00000000F9365D4000000040D79383C0000000000000033F00000000B9175D400C000000130000006A0E00003C000000060000000200000000000080928183C0000000000000033F0000002042E45C4000000020B67D83C0000000C0619B46C000000000C80D5D400C00
310
000013000000720E00003C000000060000000200000000000060159183C00000000050D147C000000040B8485D4000000020B67D83C0000000C0619B46C000000000C80D5D400C000000130000007A0E00003C000000060000000200000000000040D79383C0000000000000033F00000000B9175D4000000080928183C000
310
0000000000033F0000002042E45C400C00000013000000820E00003C0000000600000002000000000000A0317083C0000000000000033F000000806F9C5C4000000080906B83C000000040087945C000000040BEBD5C400C000000130000008A0E00003C000000060000000200000000000020B67D83C0000000C0619B46C0
310
00000000C80D5D4000000080906B83C000000040087945C000000040BEBD5C400C00000013000000920E00003C000000060000000200000000000080928183C0000000000000033F0000002042E45C40000000A0317083C0000000000000033F000000806F9C5C400C000000130000009A0E00003C00000006000000020000
310
0000000060F05F83C0000000000000033F00000080043E5C4000000020105B83C000000080007144C00000008095585C400C00000013000000A20E00003C0000000600000002000000000000A0317083C0000000000000033F000000806F9C5C4000000060F05F83C0000000000000033F00000080043E5C400C0000001300
310
0000AA0E00003C000000060000000200000000000080B65183C0000000000000033F00000080F4C55B40000000A0994C83C000000080978943C000000000D4D75B400C00000013000000B20E00003C000000060000000200000000000020105B83C000000080007144C00000008095585C40000000A0994C83C00000008097
310
8943C000000000D4D75B400C00000013000000BA0E00003C000000060000000200000000000060F05F83C0000000000000033F00000080043E5C4000000080B65183C0000000000000033F00000080F4C55B400C00000013000000C20E00003C000000060000000200000000000020D94583C0000000000000033F00000040
310
3C2C5B4000000020314083C00000004010C342C0000000808A2F5B400C00000013000000CA0E00003C0000000600000002000000000000A0994C83C000000080978943C000000000D4D75B4000000020314083C00000004010C342C0000000808A2F5B400C00000013000000D20E00003C0000000600000002000000000000
310
80B65183C0000000000000033F00000080F4C55B4000000020D94583C0000000000000033F000000403C2C5B400C00000013000000DA0E00003C000000060000000200000000000060413C83C0000000000000033F00000080275E5A4000000060DC3683C000000000C42D42C0000000405C5A5A400C00000013000000E20E
310
00003C000000060000000200000000000020314083C00000004010C342C0000000808A2F5B4000000060DC3683C000000000C42D42C0000000405C5A5A400C00000013000000EA0E00003C000000060000000200000000000020D94583C0000000000000033F000000403C2C5B4000000060413C83C0000000000000033F00
310
000080275E5A400C00000013000000F20E00003C0000000600000002000000000000409D3683C0000000000000033F000000E09484594000000040793183C0000000C093D741C0000000C07B8059400C00000013000000FA0E00003C000000060000000200000000000060413C83C0000000000000033F00000080275E5A40
310
000000409D3683C0000000000000033F000000E0948459400C00000013000000020F00003C0000000600000002000000000000A0DE3183C0000000000000033F000000A039A9584000000000C72C83C0000000A06E8C41C0000000006BA558400C000000130000000A0F00003C000000060000000200000000000040793183
310
C0000000C093D741C0000000C07B80594000000000C72C83C0000000A06E8C41C0000000006BA558400C00000013000000120F00003C0000000600000002000000000000409D3683C0000000000000033F000000E094845940000000A0DE3183C0000000000000033F000000A039A958400C000000130000001A0F00003C00
310
0000060000000200000000000000AD2983C0000000000000023F000000C0EDDD5740000000C0A42483C0000000804A0A41C000000000B3E357400C00000013000000220F00003C0000000600000002000000000000A0DE3183C0000000000000033F000000A039A9584000000000AD2983C0000000000000023F000000C0ED
310
DD57400C000000130000002A0F00003C0000000600000002000000000000E0AE1983C0000000000000023F00000040D75F5740000000001B1683C000000080AD2140C0000000C0AF7857400C00000013000000320F00003C000000060000000200000000000000AD2983C0000000000000023F000000C0EDDD5740000000E0
310
AE1983C0000000000000023F00000040D75F57400C000000130000003A0F00003C000000060000000200000000000080300883C0000000000000023F000000E0D9275740000000E0AE1983C0000000000000023F00000040D75F57400C00000013000000420F00003C00000006000000020000000000002044D883C0000000
310
000000043F0000004068FE5F4000000060DB3583C0000000000000033F000000E0920260400C000000130000004A0F00003C0000000600000002000000000000A0E1E182C0000000000000023F000000A052455D4000000000AD2983C0000000000000023F000000C0EDDD57400C00000013000000520F00003C0000000600
310
000002000000000000A0E1E182C0000000000000023F000000A052455D40000000E0AE1983C0000000000000023F00000040D75F57400C000000130000005A0F00003C0000000600000002000000000000A0E1E182C0000000000000023F000000A052455D40000000A0DE3183C0000000000000033F000000A039A958400C
310
00000013000000620F00003C000000060000000200000000000060DB3583C0000000000000033F000000E0920260400000006073E283C0000000000000043F00000000C89E5F400C000000130000006A0F00003C000000060000000200000000000060DB3583C0000000000000033F000000E09202604000000020FFE683C0
310
000000000000043F00000060FD295F400C00000013000000720F00003C000000060000000200000000000080D42B83C0000000000000023F0000008054725F40000000A0CCE683C0000000000000043F000000A0AAAD5E400C000000130000007A0F00003C000000060000000200000000000080D42B83C000000000000002
310
3F0000008054725F4000000060BEE283C0000000000000043F00000060E2425E400C00000013000000820F00003C000000060000000200000000000080D42B83C0000000000000023F0000008054725F40000000009BDB83C0000000000000043F00000000D7EB5D400C000000130000008A0F00003C000000060000000200
310
000000000080D42B83C0000000000000023F0000008054725F4000000020F4CC83C0000000000000043F0000004040925D400C00000013000000920F00003C000000060000000200000000000080D42B83C0000000000000023F0000008054725F4000000060D5B983C0000000000000043F000000803F565D400C00000013
310
0000009A0F00003C000000060000000200000000000080D42B83C0000000000000023F0000008054725F40000000602DA683C0000000000000043F00000000F9365D400C00000013000000A20F00003C000000060000000200000000000080D42B83C0000000000000023F0000008054725F4000000040D79383C000000000
310
0000033F00000000B9175D400C00000013000000AA0F00003C000000060000000200000000000080D42B83C0000000000000023F0000008054725F4000000080928183C0000000000000033F0000002042E45C400C00000013000000B20F00003C000000060000000200000000000080D42B83C0000000000000023F000000
310
8054725F40000000A0317083C0000000000000033F000000806F9C5C400C00000013000000BA0F00003C000000060000000200000000000080D42B83C0000000000000023F0000008054725F4000000060F05F83C0000000000000033F00000080043E5C400C00000013000000C20F00003C00000006000000020000000000
310
0080D42B83C0000000000000023F0000008054725F4000000080B65183C0000000000000033F00000080F4C55B400C00000013000000CA0F00003C000000060000000200000000000080D42B83C0000000000000023F0000008054725F4000000020D94583C0000000000000033F000000403C2C5B400C00000013000000D2
310
0F00003C0000000600000002000000000000A0E1E182C0000000000000023F000000A052455D4000000060413C83C0000000000000033F00000080275E5A400C00000013000000DA0F00003C0000000600000002000000000000A0E1E182C0000000000000023F000000A052455D40000000409D3683C0000000000000033F
310
000000E0948459400C00000013000000E20F00003C000000060000000200000000000040C5EF82C0000000000000023F000000807C1E5640000000E0E87F82C0000000000000013F000000E0304058400C00000013000000EA0F00003C000000060000000200000000000080300883C0000000000000023F000000E0D92757
310
40000000208AA982C0000000000000013F000000E091E65A400C00000013000000F20F00003C0000000600000002000000000000E0E87F82C0000000000000013F000000E030405840000000208AA982C0000000000000013F000000E091E65A400C00000013000000FA0F00003C0000000600000002000000000000E0660D
310
834000000020E72C3FC0000000003CD00040000000E0660D83C000000000DB2C3FC0000000003CD000400C00000013000000021000003C000000060000000200000000000000C7D6824000000080EB5838C0000000006CBD284000000000C7D682C000000080DF5838C0000000006CBD28400C000000130000000A1000003C
310
0000000600000002000000000000E094D4824000000000A41238C000000000647B2A40000000E094D482C000000000981238C000000000647B2A400C00000013000000121000003C00000006000000020000000000000003D4824000000040630038C0000000009C352C400000000003D482C000000040570038C000000000
310
9C352C400C000000130000001A1000003C00000006000000020000000000000000BC8240000000C0090035C00000000070502C400000000000BC82C0000000E0FDFF34C00000000070502C400C00000013000000221000003C00000006000000020000000000000000048340000000C009003EC00000000000405640000000
310
00000483C0000000C0FDFF3DC000000000004056400C000000130000002A1000003C000000060000000200000000000020314083400000006016C342C0000000808A2F5B4000000020314083C00000004010C342C0000000808A2F5B400C00000013000000321000003C0000000600000002000000000000A0994C83400000
310
00A09D8943C0000000E0D3D75B40000000A0994C83C000000080978943C000000000D4D75B400C000000130000003A1000003C000000060000000200000000000020B67D834000000000689B46C000000000C80D5D4000000020B67D83C0000000C0619B46C000000000C80D5D400C00000013000000421000003C00000006
310
00000002000000000000C09CDE834000000020D1A94CC0000000E00BA95E40000000C09CDE83C0000000E0CAA94CC0000000E00BA95E400C000000130000004A1000003C000000060000000200000000000080F7DE8340000000C07CAF4CC00000008051275F4000000080F7DE83C00000008076AF4CC00000008051275F40
310
0C00000013000000521000003C00000006000000020000000000002085E2824000000040A96441C0000000804D9D60400000002085E282C000000040A36441C0000000804D9D60400C000000130000005A1000003C0000000600000002000000000000A05F378240000000C096E91CC0000000009F722B40000000A05F3782
310
C00000008068E91CC0000000009F722B400C00000013000000621000003C0000000600000002000000000000A0BCDD824000000000008023BF0000000072972740000000A0BCDD82C0000000000000023F00000000729727400C000000130000006A1000003C000000060000000200000000000020D7E58240000000000080
310
23BF000000000CE4254000000020D7E582C0000000000000023F000000000CE425400C00000013000000721000003C0000000600000002000000000000A0E5EF824000000000008023BF000000007C102540000000A0E5EF82C0000000000000023F000000007C1025400C000000130000007A1000003C0000000600000002
310
0000000000002085E28240000000E02EA242C000000080ECF65F400000002085E282C0000000E028A242C000000080ECF65F400C00000013000000821000003C0000000600000002000000000000E0B13D824000000080852723C00000008081975540000000E0B13D82C0000000806E2723C00000008081975540
100
AcDbSubDMesh
 71
     2
 72
     0
 91
        0
 92
      250
 10
638.5299072265625
 20
-0.0001544952392578
 30
147.0
 10
637.5
 20
-59.00015258789062
 30
147.0
 10
606.5
 20
-0.0001487731933594
 30
0.0
 10
606.5
 20
-28.00014877319336
 30
0.0
 10
606.98876953125
 20
-0.0001487731933594
 30
6.965713500976562
 10
608.0501098632812
 20
-0.0001487731933594
 30
6.615570068359375
 10
609.2051391601562
 20
-0.0001487731933594
 30
5.689048767089843
 10
609.870361328125
 20
-0.0001487731933594
 30
4.366241455078125
 10
609.9254150390625
 20
-0.0001487731933594
 30
2.886489868164062
 10
609.3602905273437
 20
-0.0001487731933594
 30
1.517936706542968
 10
608.2771606445312
 20
-0.0001487731933594
 30
0.508087158203125
 10
607.2447509765624
 20
-0.0001487731933594
 30
0.080169677734375
 10
607.32568359375
 20
-28.82594680786133
 30
0.1190032958984375
 10
608.7916870117187
 20
-30.29184341430664
 30
0.8978118896484375
 10
609.6752319335937
 20
-31.17540168762207
 30
2.101676940917968
 10
609.9740600585938
 20
-31.4742546081543
 30
3.426559448242187
 10
609.6751098632812
 20
-31.17523002624512
 30
4.898689270019531
 10
608.8555297851562
 20
-30.35566902160645
 30
6.06103515625
 10
607.6393432617187
 20
-29.13942337036133
 30
6.789268493652343
 10
606.5
 20
-28.00014877319336
 30
7.0
 10
637.5
 20
-59.00015258789062
 30
131.0
 10
606.5
 20
-28.00014877319336
 30
10.0
 10
602.5014648437499
 20
-24.00151443481445
 30
14.10470581054687
 10
602.5726928710938
 20
-24.07281494140625
 30
13.24099731445312
 10
602.8471679687499
 20
-24.34734344482422
 30
12.36996459960937
 10
603.5438232421874
 20
-25.04399299621582
 30
11.31884765625
 10
604.4135131835937
 20
-25.91365242004395
 30
10.60028076171875
 10
605.5466918945312
 20
-27.04682540893555
 30
10.12834930419922
 10
599.5
 20
-21.00014877319336
 30
73.84290313720703
 10
599.5
 20
-21.00014877319336
 30
14.1571044921875
 10
605.4999999999999
 20
-27.00014877319336
 30
88.94763946533203
 10
605.4999999999999
 20
-27.00014877319336
 30
73.94763946533203
 10
608.4999999999999
 20
-30.00014877319336
 30
89.0
 10
632.5
 20
-54.00015258789062
 30
128.66845703125
 10
634.1553344726563
 20
-55.65546035766601
 30
127.445556640625
 10
608.4999999999999
 20
-30.00014877319336
 30
93.0
 10
638.5299072265625
 20
-0.0001544952392578
 30
130.3325500488281
 10
634.4125366210938
 20
-0.000152587890625
 30
128.4913177490234
 10
609.023681640625
 20
-0.0001487731933594
 30
92.62267303466797
 10
609.023681640625
 20
-0.0001487731933594
 30
88.47634887695312
 10
605.9713134765624
 20
-0.0001487731933594
 30
73.47634887695313
 10
605.9713134765624
 20
-0.0001487731933594
 30
88.47634887695312
 10
599.8665771484374
 20
-0.0001487731933594
 30
14.52365112304687
 10
599.8665771484374
 20
-0.0001487731933594
 30
73.47634887695313
 10
606.98876953125
 20
-0.0001487731933594
 30
10.53263854980468
 10
602.9609374999999
 20
-0.0001487731933594
 30
14.52365112304687
 10
602.919921875
 20
-0.0001487731933594
 30
13.91616821289062
 10
603.0926513671874
 20
-0.0001487731933594
 30
12.96047973632812
 10
603.7171020507813
 20
-0.0001487731933594
 30
11.79579162597656
 10
604.7300415039062
 20
-0.0001487731933594
 30
10.94540405273437
 10
605.9871215820312
 20
-0.0001487731933594
 30
10.53219604492187
 10
582.3496704101562
 20
-9.000144958496093
 30
17.15034484863281
 10
582.3497314453125
 20
-9.000144958496093
 30
73.8730239868164
 10
604.3150024414062
 20
-37.26705551147461
 30
127.8581848144531
 10
582.7377319335937
 20
-0.0001449584960938
 30
11.78128051757812
 10
582.3496704101562
 20
-4.435924530029296
 30
12.16935729980469
 10
587.7187499999999
 20
-0.0001468658447266
 30
16.76225280761719
 10
587.7187499999999
 20
-0.0001468658447266
 30
73.8730239868164
 10
587.3306274414062
 20
-4.435926437377929
 30
73.8730239868164
 10
587.3306274414062
 20
-4.435926437377929
 30
17.15034484863281
 10
588.7950439453125
 20
-0.0001468658447266
 30
85.63285064697266
 10
591.9887084960937
 20
-0.0001468658447266
 30
97.00298309326171
 10
597.1924438476562
 20
-0.0001468658447266
 30
107.6026535034179
 10
604.2351684570312
 20
-0.0001487731933594
 30
117.0831680297851
 10
608.8233642578124
 20
-33.60359191894531
 30
127.8581848144531
 10
588.5914916992187
 20
-5.300484657287597
 30
86.6726837158203
 10
610.4478149414062
 20
-0.0001487731933594
 30
133.9601745605468
 10
604.752197265625
 20
-33.09098434448242
 30
133.2384643554687
 10
604.3150024414062
 20
-34.78641510009766
 30
132.9157104492187
 10
582.3496704101562
 20
-5.993213653564453
 30
12.57090759277344
 10
582.9216918945312
 20
-7.228114128112792
 30
13.72386932373047
 10
584.6488647460937
 20
-0.0001449584960938
 30
12.16062927246094
 10
586.8007202148437
 20
-0.0001468658447266
 30
14.04451751708984
 10
586.3995971679687
 20
-4.590957641601562
 30
14.44721984863281
 10
584.2471313476562
 20
-4.56781005859375
 30
12.559326171875
 10
606.3793334960937
 20
-34.04832458496094
 30
132.567153930664
 10
613.478759765625
 20
-0.0001506805419922
 30
125.7864074707031
 10
614.7321166992187
 20
-0.0001506805419922
 30
128.0804290771484
 10
614.4920043945312
 20
-0.0001506805419922
 30
130.6547698974609
 10
613.0899047851563
 20
-0.0001506805419922
 30
132.843994140625
 10
607.0941772460937
 20
-36.06890869140625
 30
127.8581848144531
 10
587.0308837890624
 20
-7.906378746032714
 30
86.54180908203125
 10
585.6913452148437
 20
-7.2706880569458
 30
73.8730239868164
 10
585.7841796875
 20
-7.160933494567871
 30
17.10834503173828
 10
585.0917358398437
 20
-7.244431495666503
 30
15.33080291748047
 10
583.7118530273437
 20
-9.577190399169921
 30
86.36727905273437
 10
635.3397827148437
 20
-56.83996200561523
 30
126.1684875488281
 10
635.870849609375
 20
-57.3709945678711
 30
124.6143493652343
 10
635.8265380859375
 20
-57.32669448852539
 30
122.6413497924804
 10
635.4141235351562
 20
-56.91426467895507
 30
121.3941802978515
 10
634.6480102539062
 20
-56.14814376831055
 30
120.2621612548828
 10
633.0101928710937
 20
-54.51034927368164
 30
119.0239562988281
 10
630.7290039062499
 20
-52.22916030883789
 30
118.1602706909179
 10
628.523681640625
 20
-50.02381515502929
 30
117.7021484375
 10
626.1354370117187
 20
-47.63544082641601
 30
117.136245727539
 10
623.7139282226562
 20
-45.214111328125
 30
116.21533203125
 10
621.4455566406249
 20
-42.94574737548828
 30
114.9647369384765
 10
619.3828735351562
 20
-40.88301467895507
 30
113.3841247558593
 10
617.5750122070312
 20
-39.07512283325195
 30
111.3723068237304
 10
616.0239868164062
 20
-37.52412033081055
 30
108.7428283691406
 10
614.8576049804687
 20
-36.35772705078125
 30
105.411880493164
 10
614.1842041015625
 20
-35.68437957763672
 30
102.0075531005859
 10
613.59716796875
 20
-35.09731292724609
 30
98.58465576171875
 10
612.5804443359375
 20
-34.08058166503906
 30
95.55780029296874
 10
610.76318359375
 20
-32.26329040527344
 30
93.88572692871093
 10
635.0332641601562
 20
-0.000152587890625
 30
127.975112915039
 10
636.3063354492187
 20
-0.000152587890625
 30
126.48095703125
 10
636.8745727539062
 20
-0.0001544952392578
 30
124.6560897827148
 10
636.8499145507812
 20
-0.0001544952392578
 30
122.7135391235351
 10
636.3429565429687
 20
-0.000152587890625
 30
121.0450668334961
 10
635.45068359375
 20
-0.000152587890625
 30
119.6849975585937
 10
633.6192016601562
 20
-0.000152587890625
 30
118.285171508789
 10
631.2291870117187
 20
-0.000152587890625
 30
117.3476257324219
 10
628.7721557617187
 20
-0.000152587890625
 30
116.8589477539062
 10
626.4801025390625
 20
-0.000152587890625
 30
116.3706665039062
 10
624.196533203125
 20
-0.000152587890625
 30
115.566535949707
 10
622.0242309570312
 20
-0.0001506805419922
 30
114.4443054199218
 10
619.9923706054687
 20
-0.0001506805419922
 30
112.9690246582031
 10
618.2141113281249
 20
-0.0001506805419922
 30
111.0930480957031
 10
616.7310180664062
 20
-0.0001506805419922
 30
108.691177368164
 10
615.5319213867187
 20
-0.0001506805419922
 30
105.4711608886718
 10
614.8267822265625
 20
-0.0001506805419922
 30
102.0715866088867
 10
614.2337036132812
 20
-0.0001506805419922
 30
98.6441421508789
 10
613.20947265625
 20
-0.0001506805419922
 30
95.46763610839844
 10
611.2103881835937
 20
-0.0001506805419922
 30
93.49751281738281
 10
-638.5299072265625
 20
0.0000381469726563
 30
130.3325500488281
 10
-638.5299072265625
 20
0.0000381469726563
 30
147.0
 10
-637.5
 20
-58.99996185302734
 30
147.0
 10
-637.5
 20
-58.99996185302734
 30
131.0
 10
-634.4125366210938
 20
0.0000381469726563
 30
128.4913177490234
 10
-610.4478149414062
 20
0.0000343322753906
 30
133.9601745605468
 10
-614.4920043945312
 20
0.0000362396240234
 30
130.6547698974609
 10
-613.0899047851563
 20
0.0000343322753906
 30
132.843994140625
 10
-607.2447509765624
 20
0.0000343322753906
 30
0.080169677734375
 10
-607.32568359375
 20
-28.82576370239258
 30
0.1190032958984375
 10
-606.5
 20
-27.99996566772461
 30
0.0
 10
-606.5
 20
0.0000343322753906
 30
0.0
 10
-606.98876953125
 20
0.0000343322753906
 30
6.965713500976562
 10
-608.0501098632812
 20
0.0000343322753906
 30
6.615570068359375
 10
-608.2771606445312
 20
0.0000343322753906
 30
0.508087158203125
 10
-606.98876953125
 20
0.0000343322753906
 30
10.53263854980468
 10
-605.9871215820312
 20
0.0000343322753906
 30
10.53219604492187
 10
-606.5
 20
-27.99996566772461
 30
10.0
 10
-606.5
 20
-27.99996566772461
 30
7.0
 10
-609.2051391601562
 20
0.0000343322753906
 30
5.689048767089843
 10
-609.3602905273437
 20
0.0000343322753906
 30
1.517936706542968
 10
-609.870361328125
 20
0.0000343322753906
 30
4.366241455078125
 10
-609.9254150390625
 20
0.0000343322753906
 30
2.886489868164062
 10
-632.5
 20
-53.99996185302734
 30
128.66845703125
 10
-605.5466918945312
 20
-27.0466423034668
 30
10.12834930419922
 10
-602.919921875
 20
0.0000343322753906
 30
13.91616821289062
 10
-602.9609374999999
 20
0.0000343322753906
 30
14.52365112304687
 10
-602.5014648437499
 20
-24.0013313293457
 30
14.10470581054687
 10
-602.5726928710938
 20
-24.0726318359375
 30
13.24099731445312
 10
-599.8665771484374
 20
0.0000324249267578
 30
14.52365112304687
 10
-599.5
 20
-20.99996757507324
 30
14.1571044921875
 10
-603.0926513671874
 20
0.0000343322753906
 30
12.96047973632812
 10
-602.8471679687499
 20
-24.34716033935547
 30
12.36996459960937
 10
-603.7171020507813
 20
0.0000343322753906
 30
11.79579162597656
 10
-603.5438232421874
 20
-25.04380989074707
 30
11.31884765625
 10
-604.4135131835937
 20
-25.9134693145752
 30
10.60028076171875
 10
-604.7300415039062
 20
0.0000343322753906
 30
10.94540405273437
 10
-599.8665771484374
 20
0.0000324249267578
 30
73.47634887695313
 10
-599.5
 20
-20.99996757507324
 30
73.84290313720703
 10
-605.9713134765624
 20
0.0000343322753906
 30
73.47634887695313
 10
-605.4999999999999
 20
-26.99996566772461
 30
73.94763946533203
 10
-605.9713134765624
 20
0.0000343322753906
 30
88.47634887695312
 10
-605.4999999999999
 20
-26.99996566772461
 30
88.94763946533203
 10
-609.023681640625
 20
0.0000343322753906
 30
88.47634887695312
 10
-608.4999999999999
 20
-29.99996566772461
 30
89.0
 10
-609.023681640625
 20
0.0000343322753906
 30
92.62267303466797
 10
-608.4999999999999
 20
-29.99996566772461
 30
93.0
 10
-635.0332641601562
 20
0.0000381469726563
 30
127.975112915039
 10
-586.8007202148437
 20
0.000030517578125
 30
14.04451751708984
 10
-585.6913452148437
 20
-7.270511627197265
 30
73.8730239868164
 10
-585.7841796875
 20
-7.160756111145019
 30
17.10834503173828
 10
-582.3496704101562
 20
-8.999969482421875
 30
17.15034484863281
 10
-582.3497314453125
 20
-8.999969482421875
 30
73.8730239868164
 10
-582.9216918945312
 20
-7.227937698364257
 30
13.72386932373047
 10
-585.0917358398437
 20
-7.244255065917968
 30
15.33080291748047
 10
-587.0308837890624
 20
-7.906201362609863
 30
86.54180908203125
 10
-583.7118530273437
 20
-9.577014923095703
 30
86.36727905273437
 10
-604.3150024414062
 20
-37.26687240600586
 30
127.8581848144531
 10
-607.0941772460937
 20
-36.0687255859375
 30
127.8581848144531
 10
-584.2471313476562
 20
-4.567634582519531
 30
12.559326171875
 10
-584.6488647460937
 20
0.000030517578125
 30
12.16062927246094
 10
-582.7377319335937
 20
0.000030517578125
 30
11.78128051757812
 10
-582.3496704101562
 20
-4.435749053955078
 30
12.16935729980469
 10
-582.3496704101562
 20
-5.993038177490234
 30
12.57090759277344
 10
-587.3306274414062
 20
-4.435749053955078
 30
73.8730239868164
 10
-587.7187499999999
 20
0.000030517578125
 30
73.8730239868164
 10
-587.7187499999999
 20
0.000030517578125
 30
16.76225280761719
 10
-587.3306274414062
 20
-4.435749053955078
 30
17.15034484863281
 10
-588.7950439453125
 20
0.000030517578125
 30
85.63284301757812
 10
-586.3995971679687
 20
-4.59078025817871
 30
14.44721984863281
 10
-588.5914916992187
 20
-5.300307273864746
 30
86.6726837158203
 10
-608.8233642578124
 20
-33.60340881347656
 30
127.8581848144531
 10
-591.9887084960937
 20
0.0000324249267578
 30
97.00298309326171
 10
-604.2351684570312
 20
0.0000343322753906
 30
117.0831680297851
 10
-597.1924438476562
 20
0.0000324249267578
 30
107.6026535034179
 10
-613.478759765625
 20
0.0000343322753906
 30
125.7864074707031
 10
-604.752197265625
 20
-33.09080123901367
 30
133.2384643554687
 10
-606.3793334960937
 20
-34.04814147949219
 30
132.567153930664
 10
-604.3150024414062
 20
-34.78623199462891
 30
132.9157104492187
 10
-614.7321166992187
 20
0.0000362396240234
 30
128.0804290771484
 10
-607.6393432617187
 20
-29.13924026489258
 30
6.789268493652343
 10
-608.8555297851562
 20
-30.35548400878906
 30
6.06103515625
 10
-609.6751098632812
 20
-31.17504501342774
 30
4.898689270019531
 10
-609.9740600585938
 20
-31.47407150268555
 30
3.426559448242187
 10
-609.6752319335937
 20
-31.17521667480469
 30
2.101676940917968
 10
-608.7916870117187
 20
-30.29166030883789
 30
0.8978118896484375
 10
-634.1553344726563
 20
-55.65526962280273
 30
127.445556640625
 10
-635.3397827148437
 20
-56.83977127075195
 30
126.1684875488281
 10
-636.3063354492187
 20
0.0000381469726563
 30
126.48095703125
 10
-635.870849609375
 20
-57.37080383300781
 30
124.6143493652343
 10
-636.8745727539062
 20
0.0000381469726563
 30
124.6560897827148
 10
-636.8499145507812
 20
0.0000381469726563
 30
122.7135391235351
 10
-635.8265380859375
 20
-57.32650375366211
 30
122.6413497924804
 10
-636.3429565429687
 20
0.0000381469726563
 30
121.0450668334961
 10
-635.4141235351562
 20
-56.91407394409179
 30
121.3941802978515
 10
-635.45068359375
 20
0.0000381469726563
 30
119.6849975585937
 10
-634.6480102539062
 20
-56.14795303344727
 30
120.2621612548828
 10
-633.6192016601562
 20
0.0000381469726563
 30
118.285171508789
 10
-633.0101928710937
 20
-54.51015853881836
 30
119.0239562988281
 10
-631.2291870117187
 20
0.0000381469726563
 30
117.3476257324219
 10
-630.7290039062499
 20
-52.22896957397461
 30
118.1602706909179
 10
-628.7721557617187
 20
0.0000381469726563
 30
116.8589477539062
 10
-628.523681640625
 20
-50.02362442016601
 30
117.7021484375
 10
-626.4801025390625
 20
0.0000362396240234
 30
116.3706665039062
 10
-626.1354370117187
 20
-47.63525390625
 30
117.136245727539
 10
-624.196533203125
 20
0.0000362396240234
 30
115.566535949707
 10
-623.7139282226562
 20
-45.21392059326172
 30
116.21533203125
 10
-622.0242309570312
 20
0.0000362396240234
 30
114.4443054199218
 10
-621.4455566406249
 20
-42.94556427001952
 30
114.9647369384765
 10
-619.9923706054687
 20
0.0000362396240234
 30
112.9690246582031
 10
-619.3828735351562
 20
-40.88282775878906
 30
113.3841247558593
 10
-618.2141113281249
 20
0.0000362396240234
 30
111.0930480957031
 10
-617.5750122070312
 20
-39.07493591308594
 30
111.372314453125
 10
-616.7310180664062
 20
0.0000362396240234
 30
108.691177368164
 10
-616.0239868164062
 20
-37.52393341064453
 30
108.7428283691406
 10
-615.5319213867187
 20
0.0000362396240234
 30
105.4711608886718
 10
-614.8576049804687
 20
-36.3575439453125
 30
105.411880493164
 10
-614.8267822265625
 20
0.0000362396240234
 30
102.0715866088867
 10
-614.1842041015625
 20
-35.68419647216797
 30
102.0075531005859
 10
-614.2337036132812
 20
0.0000362396240234
 30
98.6441421508789
 10
-613.59716796875
 20
-35.09712600708008
 30
98.58465576171875
 10
-613.20947265625
 20
0.0000343322753906
 30
95.46763610839844
 10
-612.5804443359375
 20
-34.08039855957031
 30
95.55780029296874
 10
-611.2103881835937
 20
0.0000343322753906
 30
93.49751281738281
 10
-610.76318359375
 20
-32.26310729980469
 30
93.88572692871093
 93
     1339
 90
        4
 90
       36
 90
        0
 90
        1
 90
       20
 90
        4
 90
       37
 90
       78
 90
        0
 90
       36
 90
        3
 90
       79
 90
        0
 90
       78
 90
        3
 90
       66
 90
        0
 90
       79
 90
        4
 90
       11
 90
       12
 90
        3
 90
        2
 90
        4
 90
       11
 90
        4
 90
        5
 90
       10
 90
        4
 90
       44
 90
        4
 90
        2
 90
       50
 90
        4
 90
       21
 90
       19
 90
        4
 90
       44
 90
        4
 90
       10
 90
        5
 90
        6
 90
        9
 90
        4
 90
        9
 90
        6
 90
        7
 90
        8
 90
        4
 90
       37
 90
       36
 90
       20
 90
       33
 90
        4
 90
       50
 90
       27
 90
       21
 90
       44
 90
        4
 90
       46
 90
       45
 90
       22
 90
       23
 90
        4
 90
       42
 90
       29
 90
       22
 90
       45
 90
        4
 90
       47
 90
       46
 90
       23
 90
       24
 90
        4
 90
       48
 90
       47
 90
       24
 90
       25
 90
        4
 90
       48
 90
       25
 90
       26
 90
       49
 90
        4
 90
       49
 90
       26
 90
       27
 90
       50
 90
        4
 90
       43
 90
       28
 90
       29
 90
       42
 90
        4
 90
       43
 90
       40
 90
       31
 90
       28
 90
        4
 90
       40
 90
       41
 90
       30
 90
       31
 90
        4
 90
       41
 90
       39
 90
       32
 90
       30
 90
        4
 90
       39
 90
       38
 90
       35
 90
       32
 90
        4
 90
       37
 90
       33
 90
       34
 90
      105
 90
        3
 90
       41
 90
       38
 90
       39
 90
        3
 90
       43
 90
       41
 90
       40
 90
        4
 90
       46
 90
       72
 90
       42
 90
       45
 90
        4
 90
       82
 90
       83
 90
       51
 90
       52
 90
        3
 90
       70
 90
       51
 90
       84
 90
        3
 90
       84
 90
       51
 90
       83
 90
        4
 90
       81
 90
       85
 90
       53
 90
       80
 90
        4
 90
       74
 90
       71
 90
       54
 90
       55
 90
        4
 90
       74
 90
       55
 90
       69
 90
       70
 90
        4
 90
       58
 90
       57
 90
       56
 90
       59
 90
        3
 90
       60
 90
       43
 90
       57
 90
        4
 90
       72
 90
       73
 90
       59
 90
       56
 90
        4
 90
       65
 90
       60
 90
       57
 90
       58
 90
        4
 90
       83
 90
       82
 90
       58
 90
       59
 90
        4
 90
       83
 90
       59
 90
       73
 90
       84
 90
        4
 90
       64
 90
       61
 90
       60
 90
       65
 90
        3
 90
       64
 90
       63
 90
       62
 90
        3
 90
       76
 90
       63
 90
       64
 90
        4
 90
       81
 90
       80
 90
       64
 90
       65
 90
        3
 90
       75
 90
       68
 90
       67
 90
        4
 90
       75
 90
       80
 90
       53
 90
       68
 90
        4
 90
       73
 90
       72
 90
       71
 90
       74
 90
        4
 90
       84
 90
       73
 90
       74
 90
       70
 90
        4
 90
       66
 90
       79
 90
       75
 90
       67
 90
        4
 90
       78
 90
       64
 90
       75
 90
       79
 90
        3
 90
       80
 90
       75
 90
       64
 90
        3
 90
       77
 90
       64
 90
       78
 90
        3
 90
       76
 90
       64
 90
       77
 90
        4
 90
        5
 90
        4
 90
       19
 90
       18
 90
        4
 90
        6
 90
        5
 90
       18
 90
       17
 90
        4
 90
        7
 90
        6
 90
       17
 90
       16
 90
        4
 90
        8
 90
        7
 90
       16
 90
       15
 90
        4
 90
        9
 90
        8
 90
       15
 90
       14
 90
        4
 90
       10
 90
        9
 90
       14
 90
       13
 90
        4
 90
       11
 90
       10
 90
       13
 90
       12
 90
        4
 90
       43
 90
       42
 90
       56
 90
       57
 90
        3
 90
       42
 90
       72
 90
       56
 90
        4
 90
       85
 90
       81
 90
       82
 90
       52
 90
        4
 90
       81
 90
       65
 90
       58
 90
       82
 90
        4
 90
       46
 90
       47
 90
       71
 90
       72
 90
        4
 90
       47
 90
       48
 90
       54
 90
       71
 90
        4
 90
      105
 90
       34
 90
       86
 90
      106
 90
        4
 90
      106
 90
       86
 90
       87
 90
      107
 90
        4
 90
      108
 90
      107
 90
       87
 90
       88
 90
        4
 90
      109
 90
      108
 90
       88
 90
       89
 90
        4
 90
      110
 90
      109
 90
       89
 90
       90
 90
        4
 90
      111
 90
      110
 90
       90
 90
       91
 90
        4
 90
      112
 90
      111
 90
       91
 90
       92
 90
        4
 90
      113
 90
      112
 90
       92
 90
       93
 90
        4
 90
      114
 90
      113
 90
       93
 90
       94
 90
        4
 90
      115
 90
      114
 90
       94
 90
       95
 90
        4
 90
      116
 90
      115
 90
       95
 90
       96
 90
        4
 90
      117
 90
      116
 90
       96
 90
       97
 90
        4
 90
      118
 90
      117
 90
       97
 90
       98
 90
        4
 90
      119
 90
      118
 90
       98
 90
       99
 90
        4
 90
      120
 90
      119
 90
       99
 90
      100
 90
        4
 90
      121
 90
      120
 90
      100
 90
      101
 90
        4
 90
      122
 90
      121
 90
      101
 90
      102
 90
        4
 90
      123
 90
      122
 90
      102
 90
      103
 90
        4
 90
      124
 90
      123
 90
      103
 90
      104
 90
        4
 90
       38
 90
      124
 90
      104
 90
       35
 90
        4
 90
      105
 90
       77
 90
       78
 90
       37
 90
        3
 90
      123
 90
      124
 90
       63
 90
        3
 90
      122
 90
      123
 90
       63
 90
        3
 90
      105
 90
      106
 90
       77
 90
        3
 90
      106
 90
      107
 90
       77
 90
        4
 90
      107
 90
      108
 90
       76
 90
       77
 90
        3
 90
      108
 90
      109
 90
       76
 90
        3
 90
      109
 90
      110
 90
       76
 90
        3
 90
      110
 90
      111
 90
       76
 90
        3
 90
      111
 90
      112
 90
       76
 90
        3
 90
      112
 90
      113
 90
       76
 90
        3
 90
      113
 90
      114
 90
       76
 90
        3
 90
      114
 90
      115
 90
       76
 90
        3
 90
      115
 90
      116
 90
       76
 90
        3
 90
      116
 90
      117
 90
       76
 90
        3
 90
      117
 90
      118
 90
       76
 90
        3
 90
      118
 90
      119
 90
       76
 90
        4
 90
      119
 90
      120
 90
       63
 90
       76
 90
        3
 90
      120
 90
      121
 90
       63
 90
        3
 90
      121
 90
      122
 90
       63
 90
        4
 90
       60
 90
       61
 90
       41
 90
       43
 90
        4
 90
       61
 90
       62
 90
       38
 90
       41
 90
        4
 90
       62
 90
       63
 90
      124
 90
       38
 90
        4
 90
        2
 90
        3
 90
      135
 90
      136
 90
        4
 90
       12
 90
       13
 90
      210
 90
      134
 90
        4
 90
       15
 90
       16
 90
      207
 90
      208
 90
        4
 90
       16
 90
       17
 90
      206
 90
      207
 90
        4
 90
       17
 90
       18
 90
      205
 90
      206
 90
        4
 90
       18
 90
       19
 90
      143
 90
      205
 90
        4
 90
       19
 90
       21
 90
      142
 90
      143
 90
        4
 90
       21
 90
       27
 90
      149
 90
      142
 90
        4
 90
       27
 90
       26
 90
      160
 90
      149
 90
        4
 90
       26
 90
       25
 90
      159
 90
      160
 90
        4
 90
       28
 90
       31
 90
      165
 90
      163
 90
        4
 90
       31
 90
       30
 90
      167
 90
      165
 90
        4
 90
       35
 90
      104
 90
      249
 90
      171
 90
        4
 90
      104
 90
      103
 90
      247
 90
      249
 90
        4
 90
      103
 90
      102
 90
      245
 90
      247
 90
        4
 90
      101
 90
      100
 90
      241
 90
      243
 90
        4
 90
       97
 90
       96
 90
      233
 90
      235
 90
        4
 90
       94
 90
       93
 90
      227
 90
      229
 90
        4
 90
       93
 90
       92
 90
      225
 90
      227
 90
        4
 90
       92
 90
       91
 90
      223
 90
      225
 90
        4
 90
       91
 90
       90
 90
      221
 90
      223
 90
        4
 90
       90
 90
       89
 90
      219
 90
      221
 90
        4
 90
       86
 90
       34
 90
      211
 90
      212
 90
        4
 90
       34
 90
       33
 90
      148
 90
      211
 90
        4
 90
       20
 90
        1
 90
      127
 90
      128
 90
        4
 90
        1
 90
        0
 90
      126
 90
      127
 90
        4
 90
       66
 90
       67
 90
      201
 90
      130
 90
        4
 90
       52
 90
       51
 90
      176
 90
      177
 90
        4
 90
       69
 90
       55
 90
      187
 90
      188
 90
        4
 90
       55
 90
       54
 90
      186
 90
      187
 90
        3
 90
       11
 90
        2
 90
        4
 90
        3
 90
       64
 90
       62
 90
       61
 90
        4
 90
      125
 90
      128
 90
      127
 90
      126
 90
        4
 90
      129
 90
      125
 90
      126
 90
      131
 90
        3
 90
      132
 90
      131
 90
      126
 90
        3
 90
      130
 90
      132
 90
      126
 90
        4
 90
      133
 90
      136
 90
      135
 90
      134
 90
        4
 90
      133
 90
      139
 90
      138
 90
      137
 90
        4
 90
      140
 90
      141
 90
      136
 90
      137
 90
        4
 90
      142
 90
      140
 90
      137
 90
      143
 90
        4
 90
      139
 90
      145
 90
      144
 90
      138
 90
        4
 90
      145
 90
      147
 90
      146
 90
      144
 90
        4
 90
      129
 90
      148
 90
      128
 90
      125
 90
        4
 90
      141
 90
      140
 90
      142
 90
      149
 90
        4
 90
      150
 90
      153
 90
      152
 90
      151
 90
        4
 90
      154
 90
      151
 90
      152
 90
      155
 90
        4
 90
      156
 90
      157
 90
      153
 90
      150
 90
        4
 90
      158
 90
      159
 90
      157
 90
      156
 90
        4
 90
      158
 90
      161
 90
      160
 90
      159
 90
        4
 90
      161
 90
      141
 90
      149
 90
      160
 90
        4
 90
      162
 90
      154
 90
      155
 90
      163
 90
        4
 90
      162
 90
      163
 90
      165
 90
      164
 90
        4
 90
      164
 90
      165
 90
      167
 90
      166
 90
        4
 90
      166
 90
      167
 90
      169
 90
      168
 90
        4
 90
      168
 90
      169
 90
      171
 90
      170
 90
        4
 90
      129
 90
      172
 90
      211
 90
      148
 90
        3
 90
      166
 90
      168
 90
      170
 90
        3
 90
      162
 90
      164
 90
      166
 90
        4
 90
      150
 90
      151
 90
      154
 90
      173
 90
        4
 90
      174
 90
      177
 90
      176
 90
      175
 90
        3
 90
      178
 90
      179
 90
      176
 90
        3
 90
      179
 90
      175
 90
      176
 90
        4
 90
      180
 90
      183
 90
      182
 90
      181
 90
        4
 90
      184
 90
      187
 90
      186
 90
      185
 90
        4
 90
      184
 90
      178
 90
      188
 90
      187
 90
        4
 90
      189
 90
      192
 90
      191
 90
      190
 90
        3
 90
      193
 90
      190
 90
      162
 90
        4
 90
      173
 90
      191
 90
      192
 90
      194
 90
        4
 90
      195
 90
      189
 90
      190
 90
      193
 90
        4
 90
      175
 90
      192
 90
      189
 90
      174
 90
        4
 90
      175
 90
      179
 90
      194
 90
      192
 90
        4
 90
      196
 90
      195
 90
      193
 90
      197
 90
        3
 90
      196
 90
      199
 90
      198
 90
        3
 90
      196
 90
      198
 90
      200
 90
        4
 90
      180
 90
      195
 90
      196
 90
      183
 90
        3
 90
      201
 90
      203
 90
      202
 90
        4
 90
      202
 90
      203
 90
      182
 90
      183
 90
        4
 90
      194
 90
      184
 90
      185
 90
      173
 90
        4
 90
      179
 90
      178
 90
      184
 90
      194
 90
        4
 90
      130
 90
      201
 90
      202
 90
      132
 90
        4
 90
      131
 90
      132
 90
      202
 90
      196
 90
        3
 90
      183
 90
      196
 90
      202
 90
        3
 90
      204
 90
      131
 90
      196
 90
        3
 90
      200
 90
      204
 90
      196
 90
        4
 90
      138
 90
      205
 90
      143
 90
      137
 90
        4
 90
      144
 90
      206
 90
      205
 90
      138
 90
        4
 90
      146
 90
      207
 90
      206
 90
      144
 90
        4
 90
      147
 90
      208
 90
      207
 90
      146
 90
        4
 90
      145
 90
      209
 90
      208
 90
      147
 90
        4
 90
      139
 90
      210
 90
      209
 90
      145
 90
        4
 90
      133
 90
      134
 90
      210
 90
      139
 90
        4
 90
      162
 90
      190
 90
      191
 90
      154
 90
        3
 90
      154
 90
      191
 90
      173
 90
        4
 90
      181
 90
      177
 90
      174
 90
      180
 90
        4
 90
      180
 90
      174
 90
      189
 90
      195
 90
        4
 90
      150
 90
      173
 90
      185
 90
      156
 90
        4
 90
      156
 90
      185
 90
      186
 90
      158
 90
        4
 90
      172
 90
      213
 90
      212
 90
      211
 90
        4
 90
      213
 90
      215
 90
      214
 90
      212
 90
        4
 90
      216
 90
      217
 90
      214
 90
      215
 90
        4
 90
      218
 90
      219
 90
      217
 90
      216
 90
        4
 90
      220
 90
      221
 90
      219
 90
      218
 90
        4
 90
      222
 90
      223
 90
      221
 90
      220
 90
        4
 90
      224
 90
      225
 90
      223
 90
      222
 90
        4
 90
      226
 90
      227
 90
      225
 90
      224
 90
        4
 90
      228
 90
      229
 90
      227
 90
      226
 90
        4
 90
      230
 90
      231
 90
      229
 90
      228
 90
        4
 90
      232
 90
      233
 90
      231
 90
      230
 90
        4
 90
      234
 90
      235
 90
      233
 90
      232
 90
        4
 90
      236
 90
      237
 90
      235
 90
      234
 90
        4
 90
      238
 90
      239
 90
      237
 90
      236
 90
        4
 90
      240
 90
      241
 90
      239
 90
      238
 90
        4
 90
      242
 90
      243
 90
      241
 90
      240
 90
        4
 90
      244
 90
      245
 90
      243
 90
      242
 90
        4
 90
      246
 90
      247
 90
      245
 90
      244
 90
        4
 90
      248
 90
      249
 90
      247
 90
      246
 90
        4
 90
      170
 90
      171
 90
      249
 90
      248
 90
        4
 90
      172
 90
      129
 90
      131
 90
      204
 90
        3
 90
      246
 90
      198
 90
      248
 90
        3
 90
      244
 90
      198
 90
      246
 90
        3
 90
      172
 90
      204
 90
      213
 90
        3
 90
      213
 90
      204
 90
      215
 90
        4
 90
      215
 90
      204
 90
      200
 90
      216
 90
        3
 90
      216
 90
      200
 90
      218
 90
        3
 90
      218
 90
      200
 90
      220
 90
        3
 90
      220
 90
      200
 90
      222
 90
        3
 90
      222
 90
      200
 90
      224
 90
        3
 90
      224
 90
      200
 90
      226
 90
        3
 90
      226
 90
      200
 90
      228
 90
        3
 90
      228
 90
      200
 90
      230
 90
        3
 90
      230
 90
      200
 90
      232
 90
        3
 90
      232
 90
      200
 90
      234
 90
        3
 90
      234
 90
      200
 90
      236
 90
        3
 90
      236
 90
      200
 90
      238
 90
        4
 90
      238
 90
      200
 90
      198
 90
      240
 90
        3
 90
      240
 90
      198
 90
      242
 90
        3
 90
      242
 90
      198
 90
      244
 90
        4
 90
      193
 90
      162
 90
      166
 90
      197
 90
        4
 90
      197
 90
      166
 90
      170
 90
      199
 90
        4
 90
      199
 90
      170
 90
      248
 90
      198
 90
        4
 90
      135
 90
        3
 90
       12
 90
      134
 90
        4
 90
      210
 90
       13
 90
       14
 90
      209
 90
        4
 90
      209
 90
       14
 90
       15
 90
      208
 90
        4
 90
      159
 90
       25
 90
       24
 90
      157
 90
        4
 90
      157
 90
       24
 90
       23
 90
      153
 90
        4
 90
      153
 90
       23
 90
       22
 90
      152
 90
        4
 90
      152
 90
       22
 90
       29
 90
      155
 90
        4
 90
      155
 90
       29
 90
       28
 90
      163
 90
        4
 90
      167
 90
       30
 90
       32
 90
      169
 90
        4
 90
      169
 90
       32
 90
       35
 90
      171
 90
        4
 90
      245
 90
      102
 90
      101
 90
      243
 90
        4
 90
      241
 90
      100
 90
       99
 90
      239
 90
        4
 90
      239
 90
       99
 90
       98
 90
      237
 90
        4
 90
      237
 90
       98
 90
       97
 90
      235
 90
        4
 90
      233
 90
       96
 90
       95
 90
      231
 90
        4
 90
      231
 90
       95
 90
       94
 90
      229
 90
        4
 90
      219
 90
       89
 90
       88
 90
      217
 90
        4
 90
      217
 90
       88
 90
       87
 90
      214
 90
        4
 90
      214
 90
       87
 90
       86
 90
      212
 90
        4
 90
      148
 90
       33
 90
       20
 90
      128
 90
        4
 90
      126
 90
        0
 90
       66
 90
      130
 90
        4
 90
      201
 90
       67
 90
       68
 90
      203
 90
        4
 90
      176
 90
       51
 90
       70
 90
      178
 90
        4
 90
      178
 90
       70
 90
       69
 90
      188
 90
        4
 90
      186
 90
       54
 90
       48
 90
      158
 90
        4
 90
      158
 90
       48
 90
       49
 90
      161
 90
        4
 90
      161
 90
       49
 90
       50
 90
      141
 90
        4
 90
      141
 90
       50
 90
        2
 90
      136
 90
        3
 90
      133
 90
      137
 90
      136
 90
        3
 90
      196
 90
      197
 90
      199
 90
        4
 90
      182
 90
      203
 90
       68
 90
       53
 90
        4
 90
      181
 90
      182
 90
       53
 90
       85
 90
        4
 90
      177
 90
      181
 90
       85
 90
       52
 94
      529
 90
        0
 90
       36
 90
        0
 90
        1
 90
        1
 90
       20
 90
       20
 90
       36
 90
       37
 90
       78
 90
        0
 90
       78
 90
       36
 90
       37
 90
        0
 90
       79
 90
       78
 90
       79
 90
        0
 90
       66
 90
       66
 90
       79
 90
       11
 90
       12
 90
        3
 90
       12
 90
        2
 90
        3
 90
        2
 90
       11
 90
        4
 90
       11
 90
        4
 90
        5
 90
        5
 90
       10
 90
       10
 90
       11
 90
        4
 90
       44
 90
        2
 90
        4
 90
        2
 90
       50
 90
       44
 90
       50
 90
       19
 90
       21
 90
        4
 90
       19
 90
       21
 90
       44
 90
        5
 90
        6
 90
        6
 90
        9
 90
        9
 90
       10
 90
        6
 90
        7
 90
        7
 90
        8
 90
        8
 90
        9
 90
       20
 90
       33
 90
       33
 90
       37
 90
       27
 90
       50
 90
       21
 90
       27
 90
       45
 90
       46
 90
       22
 90
       45
 90
       22
 90
       23
 90
       23
 90
       46
 90
       29
 90
       42
 90
       22
 90
       29
 90
       42
 90
       45
 90
       46
 90
       47
 90
       23
 90
       24
 90
       24
 90
       47
 90
       47
 90
       48
 90
       24
 90
       25
 90
       25
 90
       48
 90
       25
 90
       26
 90
       26
 90
       49
 90
       48
 90
       49
 90
       26
 90
       27
 90
       49
 90
       50
 90
       28
 90
       43
 90
       28
 90
       29
 90
       42
 90
       43
 90
       40
 90
       43
 90
       31
 90
       40
 90
       28
 90
       31
 90
       40
 90
       41
 90
       30
 90
       41
 90
       30
 90
       31
 90
       39
 90
       41
 90
       32
 90
       39
 90
       30
 90
       32
 90
       38
 90
       39
 90
       35
 90
       38
 90
       32
 90
       35
 90
       33
 90
       34
 90
       34
 90
      105
 90
       37
 90
      105
 90
       38
 90
       41
 90
       41
 90
       43
 90
       46
 90
       72
 90
       42
 90
       72
 90
       82
 90
       83
 90
       51
 90
       83
 90
       51
 90
       52
 90
       52
 90
       82
 90
       51
 90
       70
 90
       51
 90
       84
 90
       70
 90
       84
 90
       83
 90
       84
 90
       81
 90
       85
 90
       53
 90
       85
 90
       53
 90
       80
 90
       80
 90
       81
 90
       71
 90
       74
 90
       54
 90
       71
 90
       54
 90
       55
 90
       55
 90
       74
 90
       55
 90
       69
 90
       69
 90
       70
 90
       70
 90
       74
 90
       57
 90
       58
 90
       56
 90
       57
 90
       56
 90
       59
 90
       58
 90
       59
 90
       43
 90
       60
 90
       43
 90
       57
 90
       57
 90
       60
 90
       72
 90
       73
 90
       59
 90
       73
 90
       56
 90
       72
 90
       60
 90
       65
 90
       58
 90
       65
 90
       58
 90
       82
 90
       59
 90
       83
 90
       73
 90
       84
 90
       61
 90
       64
 90
       60
 90
       61
 90
       64
 90
       65
 90
       63
 90
       64
 90
       62
 90
       63
 90
       62
 90
       64
 90
       63
 90
       76
 90
       64
 90
       76
 90
       64
 90
       80
 90
       65
 90
       81
 90
       68
 90
       75
 90
       67
 90
       68
 90
       67
 90
       75
 90
       75
 90
       80
 90
       53
 90
       68
 90
       71
 90
       72
 90
       73
 90
       74
 90
       75
 90
       79
 90
       66
 90
       67
 90
       64
 90
       78
 90
       64
 90
       75
 90
       64
 90
       77
 90
       77
 90
       78
 90
       76
 90
       77
 90
       18
 90
       19
 90
        5
 90
       18
 90
       17
 90
       18
 90
        6
 90
       17
 90
       16
 90
       17
 90
        7
 90
       16
 90
       15
 90
       16
 90
        8
 90
       15
 90
       14
 90
       15
 90
        9
 90
       14
 90
       13
 90
       14
 90
       10
 90
       13
 90
       12
 90
       13
 90
       42
 90
       56
 90
       81
 90
       82
 90
       52
 90
       85
 90
       47
 90
       71
 90
       48
 90
       54
 90
       34
 90
       86
 90
       86
 90
      106
 90
      105
 90
      106
 90
       86
 90
       87
 90
       87
 90
      107
 90
      106
 90
      107
 90
      107
 90
      108
 90
       87
 90
       88
 90
       88
 90
      108
 90
      108
 90
      109
 90
       88
 90
       89
 90
       89
 90
      109
 90
      109
 90
      110
 90
       89
 90
       90
 90
       90
 90
      110
 90
      110
 90
      111
 90
       90
 90
       91
 90
       91
 90
      111
 90
      111
 90
      112
 90
       91
 90
       92
 90
       92
 90
      112
 90
      112
 90
      113
 90
       92
 90
       93
 90
       93
 90
      113
 90
      113
 90
      114
 90
       93
 90
       94
 90
       94
 90
      114
 90
      114
 90
      115
 90
       94
 90
       95
 90
       95
 90
      115
 90
      115
 90
      116
 90
       95
 90
       96
 90
       96
 90
      116
 90
      116
 90
      117
 90
       96
 90
       97
 90
       97
 90
      117
 90
      117
 90
      118
 90
       97
 90
       98
 90
       98
 90
      118
 90
      118
 90
      119
 90
       98
 90
       99
 90
       99
 90
      119
 90
      119
 90
      120
 90
       99
 90
      100
 90
      100
 90
      120
 90
      120
 90
      121
 90
      100
 90
      101
 90
      101
 90
      121
 90
      121
 90
      122
 90
      101
 90
      102
 90
      102
 90
      122
 90
      122
 90
      123
 90
      102
 90
      103
 90
      103
 90
      123
 90
      123
 90
      124
 90
      103
 90
      104
 90
      104
 90
      124
 90
       38
 90
      124
 90
       35
 90
      104
 90
       77
 90
      105
 90
       63
 90
      124
 90
       63
 90
      123
 90
       63
 90
      122
 90
       77
 90
      106
 90
       77
 90
      107
 90
       76
 90
      108
 90
       76
 90
      109
 90
       76
 90
      110
 90
       76
 90
      111
 90
       76
 90
      112
 90
       76
 90
      113
 90
       76
 90
      114
 90
       76
 90
      115
 90
       76
 90
      116
 90
       76
 90
      117
 90
       76
 90
      118
 90
       76
 90
      119
 90
       63
 90
      120
 90
       63
 90
      121
 90
       41
 90
       61
 90
       61
 90
       62
 90
       38
 90
       62
 90
        3
 90
      135
 90
      135
 90
      136
 90
        2
 90
      136
 90
       13
 90
      210
 90
      134
 90
      210
 90
       12
 90
      134
 90
       16
 90
      207
 90
      207
 90
      208
 90
       15
 90
      208
 90
       17
 90
      206
 90
      206
 90
      207
 90
       18
 90
      205
 90
      205
 90
      206
 90
       19
 90
      143
 90
      143
 90
      205
 90
       21
 90
      142
 90
      142
 90
      143
 90
       27
 90
      149
 90
      142
 90
      149
 90
       26
 90
      160
 90
      149
 90
      160
 90
       25
 90
      159
 90
      159
 90
      160
 90
       31
 90
      165
 90
      163
 90
      165
 90
       28
 90
      163
 90
       30
 90
      167
 90
      165
 90
      167
 90
      104
 90
      249
 90
      171
 90
      249
 90
       35
 90
      171
 90
      103
 90
      247
 90
      247
 90
      249
 90
      102
 90
      245
 90
      245
 90
      247
 90
      100
 90
      241
 90
      241
 90
      243
 90
      101
 90
      243
 90
       96
 90
      233
 90
      233
 90
      235
 90
       97
 90
      235
 90
       93
 90
      227
 90
      227
 90
      229
 90
       94
 90
      229
 90
       92
 90
      225
 90
      225
 90
      227
 90
       91
 90
      223
 90
      223
 90
      225
 90
       90
 90
      221
 90
      221
 90
      223
 90
       89
 90
      219
 90
      219
 90
      221
 90
       34
 90
      211
 90
      211
 90
      212
 90
       86
 90
      212
 90
       33
 90
      148
 90
      148
 90
      211
 90
        1
 90
      127
 90
      127
 90
      128
 90
       20
 90
      128
 90
        0
 90
      126
 90
      126
 90
      127
 90
       67
 90
      201
 90
      130
 90
      201
 90
       66
 90
      130
 90
       51
 90
      176
 90
      176
 90
      177
 90
       52
 90
      177
 90
       55
 90
      187
 90
      187
 90
      188
 90
       69
 90
      188
 90
       54
 90
      186
 90
      186
 90
      187
 90
      125
 90
      128
 90
      125
 90
      126
 90
      125
 90
      129
 90
      126
 90
      131
 90
      129
 90
      131
 90
      131
 90
      132
 90
      126
 90
      132
 90
      130
 90
      132
 90
      126
 90
      130
 90
      133
 90
      136
 90
      134
 90
      135
 90
      133
 90
      134
 90
      133
 90
      139
 90
      138
 90
      139
 90
      137
 90
      138
 90
      133
 90
      137
 90
      140
 90
      141
 90
      136
 90
      141
 90
      136
 90
      137
 90
      137
 90
      140
 90
      140
 90
      142
 90
      137
 90
      143
 90
      139
 90
      145
 90
      144
 90
      145
 90
      138
 90
      144
 90
      145
 90
      147
 90
      146
 90
      147
 90
      144
 90
      146
 90
      129
 90
      148
 90
      128
 90
      148
 90
      141
 90
      149
 90
      150
 90
      153
 90
      152
 90
      153
 90
      151
 90
      152
 90
      150
 90
      151
 90
      151
 90
      154
 90
      152
 90
      155
 90
      154
 90
      155
 90
      156
 90
      157
 90
      153
 90
      157
 90
      150
 90
      156
 90
      158
 90
      159
 90
      157
 90
      159
 90
      156
 90
      158
 90
      158
 90
      161
 90
      160
 90
      161
 90
      141
 90
      161
 90
      154
 90
      162
 90
      155
 90
      163
 90
      162
 90
      163
 90
      164
 90
      165
 90
      162
 90
      164
 90
      166
 90
      167
 90
      164
 90
      166
 90
      167
 90
      169
 90
      168
 90
      169
 90
      166
 90
      168
 90
      169
 90
      171
 90
      170
 90
      171
 90
      168
 90
      170
 90
      129
 90
      172
 90
      172
 90
      211
 90
      166
 90
      170
 90
      162
 90
      166
 90
      154
 90
      173
 90
      150
 90
      173
 90
      174
 90
      177
 90
      175
 90
      176
 90
      174
 90
      175
 90
      178
 90
      179
 90
      176
 90
      179
 90
      176
 90
      178
 90
      175
 90
      179
 90
      180
 90
      183
 90
      182
 90
      183
 90
      181
 90
      182
 90
      180
 90
      181
 90
      184
 90
      187
 90
      185
 90
      186
 90
      184
 90
      185
 90
      178
 90
      184
 90
      178
 90
      188
 90
      189
 90
      192
 90
      191
 90
      192
 90
      190
 90
      191
 90
      189
 90
      190
 90
      190
 90
      193
 90
      162
 90
      190
 90
      162
 90
      193
 90
      173
 90
      191
 90
      192
 90
      194
 90
      173
 90
      194
 90
      189
 90
      195
 90
      193
 90
      195
 90
      175
 90
      192
 90
      174
 90
      189
 90
      179
 90
      194
 90
      195
 90
      196
 90
      193
 90
      197
 90
      196
 90
      197
 90
      196
 90
      199
 90
      198
 90
      199
 90
      196
 90
      198
 90
      198
 90
      200
 90
      196
 90
      200
 90
      180
 90
      195
 90
      183
 90
      196
 90
      201
 90
      203
 90
      202
 90
      203
 90
      201
 90
      202
 90
      182
 90
      203
 90
      183
 90
      202
 90
      184
 90
      194
 90
      173
 90
      185
 90
      132
 90
      202
 90
      196
 90
      202
 90
      131
 90
      196
 90
      131
 90
      204
 90
      196
 90
      204
 90
      200
 90
      204
 90
      138
 90
      205
 90
      144
 90
      206
 90
      146
 90
      207
 90
      147
 90
      208
 90
      145
 90
      209
 90
      208
 90
      209
 90
      139
 90
      210
 90
      209
 90
      210
 90
      154
 90
      191
 90
      177
 90
      181
 90
      174
 90
      180
 90
      156
 90
      185
 90
      158
 90
      186
 90
      172
 90
      213
 90
      212
 90
      213
 90
      213
 90
      215
 90
      214
 90
      215
 90
      212
 90
      214
 90
      216
 90
      217
 90
      214
 90
      217
 90
      215
 90
      216
 90
      218
 90
      219
 90
      217
 90
      219
 90
      216
 90
      218
 90
      220
 90
      221
 90
      218
 90
      220
 90
      222
 90
      223
 90
      220
 90
      222
 90
      224
 90
      225
 90
      222
 90
      224
 90
      226
 90
      227
 90
      224
 90
      226
 90
      228
 90
      229
 90
      226
 90
      228
 90
      230
 90
      231
 90
      229
 90
      231
 90
      228
 90
      230
 90
      232
 90
      233
 90
      231
 90
      233
 90
      230
 90
      232
 90
      234
 90
      235
 90
      232
 90
      234
 90
      236
 90
      237
 90
      235
 90
      237
 90
      234
 90
      236
 90
      238
 90
      239
 90
      237
 90
      239
 90
      236
 90
      238
 90
      240
 90
      241
 90
      239
 90
      241
 90
      238
 90
      240
 90
      242
 90
      243
 90
      240
 90
      242
 90
      244
 90
      245
 90
      243
 90
      245
 90
      242
 90
      244
 90
      246
 90
      247
 90
      244
 90
      246
 90
      248
 90
      249
 90
      246
 90
      248
 90
      170
 90
      248
 90
      172
 90
      204
 90
      198
 90
      246
 90
      198
 90
      248
 90
      198
 90
      244
 90
      204
 90
      213
 90
      204
 90
      215
 90
      200
 90
      216
 90
      200
 90
      218
 90
      200
 90
      220
 90
      200
 90
      222
 90
      200
 90
      224
 90
      200
 90
      226
 90
      200
 90
      228
 90
      200
 90
      230
 90
      200
 90
      232
 90
      200
 90
      234
 90
      200
 90
      236
 90
      200
 90
      238
 90
      198
 90
      240
 90
      198
 90
      242
 90
      166
 90
      197
 90
      170
 90
      199
 90
      197
 90
      199
 90
       14
 90
      209
 90
       24
 90
      157
 90
       23
 90
      153
 90
       22
 90
      152
 90
       29
 90
      155
 90
       32
 90
      169
 90
       99
 90
      239
 90
       98
 90
      237
 90
       95
 90
      231
 90
       88
 90
      217
 90
       87
 90
      214
 90
       68
 90
      203
 90
       70
 90
      178
 90
       48
 90
      158
 90
       49
 90
      161
 90
       50
 90
      141
 90
       53
 90
      182
 90
       85
 90
      181
 95
      529
140
0.0
140
0.0
140
0.0
140
0.0
140
0.0
140
0.0
140
0.0
140
0.0
140
0.0
140
0.0
140
0.0
140
0.0
140
0.0
140
0.0
140
0.0
140
0.0
140
0.0
140
0.0
140
0.0
140
0.0
140
0.0
140
0.0
140
0.0
140
0.0
140
0.0
140
0.0
140
0.0
140
0.0
140
0.0
140
0.0
140
0.0
140
0.0
140
0.0
140
0.0
140
0.0
140
0.0
140
0.0
140
0.0
140
0.0
140
0.0
140
0.0
140
0.0
140
0.0
140
0.0
140
0.0
140
0.0
140
0.0
140
0.0
140
0.0
140
0.0
140
0.0
140
0.0
140
0.0
140
0.0
140
0.0
140
0.0
140
0.0
140
0.0
140
0.0
140
0.0
140
0.0
140
0.0
140
0.0
140
0.0
140
0.0
140
0.0
140
0.0
140
0.0
140
0.0
140
0.0
140
0.0
140
0.0
140
0.0
140
0.0
140
0.0
140
0.0
140
0.0
140
0.0
140
0.0
140
0.0
140
0.0
140
0.0
140
0.0
140
0.0
140
0.0
140
0.0
140
0.0
140
0.0
140
0.0
140
0.0
140
0.0
140
0.0
140
0.0
140
0.0
140
0.0
140
0.0
140
0.0
140
0.0
140
0.0
140
0.0
140
0.0
140
0.0
140
0.0
140
0.0
140
0.0
140
0.0
140
0.0
140
0.0
140
0.0
140
0.0
140
0.0
140
0.0
140
0.0
140
0.0
140
0.0
140
0.0
140
0.0
140
0.0
140
0.0
140
0.0
140
0.0
140
0.0
140
0.0
140
0.0
140
0.0
140
0.0
140
0.0
140
0.0
140
0.0
140
0.0
140
0.0
140
0.0
140
0.0
140
0.0
140
0.0
140
0.0
140
0.0
140
0.0
140
0.0
140
0.0
140
0.0
140
0.0
140
0.0
140
0.0
140
0.0
140
0.0
140
0.0
140
0.0
140
0.0
140
0.0
140
0.0
140
0.0
140
0.0
140
0.0
140
0.0
140
0.0
140
0.0
140
0.0
140
0.0
140
0.0
140
0.0
140
0.0
140
0.0
140
0.0
140
0.0
140
0.0
140
0.0
140
0.0
140
0.0
140
0.0
140
0.0
140
0.0
140
0.0
140
0.0
140
0.0
140
0.0
140
0.0
140
0.0
140
0.0
140
0.0
140
0.0
140
0.0
140
0.0
140
0.0
140
0.0
140
0.0
140
0.0
140
0.0
140
0.0
140
0.0
140
0.0
140
0.0
140
0.0
140
0.0
140
0.0
140
0.0
140
0.0
140
0.0
140
0.0
140
0.0
140
0.0
140
0.0
140
0.0
140
0.0
140
0.0
140
0.0
140
0.0
140
0.0
140
0.0
140
0.0
140
0.0
140
0.0
140
0.0
140
0.0
140
0.0
140
0.0
140
0.0
140
0.0
140
0.0
140
0.0
140
0.0
140
0.0
140
0.0
140
0.0
140
0.0
140
0.0
140
0.0
140
0.0
140
0.0
140
0.0
140
0.0
140
0.0
140
0.0
140
0.0
140
0.0
140
0.0
140
0.0
140
0.0
140
0.0
140
0.0
140
0.0
140
0.0
140
0.0
140
0.0
140
0.0
140
0.0
140
0.0
140
0.0
140
0.0
140
0.0
140
0.0
140
0.0
140
0.0
140
0.0
140
0.0
140
0.0
140
0.0
140
0.0
140
0.0
140
0.0
140
0.0
140
0.0
140
0.0
140
0.0
140
0.0
140
0.0
140
0.0
140
0.0
140
0.0
140
0.0
140
0.0
140
0.0
140
0.0
140
0.0
140
0.0
140
0.0
140
0.0
140
0.0
140
0.0
140
0.0
140
0.0
140
0.0
140
0.0
140
0.0
140
0.0
140
0.0
140
0.0
140
0.0
140
0.0
140
0.0
140
0.0
140
0.0
140
0.0
140
0.0
140
0.0
140
0.0
140
0.0
140
0.0
140
0.0
140
0.0
140
0.0
140
0.0
140
0.0
140
0.0
140
0.0
140
0.0
140
0.0
140
0.0
140
0.0
140
0.0
140
0.0
140
0.0
140
0.0
140
0.0
140
0.0
140
0.0
140
0.0
140
0.0
140
0.0
140
0.0
140
0.0
140
0.0
140
0.0
140
0.0
140
0.0
140
0.0
140
0.0
140
0.0
140
0.0
140
0.0
140
0.0
140
0.0
140
0.0
140
0.0
140
0.0
140
0.0
140
0.0
140
0.0
140
0.0
140
0.0
140
0.0
140
0.0
140
0.0
140
0.0
140
0.0
140
0.0
140
0.0
140
0.0
140
0.0
140
0.0
140
0.0
140
0.0
140
0.0
140
0.0
140
0.0
140
0.0
140
0.0
140
0.0
140
0.0
140
0.0
140
0.0
140
0.0
140
0.0
140
0.0
140
0.0
140
0.0
140
0.0
140
0.0
140
0.0
140
0.0
140
0.0
140
0.0
140
0.0
140
0.0
140
0.0
140
0.0
140
0.0
140
0.0
140
0.0
140
0.0
140
0.0
140
0.0
140
0.0
140
0.0
140
0.0
140
0.0
140
0.0
140
0.0
140
0.0
140
0.0
140
0.0
140
0.0
140
0.0
140
0.0
140
0.0
140
0.0
140
0.0
140
0.0
140
0.0
140
0.0
140
0.0
140
0.0
140
0.0
140
0.0
140
0.0
140
0.0
140
0.0
140
0.0
140
0.0
140
0.0
140
0.0
140
0.0
140
0.0
140
0.0
140
0.0
140
0.0
140
0.0
140
0.0
140
0.0
140
0.0
140
0.0
140
0.0
140
0.0
140
0.0
140
0.0
140
0.0
140
0.0
140
0.0
140
0.0
140
0.0
140
0.0
140
0.0
140
0.0
140
0.0
140
0.0
140
0.0
140
0.0
140
0.0
140
0.0
140
0.0
140
0.0
140
0.0
140
0.0
140
0.0
140
0.0
140
0.0
140
0.0
140
0.0
140
0.0
140
0.0
140
0.0
140
0.0
140
0.0
140
0.0
140
0.0
140
0.0
140
0.0
140
0.0
140
0.0
140
0.0
140
0.0
140
0.0
140
0.0
140
0.0
140
0.0
140
0.0
140
0.0
140
0.0
140
0.0
140
0.0
140
0.0
140
0.0
140
0.0
140
0.0
140
0.0
140
0.0
140
0.0
140
0.0
140
0.0
140
0.0
140
0.0
140
0.0
140
0.0
140
0.0
140
0.0
140
0.0
140
0.0
140
0.0
140
0.0
140
0.0
140
0.0
140
0.0
140
0.0
140
0.0
140
0.0
140
0.0
140
0.0
140
0.0
140
0.0
140
0.0
140
0.0
140
0.0
140
0.0
140
0.0
140
0.0
140
0.0
140
0.0
140
0.0
140
0.0
140
0.0
140
0.0
140
0.0
140
0.0
140
0.0
140
0.0
140
0.0
140
0.0
140
0.0
140
0.0
140
0.0
140
0.0
140
0.0
140
0.0
140
0.0
140
0.0
140
0.0
140
0.0
140
0.0
140
0.0
 90
        0
  0
ENDSEC
  0
SECTION
  2
OBJECTS
  0
DICTIONARY
  5
C
330
0
100
AcDbDictionary
281
     1
  3
ACAD_COLOR
350
DC
  3
ACAD_DETAILVIEWSTYLE
350
F5
  3
ACAD_GROUP
350
D
  3
ACAD_LAYOUT
350
1A
  3
ACAD_MATERIAL
350
AA
  3
ACAD_MLEADERSTYLE
350
F1
  3
ACAD_MLINESTYLE
350
17
  3
ACAD_PLOTSETTINGS
350
19
  3
ACAD_PLOTSTYLENAME
350
E
  3
ACAD_SCALELIST
350
DF
  3
ACAD_SECTIONVIEWSTYLE
350
F3
  3
ACAD_TABLESTYLE
350
DD
  3
ACAD_VISUALSTYLE
350
C3
  3
ACDB_RECOMPOSE_DATA
350
106
  3
AcDbVariableDictionary
350
FA
  0
DICTIONARY
  5
DC
102
{ACAD_REACTORS
330
C
102
}
330
C
100
AcDbDictionary
281
     1
  0
DICTIONARY
  5
F5
102
{ACAD_REACTORS
330
C
102
}
330
C
100
AcDbDictionary
281
     1
  3
Imperial24
350
F6
  0
DICTIONARY
  5
D
102
{ACAD_REACTORS
330
C
102
}
330
C
100
AcDbDictionary
281
     1
  0
DICTIONARY
  5
1A
102
{ACAD_REACTORS
330
C
102
}
330
C
100
AcDbDictionary
281
     1
  3
Layout1
350
1E
  3
Layout2
350
26
  3
Model
350
22
  0
DICTIONARY
  5
AA
102
{ACAD_REACTORS
330
C
102
}
330
C
100
AcDbDictionary
281
     1
  3
ByBlock
350
B3
  3
ByLayer
350
AB
  3
Global
350
BB
  0
DICTIONARY
  5
F1
102
{ACAD_REACTORS
330
C
102
}
330
C
100
AcDbDictionary
281
     1
  3
Standard
350
F2
  0
DICTIONARY
  5
17
102
{ACAD_REACTORS
330
C
102
}
330
C
100
AcDbDictionary
281
     1
  3
Standard
350
18
  0
DICTIONARY
  5
19
102
{ACAD_REACTORS
330
C
102
}
330
C
100
AcDbDictionary
281
     1
  0
ACDBDICTIONARYWDFLT
  5
E
102
{ACAD_REACTORS
330
C
102
}
330
C
100
AcDbDictionary
281
     1
  3
ByLayer
350
2D
  3
Normal
350
F
100
AcDbDictionaryWithDefault
340
F
  0
DICTIONARY
  5
DF
102
{ACAD_REACTORS
330
C
102
}
330
C
100
AcDbDictionary
281
     1
  3
A0
350
E0
  3
A1
350
E1
  3
A2
350
E2
  3
A3
350
E3
  3
A4
350
E4
  3
A5
350
E5
  3
A6
350
E6
  3
A7
350
E7
  3
A8
350
E8
  3
A9
350
E9
  3
B0
350
EA
  3
B1
350
EB
  3
B2
350
EC
  3
B3
350
ED
  3
B4
350
EE
  3
B5
350
EF
  3
B6
350
F0
  0
DICTIONARY
  5
F3
102
{ACAD_REACTORS
330
C
102
}
330
C
100
AcDbDictionary
281
     1
  3
Imperial24
350
F4
  0
DICTIONARY
  5
DD
102
{ACAD_REACTORS
330
C
102
}
330
C
100
AcDbDictionary
281
     1
  3
Standard
350
DE
  0
DICTIONARY
  5
C3
102
{ACAD_REACTORS
330
C
102
}
330
C
100
AcDbDictionary
281
     1
  3
2dWireframe
350
C9
  3
Basic
350
C8
  3
Brighten
350
CF
  3
ColorChange
350
D3
  3
Conceptual
350
CC
  3
Dim
350
CE
  3
EdgeColorOff
350
DB
  3
Facepattern
350
D2
  3
Flat
350
C4
  3
FlatWithEdges
350
C5
  3
Gouraud
350
C6
  3
GouraudWithEdges
350
C7
  3
Hidden
350
CB
  3
JitterOff
350
D9
  3
Linepattern
350
D1
  3
OverhangOff
350
DA
  3
Realistic
350
CD
  3
Shaded
350
D8
  3
Shaded with edges
350
D7
  3
Shades of Gray
350
D4
  3
Sketchy
350
D5
  3
Thicken
350
D0
  3
Wireframe
350
CA
  3
X-Ray
350
D6
  0
XRECORD
  5
106
102
{ACAD_REACTORS
330
C
102
}
330
C
100
AcDbXrecord
280
     1
 90
        1
330
DE
  0
DICTIONARY
  5
FA
102
{ACAD_REACTORS
330
C
102
}
330
C
100
AcDbDictionary
281
     1
  3
CANNOSCALE
350
100
  3
CMLEADERSTYLE
350
FC
  3
CTABLESTYLE
350
FB
  3
CVIEWDETAILSTYLE
350
FD
  3
CVIEWSECTIONSTYLE
350
FE
  3
LAYEREVAL
350
102
  3
LAYERNOTIFY
350
103
  3
LIGHTINGUNITS
350
101
  3
MSLTSCALE
350
FF
  0
ACDBDETAILVIEWSTYLE
  5
F6
102
{ACAD_XDICTIONARY
360
13B
102
}
102
{ACAD_REACTORS
330
F5
102
}
330
F5
100
AcDbModelDocViewStyle
 70
     0
  3
Imperial24
290
     0
100
AcDbDetailViewStyle
 70
     0
 71
     0
 90
        3
 71
     1
340
11
 62
   256
 40
0.24
340
0
 62
   256
 40
0.24
300

 40
0.36
280
     3
 71
     2
340
16
 90
       25
 62
   256
 71
     3
340
11
 62
   256
 40
0.24
 90
        1
 40
0.75
 90
        1
300
%<\AcVar ViewType \f "%tc1">% %<\AcVar ViewDetailId>%\PSCALE %<\AcVar ViewScale \f "%sn">%
 71
     4
340
16
 90
       25
 62
   256
340
16
 90
       25
 62
   256
280
     0
  0
LAYOUT
  5
1E
102
{ACAD_REACTORS
330
1A
102
}
330
1A
100
AcDbPlotSettings
  1

  2
\\KTXNTBDC\CASF2PN1
  4

  6

 40
0.0
 41
0.0
 42
0.0
 43
0.0
 44
0.0
 45
0.0
 46
0.0
 47
0.0
 48
0.0
 49
0.0
140
0.0
141
0.0
142
1.0
143
1.0
 70
   688
 72
     0
 73
     0
 74
     5
  7

 75
    16
147
1.0
 76
     0
 77
     2
 78
   300
148
0.0
149
0.0
100
AcDbLayout
  1
Layout1
 70
     1
 71
     1
 10
0.0
 20
0.0
 11
12.0
 21
9.0
 12
0.0
 22
0.0
 32
0.0
 14
1.000000000000000E+20
 24
1.000000000000000E+20
 34
1.000000000000000E+20
 15
-1.000000000000000E+20
 25
-1.000000000000000E+20
 35
-1.000000000000000E+20
146
0.0
 13
0.0
 23
0.0
 33
0.0
 16
1.0
 26
0.0
 36
0.0
 17
0.0
 27
1.0
 37
0.0
 76
     0
330
1B
  0
LAYOUT
  5
26
102
{ACAD_REACTORS
330
1A
102
}
330
1A
100
AcDbPlotSettings
  1

  2
\\KTXNTBDC\CASF2PN1
  4

  6

 40
0.0
 41
0.0
 42
0.0
 43
0.0
 44
0.0
 45
0.0
 46
0.0
 47
0.0
 48
0.0
 49
0.0
140
0.0
141
0.0
142
1.0
143
1.0
 70
   688
 72
     0
 73
     0
 74
     5
  7

 75
    16
147
1.0
 76
     0
 77
     2
 78
   300
148
0.0
149
0.0
100
AcDbLayout
  1
Layout2
 70
     1
 71
     2
 10
0.0
 20
0.0
 11
12.0
 21
9.0
 12
0.0
 22
0.0
 32
0.0
 14
0.0
 24
0.0
 34
0.0
 15
0.0
 25
0.0
 35
0.0
146
0.0
 13
0.0
 23
0.0
 33
0.0
 16
1.0
 26
0.0
 36
0.0
 17
0.0
 27
1.0
 37
0.0
 76
     0
330
23
  0
LAYOUT
  5
22
102
{ACAD_REACTORS
330
1A
102
}
330
1A
100
AcDbPlotSettings
  1

  2
\\KTXNTBDC\CASF2PN1
  4

  6

 40
0.0
 41
0.0
 42
0.0
 43
0.0
 44
0.0
 45
0.0
 46
0.0
 47
0.0
 48
0.0
 49
0.0
140
0.0
141
0.0
142
1.0
143
1.0
 70
  1712
 72
     0
 73
     0
 74
     0
  7

 75
     0
147
1.0
 76
     0
 77
     2
 78
   300
148
0.0
149
0.0
100
AcDbLayout
  1
Model
 70
     1
 71
     0
 10
0.0
 20
0.0
 11
12.0
 21
9.0
 12
0.0
 22
0.0
 32
0.0
 14
0.0
 24
0.0
 34
0.0
 15
0.0
 25
0.0
 35
0.0
146
0.0
 13
0.0
 23
0.0
 33
0.0
 16
1.0
 26
0.0
 36
0.0
 17
0.0
 27
1.0
 37
0.0
 76
     0
330
1F
  0
MATERIAL
  5
B3
102
{ACAD_XDICTIONARY
360
B4
102
}
102
{ACAD_REACTORS
330
AA
102
}
330
AA
100
AcDbMaterial
  1
ByBlock
 72
     0
 43
0.0208333333333333
 43
0.0
 43
0.0
 43
0.0
 43
0.0
 43
0.0208333333333333
 43
0.0
 43
0.0
 43
0.0
 43
0.0
 43
1.0
 43
0.0
 43
0.0
 43
0.0
 43
0.0
 43
1.0
 77
     0
 47
0.0208333333333333
 47
0.0
 47
0.0
 47
0.0
 47
0.0
 47
0.0208333333333333
 47
0.0
 47
0.0
 47
0.0
 47
0.0
 47
1.0
 47
0.0
 47
0.0
 47
0.0
 47
0.0
 47
1.0
171
     0
 49
0.0208333333333333
 49
0.0
 49
0.0
 49
0.0
 49
0.0
 49
0.0208333333333333
 49
0.0
 49
0.0
 49
0.0
 49
0.0
 49
1.0
 49
0.0
 49
0.0
 49
0.0
 49
0.0
 49
1.0
175
     0
142
0.0208333333333333
142
0.0
142
0.0
142
0.0
142
0.0
142
0.0208333333333333
142
0.0
142
0.0
142
0.0
142
0.0
142
1.0
142
0.0
142
0.0
142
0.0
142
0.0
142
1.0
179
     0
144
0.0208333333333333
144
0.0
144
0.0
144
0.0
144
0.0
144
0.0208333333333333
144
0.0
144
0.0
144
0.0
144
0.0
144
1.0
144
0.0
144
0.0
144
0.0
144
0.0
144
1.0
147
0.0208333333333333
147
0.0
147
0.0
147
0.0
147
0.0
147
0.0208333333333333
147
0.0
147
0.0
147
0.0
147
0.0
147
1.0
147
0.0
147
0.0
147
0.0
147
0.0
147
1.0
  0
MATERIAL
  5
AB
102
{ACAD_XDICTIONARY
360
AC
102
}
102
{ACAD_REACTORS
330
AA
102
}
330
AA
100
AcDbMaterial
  1
ByLayer
 72
     0
 43
0.0208333333333333
 43
0.0
 43
0.0
 43
0.0
 43
0.0
 43
0.0208333333333333
 43
0.0
 43
0.0
 43
0.0
 43
0.0
 43
1.0
 43
0.0
 43
0.0
 43
0.0
 43
0.0
 43
1.0
 77
     0
 47
0.0208333333333333
 47
0.0
 47
0.0
 47
0.0
 47
0.0
 47
0.0208333333333333
 47
0.0
 47
0.0
 47
0.0
 47
0.0
 47
1.0
 47
0.0
 47
0.0
 47
0.0
 47
0.0
 47
1.0
171
     0
 49
0.0208333333333333
 49
0.0
 49
0.0
 49
0.0
 49
0.0
 49
0.0208333333333333
 49
0.0
 49
0.0
 49
0.0
 49
0.0
 49
1.0
 49
0.0
 49
0.0
 49
0.0
 49
0.0
 49
1.0
175
     0
142
0.0208333333333333
142
0.0
142
0.0
142
0.0
142
0.0
142
0.0208333333333333
142
0.0
142
0.0
142
0.0
142
0.0
142
1.0
142
0.0
142
0.0
142
0.0
142
0.0
142
1.0
179
     0
144
0.0208333333333333
144
0.0
144
0.0
144
0.0
144
0.0
144
0.0208333333333333
144
0.0
144
0.0
144
0.0
144
0.0
144
1.0
144
0.0
144
0.0
144
0.0
144
0.0
144
1.0
147
0.0208333333333333
147
0.0
147
0.0
147
0.0
147
0.0
147
0.0208333333333333
147
0.0
147
0.0
147
0.0
147
0.0
147
1.0
147
0.0
147
0.0
147
0.0
147
0.0
147
1.0
  0
MATERIAL
  5
BB
102
{ACAD_XDICTIONARY
360
BC
102
}
102
{ACAD_REACTORS
330
AA
102
}
330
AA
100
AcDbMaterial
  1
Global
 72
     0
 43
0.0208333333333333
 43
0.0
 43
0.0
 43
0.0
 43
0.0
 43
0.0208333333333333
 43
0.0
 43
0.0
 43
0.0
 43
0.0
 43
1.0
 43
0.0
 43
0.0
 43
0.0
 43
0.0
 43
1.0
 77
     0
 47
0.0208333333333333
 47
0.0
 47
0.0
 47
0.0
 47
0.0
 47
0.0208333333333333
 47
0.0
 47
0.0
 47
0.0
 47
0.0
 47
1.0
 47
0.0
 47
0.0
 47
0.0
 47
0.0
 47
1.0
171
     0
 49
0.0208333333333333
 49
0.0
 49
0.0
 49
0.0
 49
0.0
 49
0.0208333333333333
 49
0.0
 49
0.0
 49
0.0
 49
0.0
 49
1.0
 49
0.0
 49
0.0
 49
0.0
 49
0.0
 49
1.0
175
     0
142
0.0208333333333333
142
0.0
142
0.0
142
0.0
142
0.0
142
0.0208333333333333
142
0.0
142
0.0
142
0.0
142
0.0
142
1.0
142
0.0
142
0.0
142
0.0
142
0.0
142
1.0
179
     0
144
0.0208333333333333
144
0.0
144
0.0
144
0.0
144
0.0
144
0.0208333333333333
144
0.0
144
0.0
144
0.0
144
0.0
144
1.0
144
0.0
144
0.0
144
0.0
144
0.0
144
1.0
147
0.0208333333333333
147
0.0
147
0.0
147
0.0
147
0.0
147
0.0208333333333333
147
0.0
147
0.0
147
0.0
147
0.0
147
1.0
147
0.0
147
0.0
147
0.0
147
0.0
147
1.0
  0
MLEADERSTYLE
  5
F2
102
{ACAD_XDICTIONARY
360
137
102
}
102
{ACAD_REACTORS
330
F1
102
}
330
F1
100
AcDbMLeaderStyle
179
     2
170
     2
171
     1
172
     0
 90
        2
 40
0.0
 41
0.0
173
     1
 91
-1056964608
340
14
 92
       -2
290
     1
 42
0.09
291
     1
 43
0.36
  3
Standard
 44
0.18
300

342
11
174
     1
178
     6
175
     1
176
     0
 93
-1056964608
 45
0.18
292
     0
297
     0
 46
0.18
 94
-1056964608
 47
1.0
 49
1.0
140
1.0
293
     1
141
0.0
294
     1
177
     0
142
1.0
295
     0
296
     0
143
0.125
271
     0
272
     9
273
     9
  0
MLINESTYLE
  5
18
102
{ACAD_REACTORS
330
17
102
}
330
17
100
AcDbMlineStyle
  2
STANDARD
 70
     0
  3

 62
   256
 51
90.0
 52
90.0
 71
     2
 49
0.5
 62
   256
  6
BYLAYER
 49
-0.5
 62
   256
  6
BYLAYER
  0
ACDBPLACEHOLDER
  5
2D
102
{ACAD_REACTORS
330
E
102
}
330
E
  0
ACDBPLACEHOLDER
  5
F
102
{ACAD_REACTORS
330
E
102
}
330
E
  0
SCALE
  5
E0
102
{ACAD_REACTORS
330
DF
102
}
330
DF
100
AcDbScale
 70
     0
300
1:1
140
1.0
141
1.0
290
     1
  0
SCALE
  5
E1
102
{ACAD_REACTORS
330
DF
102
}
330
DF
100
AcDbScale
 70
     0
300
1/128" = 1'-0"
140
0.0078125
141
12.0
290
     0
  0
SCALE
  5
E2
102
{ACAD_REACTORS
330
DF
102
}
330
DF
100
AcDbScale
 70
     0
300
1/64" = 1'-0"
140
0.015625
141
12.0
290
     0
  0
SCALE
  5
E3
102
{ACAD_REACTORS
330
DF
102
}
330
DF
100
AcDbScale
 70
     0
300
1/32" = 1'-0"
140
0.03125
141
12.0
290
     0
  0
SCALE
  5
E4
102
{ACAD_REACTORS
330
DF
102
}
330
DF
100
AcDbScale
 70
     0
300
1/16" = 1'-0"
140
0.0625
141
12.0
290
     0
  0
SCALE
  5
E5
102
{ACAD_REACTORS
330
DF
102
}
330
DF
100
AcDbScale
 70
     0
300
3/32" = 1'-0"
140
0.09375
141
12.0
290
     0
  0
SCALE
  5
E6
102
{ACAD_REACTORS
330
DF
102
}
330
DF
100
AcDbScale
 70
     0
300
1/8" = 1'-0"
140
0.125
141
12.0
290
     0
  0
SCALE
  5
E7
102
{ACAD_REACTORS
330
DF
102
}
330
DF
100
AcDbScale
 70
     0
300
3/16" = 1'-0"
140
0.1875
141
12.0
290
     0
  0
SCALE
  5
E8
102
{ACAD_REACTORS
330
DF
102
}
330
DF
100
AcDbScale
 70
     0
300
1/4" = 1'-0"
140
0.25
141
12.0
290
     0
  0
SCALE
  5
E9
102
{ACAD_REACTORS
330
DF
102
}
330
DF
100
AcDbScale
 70
     0
300
3/8" = 1'-0"
140
0.375
141
12.0
290
     0
  0
SCALE
  5
EA
102
{ACAD_REACTORS
330
DF
102
}
330
DF
100
AcDbScale
 70
     0
300
1/2" = 1'-0"
140
0.5
141
12.0
290
     0
  0
SCALE
  5
EB
102
{ACAD_REACTORS
330
DF
102
}
330
DF
100
AcDbScale
 70
     0
300
3/4" = 1'-0"
140
0.75
141
12.0
290
     0
  0
SCALE
  5
EC
102
{ACAD_REACTORS
330
DF
102
}
330
DF
100
AcDbScale
 70
     0
300
1" = 1'-0"
140
1.0
141
12.0
290
     0
  0
SCALE
  5
ED
102
{ACAD_REACTORS
330
DF
102
}
330
DF
100
AcDbScale
 70
     0
300
1-1/2" = 1'-0"
140
1.5
141
12.0
290
     0
  0
SCALE
  5
EE
102
{ACAD_REACTORS
330
DF
102
}
330
DF
100
AcDbScale
 70
     0
300
3" = 1'-0"
140
3.0
141
12.0
290
     0
  0
SCALE
  5
EF
102
{ACAD_REACTORS
330
DF
102
}
330
DF
100
AcDbScale
 70
     0
300
6" = 1'-0"
140
6.0
141
12.0
290
     0
  0
SCALE
  5
F0
102
{ACAD_REACTORS
330
DF
102
}
330
DF
100
AcDbScale
 70
     0
300
1'-0" = 1'-0"
140
12.0
141
12.0
290
     0
  0
ACDBSECTIONVIEWSTYLE
  5
F4
102
{ACAD_XDICTIONARY
360
139
102
}
102
{ACAD_REACTORS
330
F3
102
}
330
F3
100
AcDbModelDocViewStyle
 70
     0
  3
Imperial24
290
     0
100
AcDbSectionViewStyle
 70
     0
 71
     0
 90
       78
 71
     1
340
11
 62
   256
 40
0.24
340
0
340
0
 62
   256
 40
0.24
300
I, O, Q, S, X, Z
 40
0.48
 90
        3
 40
0.18
 90
        1
 71
     2
340
16
 90
       25
 62
   256
340
16
 90
       50
 62
   256
 40
0.24
 40
0.0
 40
0.24
 71
     3
340
11
 62
   256
 40
0.24
 90
        1
 40
0.75
 90
        1
300
%<\AcVar ViewType \f "%tc1">% %<\AcVar ViewSectionStartId>%-%<\AcVar ViewSectionEndId>%\PSCALE %<\AcVar ViewScale \f "%sn">%
 71
     4
 62
   256
 62
   257
300
ANSI31
 40
1.0
 90
        0
290
     0
290
     0
 90
        6
 40
0.0
 40
1.570796326794896
 40
0.2617993877991494
 40
1.308996938995747
 40
-0.2617993877991494
 40
1.832595714594046
  0
TABLESTYLE
  5
DE
102
{ACAD_XDICTIONARY
360
104
102
}
102
{ACAD_REACTORS
330
DD
102
}
330
DD
100
AcDbTableStyle
280
     0
  3
Standard
 70
     0
 71
     0
 40
0.06
 41
0.06
280
     0
281
     0
  7
Standard
140
0.18
170
     2
 62
     0
 63
     7
283
     0
 90
      512
 91
        0
  1

274
    -2
284
     1
 64
     0
275
    -2
285
     1
 65
     0
276
    -2
286
     1
 66
     0
277
    -2
287
     1
 67
     0
278
    -2
288
     1
 68
     0
279
    -2
289
     1
 69
     0
  7
Standard
140
0.25
170
     5
 62
     0
 63
     7
283
     0
 90
      512
 91
        0
  1

274
    -2
284
     1
 64
     0
275
    -2
285
     1
 65
     0
276
    -2
286
     1
 66
     0
277
    -2
287
     1
 67
     0
278
    -2
288
     1
 68
     0
279
    -2
289
     1
 69
     0
  7
Standard
140
0.18
170
     5
 62
     0
 63
     7
283
     0
 90
      512
 91
        0
  1

274
    -2
284
     1
 64
     0
275
    -2
285
     1
 65
     0
276
    -2
286
     1
 66
     0
277
    -2
287
     1
 67
     0
278
    -2
288
     1
 68
     0
279
    -2
289
     1
 69
     0
  0
VISUALSTYLE
  5
C9
102
{ACAD_XDICTIONARY
360
111
102
}
102
{ACAD_REACTORS
330
C3
102
}
330
C3
100
AcDbVisualStyle
  2
2dWireframe
 70
     4
177
     2
291
     0
 71
     0
176
     1
 72
     2
176
     1
 73
     0
176
     1
 90
        0
176
     1
 40
0.6
176
     1
 41
30.0
176
     1
 63
     7
421
 16777215
176
     1
 74
     1
176
     1
 91
        4
176
     1
 64
     7
176
     1
 65
   257
176
     1
 75
     1
176
     1
175
     1
176
     1
 42
1.0
176
     1
 92
        0
176
     1
 66
   257
176
     1
 43
1.0
176
     1
 76
     1
176
     1
 77
     6
176
     1
 78
     2
176
     1
 67
     7
176
     1
 79
     5
176
     1
170
     0
176
     1
171
     0
176
     1
290
     0
176
     1
 93
        1
176
     1
 44
0.0
176
     1
173
     0
176
     1
1001
ACAD
1000
AcDbSavedByObjectVersion
1070
     0
  0
VISUALSTYLE
  5
C8
102
{ACAD_XDICTIONARY
360
10F
102
}
102
{ACAD_REACTORS
330
C3
102
}
330
C3
100
AcDbVisualStyle
  2
Basic
 70
     7
177
     2
291
     1
 71
     1
176
     1
 72
     0
176
     1
 73
     1
176
     1
 90
        0
176
     1
 40
0.6
176
     1
 41
30.0
176
     1
 63
     7
421
 16777215
176
     1
 74
     0
176
     1
 91
        4
176
     1
 64
     7
176
     1
 65
   257
176
     1
 75
     1
176
     1
175
     1
176
     1
 42
1.0
176
     1
 92
        8
176
     1
 66
     7
176
     1
 43
1.0
176
     1
 76
     1
176
     1
 77
     6
176
     1
 78
     2
176
     1
 67
     7
176
     1
 79
     5
176
     1
170
     0
176
     1
171
     0
176
     1
290
     0
176
     1
 93
        1
176
     1
 44
0.0
176
     1
173
     0
176
     1
1001
ACAD
1000
AcDbSavedByObjectVersion
1070
     0
  0
VISUALSTYLE
  5
CF
102
{ACAD_XDICTIONARY
360
11D
102
}
102
{ACAD_REACTORS
330
C3
102
}
330
C3
100
AcDbVisualStyle
  2
Brighten
 70
    12
177
     2
291
     1
 71
     2
176
     1
 72
     2
176
     1
 73
     0
176
     1
 90
        0
176
     1
 40
0.6
176
     1
 41
30.0
176
     1
 63
     7
421
 16777215
176
     1
 74
     1
176
     1
 91
        4
176
     1
 64
     7
176
     1
 65
   257
176
     1
 75
     1
176
     1
175
     1
176
     1
 42
1.0
176
     1
 92
        8
176
     1
 66
     7
176
     1
 43
1.0
176
     1
 76
     1
176
     1
 77
     6
176
     1
 78
     2
176
     1
 67
     7
176
     1
 79
     5
176
     1
170
     0
176
     1
171
     0
176
     1
290
     0
176
     1
 93
        1
176
     1
 44
50.0
176
     1
173
     0
176
     1
1001
ACAD
1000
AcDbSavedByObjectVersion
1070
     0
  0
VISUALSTYLE
  5
D3
102
{ACAD_XDICTIONARY
360
125
102
}
102
{ACAD_REACTORS
330
C3
102
}
330
C3
100
AcDbVisualStyle
  2
ColorChange
 70
    16
177
     2
291
     1
 71
     2
176
     1
 72
     2
176
     1
 73
     3
176
     1
 90
        0
176
     1
 40
0.6
176
     1
 41
30.0
176
     1
 63
     8
421
  8421504
176
     1
 74
     1
176
     1
 91
        4
176
     1
 64
     7
176
     1
 65
   257
176
     1
 75
     1
176
     1
175
     1
176
     1
 42
1.0
176
     1
 92
        8
176
     1
 66
     8
424
  8421504
176
     1
 43
1.0
176
     1
 76
     1
176
     1
 77
     6
176
     1
 78
     2
176
     1
 67
     7
176
     1
 79
     5
176
     1
170
     0
176
     1
171
     0
176
     1
290
     0
176
     1
 93
        1
176
     1
 44
0.0
176
     1
173
     0
176
     1
1001
ACAD
1000
AcDbSavedByObjectVersion
1070
     0
  0
VISUALSTYLE
  5
CC
102
{ACAD_XDICTIONARY
360
117
102
}
102
{ACAD_REACTORS
330
C3
102
}
330
C3
100
AcDbVisualStyle
  2
Conceptual
 70
     9
177
     2
291
     0
 71
     3
176
     1
 72
     2
176
     1
 73
     0
176
     1
 90
        0
176
     1
 40
0.6
176
     1
 41
30.0
176
     1
 63
     7
421
 16777215
176
     1
 74
     2
176
     1
 91
        2
176
     1
 64
     7
176
     1
 65
   257
176
     1
 75
     1
176
     1
175
     1
176
     1
 42
179.0
176
     1
 92
        8
176
     1
 66
     7
176
     1
 43
1.0
176
     1
 76
     1
176
     1
 77
     6
176
     1
 78
     2
176
     1
 67
     7
176
     1
 79
     3
176
     1
170
     0
176
     1
171
     0
176
     1
290
     0
176
     1
 93
        1
176
     1
 44
0.0
176
     1
173
     0
176
     1
1001
ACAD
1000
AcDbSavedByObjectVersion
1070
     0
  0
VISUALSTYLE
  5
CE
102
{ACAD_XDICTIONARY
360
11B
102
}
102
{ACAD_REACTORS
330
C3
102
}
330
C3
100
AcDbVisualStyle
  2
Dim
 70
    11
177
     2
291
     1
 71
     2
176
     1
 72
     2
176
     1
 73
     0
176
     1
 90
        0
176
     1
 40
0.6
176
     1
 41
30.0
176
     1
 63
     7
421
 16777215
176
     1
 74
     1
176
     1
 91
        4
176
     1
 64
     7
176
     1
 65
   257
176
     1
 75
     1
176
     1
175
     1
176
     1
 42
1.0
176
     1
 92
        8
176
     1
 66
     7
176
     1
 43
1.0
176
     1
 76
     1
176
     1
 77
     6
176
     1
 78
     2
176
     1
 67
     7
176
     1
 79
     5
176
     1
170
     0
176
     1
171
     0
176
     1
290
     0
176
     1
 93
        1
176
     1
 44
-50.0
176
     1
173
     0
176
     1
1001
ACAD
1000
AcDbSavedByObjectVersion
1070
     0
  0
VISUALSTYLE
  5
DB
102
{ACAD_XDICTIONARY
360
135
102
}
102
{ACAD_REACTORS
330
C3
102
}
330
C3
100
AcDbVisualStyle
  2
EdgeColorOff
 70
    22
177
     2
291
     1
 71
     2
176
     0
 72
     2
176
     0
 73
     0
176
     0
 90
        0
176
     0
 40
0.6
176
     0
 41
30.0
176
     0
 63
     7
421
 16777215
176
     0
 74
     1
176
     0
 91
        4
176
     0
 64
     7
176
     0
 65
   257
176
     0
 75
     1
176
     0
175
     1
176
     0
 42
1.0
176
     0
 92
        8
176
     2
 66
     7
176
     0
 43
1.0
176
     0
 76
     1
176
     0
 77
     6
176
     0
 78
     2
176
     0
 67
     7
176
     0
 79
     5
176
     0
170
     0
176
     0
171
     0
176
     0
290
     0
176
     0
 93
        1
176
     0
 44
0.0
176
     0
173
     0
176
     0
1001
ACAD
1000
AcDbSavedByObjectVersion
1070
     0
  0
VISUALSTYLE
  5
D2
102
{ACAD_XDICTIONARY
360
123
102
}
102
{ACAD_REACTORS
330
C3
102
}
330
C3
100
AcDbVisualStyle
  2
Facepattern
 70
    15
177
     2
291
     1
 71
     2
176
     1
 72
     2
176
     1
 73
     0
176
     1
 90
        0
176
     1
 40
0.6
176
     1
 41
30.0
176
     1
 63
     7
421
 16777215
176
     1
 74
     1
176
     1
 91
        4
176
     1
 64
     7
176
     1
 65
   257
176
     1
 75
     1
176
     1
175
     1
176
     1
 42
1.0
176
     1
 92
        8
176
     1
 66
     7
176
     1
 43
1.0
176
     1
 76
     1
176
     1
 77
     6
176
     1
 78
     2
176
     1
 67
     7
176
     1
 79
     5
176
     1
170
     0
176
     1
171
     0
176
     1
290
     0
176
     1
 93
        1
176
     1
 44
0.0
176
     1
173
     0
176
     1
1001
ACAD
1000
AcDbSavedByObjectVersion
1070
     0
  0
VISUALSTYLE
  5
C4
102
{ACAD_XDICTIONARY
360
107
102
}
102
{ACAD_REACTORS
330
C3
102
}
330
C3
100
AcDbVisualStyle
  2
Flat
 70
     0
177
     2
291
     1
 71
     2
176
     1
 72
     1
176
     1
 73
     1
176
     1
 90
        2
176
     1
 40
0.6
176
     1
 41
30.0
176
     1
 63
     7
421
 16777215
176
     1
 74
     0
176
     1
 91
        0
176
     1
 64
     7
176
     1
 65
   257
176
     1
 75
     1
176
     1
175
     1
176
     1
 42
1.0
176
     1
 92
        8
176
     1
 66
     7
176
     1
 43
1.0
176
     1
 76
     1
176
     1
 77
     6
176
     1
 78
     2
176
     1
 67
     7
176
     1
 79
     5
176
     1
170
     0
176
     1
171
     0
176
     1
290
     0
176
     1
 93
       13
176
     1
 44
0.0
176
     1
173
     0
176
     1
1001
ACAD
1000
AcDbSavedByObjectVersion
1070
     0
  0
VISUALSTYLE
  5
C5
102
{ACAD_XDICTIONARY
360
109
102
}
102
{ACAD_REACTORS
330
C3
102
}
330
C3
100
AcDbVisualStyle
  2
FlatWithEdges
 70
     1
177
     2
291
     1
 71
     2
176
     1
 72
     1
176
     1
 73
     1
176
     1
 90
        2
176
     1
 40
0.6
176
     1
 41
30.0
176
     1
 63
     7
421
 16777215
176
     1
 74
     1
176
     1
 91
        0
176
     1
 64
     7
176
     1
 65
   257
176
     1
 75
     1
176
     1
175
     1
176
     1
 42
1.0
176
     1
 92
        0
176
     1
 66
   257
176
     1
 43
1.0
176
     1
 76
     1
176
     1
 77
     6
176
     1
 78
     2
176
     1
 67
     7
176
     1
 79
     5
176
     1
170
     0
176
     1
171
     0
176
     1
290
     0
176
     1
 93
       13
176
     1
 44
0.0
176
     1
173
     0
176
     1
1001
ACAD
1000
AcDbSavedByObjectVersion
1070
     0
  0
VISUALSTYLE
  5
C6
102
{ACAD_XDICTIONARY
360
10B
102
}
102
{ACAD_REACTORS
330
C3
102
}
330
C3
100
AcDbVisualStyle
  2
Gouraud
 70
     2
177
     2
291
     1
 71
     2
176
     1
 72
     2
176
     1
 73
     1
176
     1
 90
        2
176
     1
 40
0.6
176
     1
 41
30.0
176
     1
 63
     7
421
 16777215
176
     1
 74
     0
176
     1
 91
        0
176
     1
 64
     7
176
     1
 65
   257
176
     1
 75
     1
176
     1
175
     1
176
     1
 42
1.0
176
     1
 92
        0
176
     1
 66
     7
176
     1
 43
1.0
176
     1
 76
     1
176
     1
 77
     6
176
     1
 78
     2
176
     1
 67
     7
176
     1
 79
     5
176
     1
170
     0
176
     1
171
     0
176
     1
290
     0
176
     1
 93
       13
176
     1
 44
0.0
176
     1
173
     0
176
     1
1001
ACAD
1000
AcDbSavedByObjectVersion
1070
     0
  0
VISUALSTYLE
  5
C7
102
{ACAD_XDICTIONARY
360
10D
102
}
102
{ACAD_REACTORS
330
C3
102
}
330
C3
100
AcDbVisualStyle
  2
GouraudWithEdges
 70
     3
177
     2
291
     1
 71
     2
176
     1
 72
     2
176
     1
 73
     1
176
     1
 90
        2
176
     1
 40
0.6
176
     1
 41
30.0
176
     1
 63
     7
421
 16777215
176
     1
 74
     1
176
     1
 91
        0
176
     1
 64
     7
176
     1
 65
   257
176
     1
 75
     1
176
     1
175
     1
176
     1
 42
1.0
176
     1
 92
        0
176
     1
 66
   257
176
     1
 43
1.0
176
     1
 76
     1
176
     1
 77
     6
176
     1
 78
     2
176
     1
 67
     7
176
     1
 79
     5
176
     1
170
     0
176
     1
171
     0
176
     1
290
     0
176
     1
 93
       13
176
     1
 44
0.0
176
     1
173
     0
176
     1
1001
ACAD
1000
AcDbSavedByObjectVersion
1070
     0
  0
VISUALSTYLE
  5
CB
102
{ACAD_XDICTIONARY
360
115
102
}
102
{ACAD_REACTORS
330
C3
102
}
330
C3
100
AcDbVisualStyle
  2
Hidden
 70
     6
177
     2
291
     0
 71
     1
176
     1
 72
     2
176
     1
 73
     2
176
     1
 90
        0
176
     1
 40
0.6
176
     1
 41
30.0
176
     1
 63
     7
421
 16777215
176
     1
 74
     2
176
     1
 91
        2
176
     1
 64
     7
176
     1
 65
   257
176
     1
 75
     2
176
     1
175
     1
176
     1
 42
40.0
176
     1
 92
        0
176
     1
 66
   257
176
     1
 43
1.0
176
     1
 76
     1
176
     1
 77
     6
176
     1
 78
     2
176
     1
 67
     7
176
     1
 79
     3
176
     1
170
     0
176
     1
171
     0
176
     1
290
     0
176
     1
 93
        1
176
     1
 44
0.0
176
     1
173
     0
176
     1
1001
ACAD
1000
AcDbSavedByObjectVersion
1070
     0
  0
VISUALSTYLE
  5
D9
102
{ACAD_XDICTIONARY
360
131
102
}
102
{ACAD_REACTORS
330
C3
102
}
330
C3
100
AcDbVisualStyle
  2
JitterOff
 70
    20
177
     2
291
     1
 71
     2
176
     0
 72
     2
176
     0
 73
     0
176
     0
 90
        0
176
     0
 40
0.6
176
     0
 41
30.0
176
     0
 63
     7
421
 16777215
176
     0
 74
     1
176
     0
 91
        4
176
     0
 64
     7
176
     0
 65
   257
176
     0
 75
     1
176
     0
175
     1
176
     0
 42
1.0
176
     0
 92
       10
176
     2
 66
     7
176
     0
 43
1.0
176
     0
 76
     1
176
     0
 77
     6
176
     0
 78
     2
176
     0
 67
     7
176
     0
 79
     5
176
     0
170
     0
176
     0
171
     0
176
     0
290
     0
176
     0
 93
        1
176
     0
 44
0.0
176
     0
173
     0
176
     0
1001
ACAD
1000
AcDbSavedByObjectVersion
1070
     0
  0
VISUALSTYLE
  5
D1
102
{ACAD_XDICTIONARY
360
121
102
}
102
{ACAD_REACTORS
330
C3
102
}
330
C3
100
AcDbVisualStyle
  2
Linepattern
 70
    14
177
     2
291
     1
 71
     2
176
     1
 72
     2
176
     1
 73
     0
176
     1
 90
        0
176
     1
 40
0.6
176
     1
 41
30.0
176
     1
 63
     7
421
 16777215
176
     1
 74
     1
176
     1
 91
        4
176
     1
 64
     7
176
     1
 65
   257
176
     1
 75
     7
176
     1
175
     7
176
     1
 42
1.0
176
     1
 92
        8
176
     1
 66
     7
176
     1
 43
1.0
176
     1
 76
     1
176
     1
 77
     6
176
     1
 78
     2
176
     1
 67
     7
176
     1
 79
     5
176
     1
170
     0
176
     1
171
     0
176
     1
290
     0
176
     1
 93
        1
176
     1
 44
0.0
176
     1
173
     0
176
     1
1001
ACAD
1000
AcDbSavedByObjectVersion
1070
     0
  0
VISUALSTYLE
  5
DA
102
{ACAD_XDICTIONARY
360
133
102
}
102
{ACAD_REACTORS
330
C3
102
}
330
C3
100
AcDbVisualStyle
  2
OverhangOff
 70
    21
177
     2
291
     1
 71
     2
176
     0
 72
     2
176
     0
 73
     0
176
     0
 90
        0
176
     0
 40
0.6
176
     0
 41
30.0
176
     0
 63
     7
421
 16777215
176
     0
 74
     1
176
     0
 91
        4
176
     0
 64
     7
176
     0
 65
   257
176
     0
 75
     1
176
     0
175
     1
176
     0
 42
1.0
176
     0
 92
        9
176
     2
 66
     7
176
     0
 43
1.0
176
     0
 76
     1
176
     0
 77
     6
176
     0
 78
     2
176
     0
 67
     7
176
     0
 79
     5
176
     0
170
     0
176
     0
171
     0
176
     0
290
     0
176
     0
 93
        1
176
     0
 44
0.0
176
     0
173
     0
176
     0
1001
ACAD
1000
AcDbSavedByObjectVersion
1070
     0
  0
VISUALSTYLE
  5
CD
102
{ACAD_XDICTIONARY
360
119
102
}
102
{ACAD_REACTORS
330
C3
102
}
330
C3
100
AcDbVisualStyle
  2
Realistic
 70
     8
177
     2
291
     0
 71
     2
176
     1
 72
     3
176
     1
 73
     0
176
     1
 90
        2
176
     1
 40
0.6
176
     1
 41
30.0
176
     1
 63
     7
421
 16777215
176
     1
 74
     0
176
     1
 91
        0
176
     1
 64
     7
176
     1
 65
   257
176
     1
 75
     1
176
     1
175
     1
176
     1
 42
1.0
176
     1
 92
        8
176
     1
 66
   257
176
     1
 43
1.0
176
     1
 76
     1
176
     1
 77
     6
176
     1
 78
     2
176
     1
 67
     7
176
     1
 79
     3
176
     1
170
     0
176
     1
171
     0
176
     1
290
     0
176
     1
 93
       13
176
     1
 44
0.0
176
     1
173
     0
176
     1
1001
ACAD
1000
AcDbSavedByObjectVersion
1070
     0
  0
VISUALSTYLE
  5
D8
102
{ACAD_XDICTIONARY
360
12F
102
}
102
{ACAD_REACTORS
330
C3
102
}
330
C3
100
AcDbVisualStyle
  2
Shaded
 70
    27
177
     2
291
     0
 71
     2
176
     1
 72
     2
176
     1
 73
     1
176
     1
 90
        2
176
     1
 40
0.6
176
     1
 41
30.0
176
     1
 63
     7
421
 16777215
176
     1
 74
     0
176
     1
 91
        4
176
     1
 64
     7
176
     1
 65
   257
176
     1
 75
     1
176
     1
175
     1
176
     1
 42
1.0
176
     1
 92
        8
176
     1
 66
   257
176
     1
 43
1.0
176
     1
 76
     1
176
     1
 77
     6
176
     1
 78
     2
176
     1
 67
     8
425
  7895160
176
     1
 79
     3
176
     1
170
     0
176
     1
171
     0
176
     1
290
     0
176
     1
 93
        5
176
     1
 44
0.0
176
     1
173
     0
176
     1
1001
ACAD
1000
AcDbSavedByObjectVersion
1070
     0
  0
VISUALSTYLE
  5
D7
102
{ACAD_XDICTIONARY
360
12D
102
}
102
{ACAD_REACTORS
330
C3
102
}
330
C3
100
AcDbVisualStyle
  2
Shaded with edges
 70
    26
177
     2
291
     0
 71
     2
176
     1
 72
     2
176
     1
 73
     1
176
     1
 90
        2
176
     1
 40
0.6
176
     1
 41
30.0
176
     1
 63
     7
421
 16777215
176
     1
 74
     1
176
     1
 91
       10
176
     1
 64
     7
176
     1
 65
   257
176
     1
 75
     2
176
     1
175
     1
176
     1
 42
1.0
176
     1
 92
        8
176
     1
 66
   257
176
     1
 43
1.0
176
     1
 76
     1
176
     1
 77
     6
176
     1
 78
     2
176
     1
 67
     7
176
     1
 79
     3
176
     1
170
     0
176
     1
171
     0
176
     1
290
     0
176
     1
 93
        5
176
     1
 44
0.0
176
     1
173
     0
176
     1
1001
ACAD
1000
AcDbSavedByObjectVersion
1070
     0
  0
VISUALSTYLE
  5
D4
102
{ACAD_XDICTIONARY
360
127
102
}
102
{ACAD_REACTORS
330
C3
102
}
330
C3
100
AcDbVisualStyle
  2
Shades of Gray
 70
    23
177
     2
291
     0
 71
     2
176
     1
 72
     2
176
     1
 73
     3
176
     1
 90
        0
176
     1
 40
0.6
176
     1
 41
30.0
176
     1
 63
     7
421
 16777215
176
     1
 74
     2
176
     1
 91
        2
176
     1
 64
     7
176
     1
 65
     7
176
     1
 75
     1
176
     1
175
     1
176
     1
 42
40.0
176
     1
 92
        8
176
     1
 66
     7
176
     1
 43
1.0
176
     1
 76
     1
176
     1
 77
     6
176
     1
 78
     2
176
     1
 67
     7
176
     1
 79
     3
176
     1
170
     0
176
     1
171
     0
176
     1
290
     0
176
     1
 93
        1
176
     1
 44
0.0
176
     1
173
     0
176
     1
1001
ACAD
1000
AcDbSavedByObjectVersion
1070
     0
  0
VISUALSTYLE
  5
D5
102
{ACAD_XDICTIONARY
360
129
102
}
102
{ACAD_REACTORS
330
C3
102
}
330
C3
100
AcDbVisualStyle
  2
Sketchy
 70
    24
177
     2
291
     0
 71
     1
176
     1
 72
     2
176
     1
 73
     2
176
     1
 90
        0
176
     1
 40
0.6
176
     1
 41
30.0
176
     1
 63
     7
421
 16777215
176
     1
 74
     2
176
     1
 91
        2
176
     1
 64
     7
176
     1
 65
     7
176
     1
 75
     1
176
     1
175
     1
176
     1
 42
40.0
176
     1
 92
       11
176
     1
 66
     7
176
     1
 43
1.0
176
     1
 76
     1
176
     1
 77
     6
176
     1
 78
     2
176
     1
 67
     7
176
     1
 79
     6
176
     1
170
     0
176
     1
171
     0
176
     1
290
     0
176
     1
 93
        1
176
     1
 44
0.0
176
     1
173
     0
176
     1
1001
ACAD
1000
AcDbSavedByObjectVersion
1070
     0
  0
VISUALSTYLE
  5
D0
102
{ACAD_XDICTIONARY
360
11F
102
}
102
{ACAD_REACTORS
330
C3
102
}
330
C3
100
AcDbVisualStyle
  2
Thicken
 70
    13
177
     2
291
     1
 71
     2
176
     1
 72
     2
176
     1
 73
     0
176
     1
 90
        0
176
     1
 40
0.6
176
     1
 41
30.0
176
     1
 63
     7
421
 16777215
176
     1
 74
     1
176
     1
 91
        4
176
     1
 64
     7
176
     1
 65
   257
176
     1
 75
     1
176
     1
175
     1
176
     1
 42
1.0
176
     1
 92
       12
176
     1
 66
     7
176
     1
 43
1.0
176
     1
 76
     1
176
     1
 77
     6
176
     1
 78
     2
176
     1
 67
     7
176
     1
 79
     5
176
     1
170
     0
176
     1
171
     0
176
     1
290
     0
176
     1
 93
        1
176
     1
 44
0.0
176
     1
173
     0
176
     1
1001
ACAD
1000
AcDbSavedByObjectVersion
1070
     0
  0
VISUALSTYLE
  5
CA
102
{ACAD_XDICTIONARY
360
113
102
}
102
{ACAD_REACTORS
330
C3
102
}
330
C3
100
AcDbVisualStyle
  2
Wireframe
 70
     5
177
     2
291
     0
 71
     0
176
     1
 72
     2
176
     1
 73
     0
176
     1
 90
        0
176
     1
 40
0.6
176
     1
 41
30.0
176
     1
 63
     7
421
 16777215
176
     1
 74
     1
176
     1
 91
        4
176
     1
 64
     7
176
     1
 65
   257
176
     1
 75
     1
176
     1
175
     1
176
     1
 42
1.0
176
     1
 92
        0
176
     1
 66
   257
176
     1
 43
1.0
176
     1
 76
     1
176
     1
 77
     6
176
     1
 78
     2
176
     1
 67
     7
176
     1
 79
     3
176
     1
170
     0
176
     1
171
     0
176
     1
290
     0
176
     1
 93
        1
176
     1
 44
0.0
176
     1
173
     0
176
     1
1001
ACAD
1000
AcDbSavedByObjectVersion
1070
     0
  0
VISUALSTYLE
  5
D6
102
{ACAD_XDICTIONARY
360
12B
102
}
102
{ACAD_REACTORS
330
C3
102
}
330
C3
100
AcDbVisualStyle
  2
X-Ray
 70
    25
177
     2
291
     0
 71
     2
176
     1
 72
     2
176
     1
 73
     1
176
     1
 90
        1
176
     1
 40
0.5
176
     1
 41
30.0
176
     1
 63
     7
421
 16777215
176
     1
 74
     1
176
     1
 91
        0
176
     1
 64
     7
176
     1
 65
   257
176
     1
 75
     1
176
     1
175
     1
176
     1
 42
1.0
176
     1
 92
        8
176
     1
 66
     7
176
     1
 43
1.0
176
     1
 76
     1
176
     1
 77
     6
176
     1
 78
     2
176
     1
 67
     7
176
     1
 79
     3
176
     1
170
     0
176
     1
171
     0
176
     1
290
     0
176
     1
 93
       13
176
     1
 44
0.0
176
     1
173
     0
176
     1
1001
ACAD
1000
AcDbSavedByObjectVersion
1070
     0
  0
DICTIONARYVAR
  5
100
102
{ACAD_REACTORS
330
FA
102
}
330
FA
100
DictionaryVariables
280
     0
  1
1:1
  0
DICTIONARYVAR
  5
FC
102
{ACAD_REACTORS
330
FA
102
}
330
FA
100
DictionaryVariables
280
     0
  1
STANDARD
  0
DICTIONARYVAR
  5
FB
102
{ACAD_REACTORS
330
FA
102
}
330
FA
100
DictionaryVariables
280
     0
  1
STANDARD
  0
DICTIONARYVAR
  5
FD
102
{ACAD_REACTORS
330
FA
102
}
330
FA
100
DictionaryVariables
280
     0
  1
Imperial24
  0
DICTIONARYVAR
  5
FE
102
{ACAD_REACTORS
330
FA
102
}
330
FA
100
DictionaryVariables
280
     0
  1
Imperial24
  0
DICTIONARYVAR
  5
102
102
{ACAD_REACTORS
330
FA
102
}
330
FA
100
DictionaryVariables
280
     0
  1
1
  0
DICTIONARYVAR
  5
103
102
{ACAD_REACTORS
330
FA
102
}
330
FA
100
DictionaryVariables
280
     0
  1
15
  0
DICTIONARYVAR
  5
101
102
{ACAD_REACTORS
330
FA
102
}
330
FA
100
DictionaryVariables
280
     0
  1
0
  0
DICTIONARYVAR
  5
FF
102
{ACAD_REACTORS
330
FA
102
}
330
FA
100
DictionaryVariables
280
     0
  1
0
  0
DICTIONARY
  5
13B
330
F6
100
AcDbDictionary
280
     1
281
     1
  3
ACAD_XREC_ROUNDTRIP
360
13C
  0
DICTIONARY
  5
B4
330
B3
100
AcDbDictionary
280
     1
281
     1
  3
BUMPTILE
360
B6
  3
DIFFUSETILE
360
B5
  3
OPACITYTILE
360
B9
  3
REFLECTIONTILE
360
B8
  3
REFRACTIONTILE
360
BA
  3
SPECULARTILE
360
B7
  0
DICTIONARY
  5
AC
330
AB
100
AcDbDictionary
280
     1
281
     1
  3
BUMPTILE
360
AE
  3
DIFFUSETILE
360
AD
  3
OPACITYTILE
360
B1
  3
REFLECTIONTILE
360
B0
  3
REFRACTIONTILE
360
B2
  3
SPECULARTILE
360
AF
  0
DICTIONARY
  5
BC
330
BB
100
AcDbDictionary
280
     1
281
     1
  3
BUMPTILE
360
BE
  3
DIFFUSETILE
360
BD
  3
OPACITYTILE
360
C1
  3
REFLECTIONTILE
360
C0
  3
REFRACTIONTILE
360
C2
  3
SPECULARTILE
360
BF
  0
DICTIONARY
  5
137
330
F2
100
AcDbDictionary
280
     1
281
     1
  3
ACAD_XREC_ROUNDTRIP
360
138
  0
DICTIONARY
  5
139
330
F4
100
AcDbDictionary
280
     1
281
     1
  3
ACAD_XREC_ROUNDTRIP
360
13A
  0
DICTIONARY
  5
104
330
DE
100
AcDbDictionary
280
     1
281
     1
  3
ACAD_ROUNDTRIP_2008_TABLESTYLE_CELLSTYLEMAP
360
105
  0
DICTIONARY
  5
111
330
C9
100
AcDbDictionary
280
     1
281
     1
  3
ACAD_XREC_ROUNDTRIP
360
112
  0
DICTIONARY
  5
10F
330
C8
100
AcDbDictionary
280
     1
281
     1
  3
ACAD_XREC_ROUNDTRIP
360
110
  0
DICTIONARY
  5
11D
330
CF
100
AcDbDictionary
280
     1
281
     1
  3
ACAD_XREC_ROUNDTRIP
360
11E
  0
DICTIONARY
  5
125
330
D3
100
AcDbDictionary
280
     1
281
     1
  3
ACAD_XREC_ROUNDTRIP
360
126
  0
DICTIONARY
  5
117
330
CC
100
AcDbDictionary
280
     1
281
     1
  3
ACAD_XREC_ROUNDTRIP
360
118
  0
DICTIONARY
  5
11B
330
CE
100
AcDbDictionary
280
     1
281
     1
  3
ACAD_XREC_ROUNDTRIP
360
11C
  0
DICTIONARY
  5
135
330
DB
100
AcDbDictionary
280
     1
281
     1
  3
ACAD_XREC_ROUNDTRIP
360
136
  0
DICTIONARY
  5
123
330
D2
100
AcDbDictionary
280
     1
281
     1
  3
ACAD_XREC_ROUNDTRIP
360
124
  0
DICTIONARY
  5
107
330
C4
100
AcDbDictionary
280
     1
281
     1
  3
ACAD_XREC_ROUNDTRIP
360
108
  0
DICTIONARY
  5
109
330
C5
100
AcDbDictionary
280
     1
281
     1
  3
ACAD_XREC_ROUNDTRIP
360
10A
  0
DICTIONARY
  5
10B
330
C6
100
AcDbDictionary
280
     1
281
     1
  3
ACAD_XREC_ROUNDTRIP
360
10C
  0
DICTIONARY
  5
10D
330
C7
100
AcDbDictionary
280
     1
281
     1
  3
ACAD_XREC_ROUNDTRIP
360
10E
  0
DICTIONARY
  5
115
330
CB
100
AcDbDictionary
280
     1
281
     1
  3
ACAD_XREC_ROUNDTRIP
360
116
  0
DICTIONARY
  5
131
330
D9
100
AcDbDictionary
280
     1
281
     1
  3
ACAD_XREC_ROUNDTRIP
360
132
  0
DICTIONARY
  5
121
330
D1
100
AcDbDictionary
280
     1
281
     1
  3
ACAD_XREC_ROUNDTRIP
360
122
  0
DICTIONARY
  5
133
330
DA
100
AcDbDictionary
280
     1
281
     1
  3
ACAD_XREC_ROUNDTRIP
360
134
  0
DICTIONARY
  5
119
330
CD
100
AcDbDictionary
280
     1
281
     1
  3
ACAD_XREC_ROUNDTRIP
360
11A
  0
DICTIONARY
  5
12F
330
D8
100
AcDbDictionary
280
     1
281
     1
  3
ACAD_XREC_ROUNDTRIP
360
130
  0
DICTIONARY
  5
12D
330
D7
100
AcDbDictionary
280
     1
281
     1
  3
ACAD_XREC_ROUNDTRIP
360
12E
  0
DICTIONARY
  5
127
330
D4
100
AcDbDictionary
280
     1
281
     1
  3
ACAD_XREC_ROUNDTRIP
360
128
  0
DICTIONARY
  5
129
330
D5
100
AcDbDictionary
280
     1
281
     1
  3
ACAD_XREC_ROUNDTRIP
360
12A
  0
DICTIONARY
  5
11F
330
D0
100
AcDbDictionary
280
     1
281
     1
  3
ACAD_XREC_ROUNDTRIP
360
120
  0
DICTIONARY
  5
113
330
CA
100
AcDbDictionary
280
     1
281
     1
  3
ACAD_XREC_ROUNDTRIP
360
114
  0
DICTIONARY
  5
12B
330
D6
100
AcDbDictionary
280
     1
281
     1
  3
ACAD_XREC_ROUNDTRIP
360
12C
  0
XRECORD
  5
13C
102
{ACAD_REACTORS
330
13B
102
}
330
13B
100
AcDbXrecord
280
     1
102
DISPLAYNAME
  1
Imperial24
102
FLAGS
 90
        0
  0
XRECORD
  5
B6
102
{ACAD_REACTORS
330
B4
102
}
330
B4
100
AcDbXrecord
280
     1
270
     1
271
     1
  0
XRECORD
  5
B5
102
{ACAD_REACTORS
330
B4
102
}
330
B4
100
AcDbXrecord
280
     1
270
     1
271
     1
  0
XRECORD
  5
B9
102
{ACAD_REACTORS
330
B4
102
}
330
B4
100
AcDbXrecord
280
     1
270
     1
271
     1
  0
XRECORD
  5
B8
102
{ACAD_REACTORS
330
B4
102
}
330
B4
100
AcDbXrecord
280
     1
270
     1
271
     1
  0
XRECORD
  5
BA
102
{ACAD_REACTORS
330
B4
102
}
330
B4
100
AcDbXrecord
280
     1
270
     1
271
     1
  0
XRECORD
  5
B7
102
{ACAD_REACTORS
330
B4
102
}
330
B4
100
AcDbXrecord
280
     1
270
     1
271
     1
  0
XRECORD
  5
AE
102
{ACAD_REACTORS
330
AC
102
}
330
AC
100
AcDbXrecord
280
     1
270
     1
271
     1
  0
XRECORD
  5
AD
102
{ACAD_REACTORS
330
AC
102
}
330
AC
100
AcDbXrecord
280
     1
270
     1
271
     1
  0
XRECORD
  5
B1
102
{ACAD_REACTORS
330
AC
102
}
330
AC
100
AcDbXrecord
280
     1
270
     1
271
     1
  0
XRECORD
  5
B0
102
{ACAD_REACTORS
330
AC
102
}
330
AC
100
AcDbXrecord
280
     1
270
     1
271
     1
  0
XRECORD
  5
B2
102
{ACAD_REACTORS
330
AC
102
}
330
AC
100
AcDbXrecord
280
     1
270
     1
271
     1
  0
XRECORD
  5
AF
102
{ACAD_REACTORS
330
AC
102
}
330
AC
100
AcDbXrecord
280
     1
270
     1
271
     1
  0
XRECORD
  5
BE
102
{ACAD_REACTORS
330
BC
102
}
330
BC
100
AcDbXrecord
280
     1
270
     1
271
     1
  0
XRECORD
  5
BD
102
{ACAD_REACTORS
330
BC
102
}
330
BC
100
AcDbXrecord
280
     1
270
     1
271
     1
  0
XRECORD
  5
C1
102
{ACAD_REACTORS
330
BC
102
}
330
BC
100
AcDbXrecord
280
     1
270
     1
271
     1
  0
XRECORD
  5
C0
102
{ACAD_REACTORS
330
BC
102
}
330
BC
100
AcDbXrecord
280
     1
270
     1
271
     1
  0
XRECORD
  5
C2
102
{ACAD_REACTORS
330
BC
102
}
330
BC
100
AcDbXrecord
280
     1
270
     1
271
     1
  0
XRECORD
  5
BF
102
{ACAD_REACTORS
330
BC
102
}
330
BC
100
AcDbXrecord
280
     1
270
     1
271
     1
  0
XRECORD
  5
138
102
{ACAD_REACTORS
330
137
102
}
330
137
100
AcDbXrecord
280
     1
102
ACAD_ROUNDTRIP_2012_MLEADER_STYLE
298
     1
  0
XRECORD
  5
13A
102
{ACAD_REACTORS
330
139
102
}
330
139
100
AcDbXrecord
280
     1
102
DISPLAYNAME
  1
Imperial24
102
FLAGS
 90
        0
  0
CELLSTYLEMAP
  5
105
102
{ACAD_REACTORS
330
104
102
}
330
104
100
AcDbCellStyleMap
 90
        3
300
CELLSTYLE
  1
TABLEFORMAT_BEGIN
 90
        5
170
     1
 91
        0
 92
    32768
 62
   257
 93
        1
300
CONTENTFORMAT
  1
CONTENTFORMAT_BEGIN
 90
        0
 91
        0
 92
      512
 93
        0
300

 40
0.0
140
1.0
 94
        5
 62
     0
340
11
144
0.25
309
CONTENTFORMAT_END
171
     0
 94
        0
309
TABLEFORMAT_END
  1
CELLSTYLE_BEGIN
 90
        1
 91
        1
300
_TITLE
309
CELLSTYLE_END
300
CELLSTYLE
  1
TABLEFORMAT_BEGIN
 90
        5
170
     1
 91
        0
 92
        0
 62
   257
 93
        1
300
CONTENTFORMAT
  1
CONTENTFORMAT_BEGIN
 90
        0
 91
        0
 92
      512
 93
        0
300

 40
0.0
140
1.0
 94
        5
 62
     0
340
11
144
0.18
309
CONTENTFORMAT_END
171
     0
 94
        0
309
TABLEFORMAT_END
  1
CELLSTYLE_BEGIN
 90
        2
 91
        1
300
_HEADER
309
CELLSTYLE_END
300
CELLSTYLE
  1
TABLEFORMAT_BEGIN
 90
        5
170
     1
 91
        0
 92
        0
 62
   257
 93
        1
300
CONTENTFORMAT
  1
CONTENTFORMAT_BEGIN
 90
        0
 91
        0
 92
      512
 93
        0
300

 40
0.0
140
1.0
 94
        2
 62
     0
340
11
144
0.18
309
CONTENTFORMAT_END
171
     0
 94
        0
309
TABLEFORMAT_END
  1
CELLSTYLE_BEGIN
 90
        3
 91
        2
300
_DATA
309
CELLSTYLE_END
  0
XRECORD
  5
112
102
{ACAD_REACTORS
330
111
102
}
330
111
100
AcDbXrecord
280
     1
102
RTVSPost2010Prop28
280
     1
102
RTVSPost2010PropOp28
 70
     1
102
RTVSPost2010Prop29
280
     1
102
RTVSPost2010PropOp29
 70
     1
102
RTVSPost2010Prop30
280
     0
102
RTVSPost2010PropOp30
 70
     1
102
RTVSPost2010Prop31
280
     0
102
RTVSPost2010PropOp31
 70
     1
102
RTVSPost2010Prop32
280
     0
102
RTVSPost2010PropOp32
 70
     1
102
RTVSPost2010Prop33
280
     0
102
RTVSPost2010PropOp33
 70
     1
102
RTVSPost2010Prop34
280
     0
102
RTVSPost2010PropOp34
 70
     1
102
RTVSPost2010Prop35
280
     0
102
RTVSPost2010PropOp35
 70
     1
102
RTVSPost2010Prop36
280
     0
102
RTVSPost2010PropOp36
 70
     1
102
RTVSPost2010Prop37
 90
       50
102
RTVSPost2010PropOp37
 70
     1
102
RTVSPost2010Prop38
140
0.0
102
RTVSPost2010PropOp38
 70
     1
102
RTVSPost2010Prop39
140
1.0
102
RTVSPost2010PropOp39
 70
     1
102
RTVSPost2010Prop40
 90
        0
102
RTVSPost2010PropOp40
 70
     1
102
RTVSPost2010Prop41ColorIndex
 90
       18
102
RTVSPost2010Prop41ColorRGB
 90
        0
102
RTVSPost2010PropOp41
 70
     1
102
RTVSPost2010Prop42
 90
       50
102
RTVSPost2010PropOp42
 70
     1
102
RTVSPost2010Prop43
 90
        3
102
RTVSPost2010PropOp43
 70
     1
102
RTVSPost2010Prop44ColorIndex
 90
        5
102
RTVSPost2010Prop44ColorRGB
 90
      255
102
RTVSPost2010PropOp44
 70
     1
102
RTVSPost2010Prop45
280
     0
102
RTVSPost2010PropOp45
 70
     1
102
RTVSPost2010Prop46
 90
       50
102
RTVSPost2010PropOp46
 70
     1
102
RTVSPost2010Prop47
 90
       50
102
RTVSPost2010PropOp47
 70
     1
102
RTVSPost2010Prop48
 90
       50
102
RTVSPost2010PropOp48
 70
     1
102
RTVSPost2010Prop49
280
     0
102
RTVSPost2010PropOp49
 70
     1
102
RTVSPost2010Prop50
 90
       50
102
RTVSPost2010PropOp50
 70
     1
102
RTVSPost2010Prop51ColorIndex
 90
      256
102
RTVSPost2010Prop51ColorRGB
 90
-16777216
102
RTVSPost2010PropOp51
 70
     0
102
RTVSPost2010Prop52
140
1.0
102
RTVSPost2010PropOp52
 70
     0
102
RTVSPost2010Prop53
 90
        2
102
RTVSPost2010PropOp53
 70
     1
102
RTVSPost2010Prop54
  1
strokes_ogs.tif
102
RTVSPost2010PropOp54
 70
     1
102
RTVSPost2010Prop55
280
     0
102
RTVSPost2010PropOp55
 70
     1
102
RTVSPost2010Prop56
140
1.0
102
RTVSPost2010PropOp56
 70
     1
102
RTVSPost2010Prop57
140
1.0
102
RTVSPost2010PropOp57
 70
     1
  0
XRECORD
  5
110
102
{ACAD_REACTORS
330
10F
102
}
330
10F
100
AcDbXrecord
280
     1
102
RTVSPost2010Prop28
280
     0
102
RTVSPost2010PropOp28
 70
     1
102
RTVSPost2010Prop29
280
     1
102
RTVSPost2010PropOp29
 70
     1
102
RTVSPost2010Prop30
280
     1
102
RTVSPost2010PropOp30
 70
     1
102
RTVSPost2010Prop31
280
     0
102
RTVSPost2010PropOp31
 70
     1
102
RTVSPost2010Prop32
280
     0
102
RTVSPost2010PropOp32
 70
     1
102
RTVSPost2010Prop33
280
     0
102
RTVSPost2010PropOp33
 70
     1
102
RTVSPost2010Prop34
280
     0
102
RTVSPost2010PropOp34
 70
     1
102
RTVSPost2010Prop35
280
     0
102
RTVSPost2010PropOp35
 70
     1
102
RTVSPost2010Prop36
280
     0
102
RTVSPost2010PropOp36
 70
     1
102
RTVSPost2010Prop37
 90
       50
102
RTVSPost2010PropOp37
 70
     1
102
RTVSPost2010Prop38
140
0.0
102
RTVSPost2010PropOp38
 70
     1
102
RTVSPost2010Prop39
140
1.0
102
RTVSPost2010PropOp39
 70
     1
102
RTVSPost2010Prop40
 90
        0
102
RTVSPost2010PropOp40
 70
     1
102
RTVSPost2010Prop41ColorIndex
 90
       18
102
RTVSPost2010Prop41ColorRGB
 90
        0
102
RTVSPost2010PropOp41
 70
     1
102
RTVSPost2010Prop42
 90
       50
102
RTVSPost2010PropOp42
 70
     1
102
RTVSPost2010Prop43
 90
        3
102
RTVSPost2010PropOp43
 70
     1
102
RTVSPost2010Prop44ColorIndex
 90
        5
102
RTVSPost2010Prop44ColorRGB
 90
      255
102
RTVSPost2010PropOp44
 70
     1
102
RTVSPost2010Prop45
280
     0
102
RTVSPost2010PropOp45
 70
     1
102
RTVSPost2010Prop46
 90
       50
102
RTVSPost2010PropOp46
 70
     1
102
RTVSPost2010Prop47
 90
       50
102
RTVSPost2010PropOp47
 70
     1
102
RTVSPost2010Prop48
 90
       50
102
RTVSPost2010PropOp48
 70
     1
102
RTVSPost2010Prop49
280
     0
102
RTVSPost2010PropOp49
 70
     1
102
RTVSPost2010Prop50
 90
       50
102
RTVSPost2010PropOp50
 70
     1
102
RTVSPost2010Prop51ColorIndex
 90
      256
102
RTVSPost2010Prop51ColorRGB
 90
-16777216
102
RTVSPost2010PropOp51
 70
     0
102
RTVSPost2010Prop52
140
1.0
102
RTVSPost2010PropOp52
 70
     0
102
RTVSPost2010Prop53
 90
        2
102
RTVSPost2010PropOp53
 70
     1
102
RTVSPost2010Prop54
  1
strokes_ogs.tif
102
RTVSPost2010PropOp54
 70
     1
102
RTVSPost2010Prop55
280
     0
102
RTVSPost2010PropOp55
 70
     1
102
RTVSPost2010Prop56
140
1.0
102
RTVSPost2010PropOp56
 70
     1
102
RTVSPost2010Prop57
140
1.0
102
RTVSPost2010PropOp57
 70
     1
  0
XRECORD
  5
11E
102
{ACAD_REACTORS
330
11D
102
}
330
11D
100
AcDbXrecord
280
     1
102
RTVSPost2010Prop28
280
     0
102
RTVSPost2010PropOp28
 70
     1
102
RTVSPost2010Prop29
280
     1
102
RTVSPost2010PropOp29
 70
     1
102
RTVSPost2010Prop30
280
     1
102
RTVSPost2010PropOp30
 70
     1
102
RTVSPost2010Prop31
280
     0
102
RTVSPost2010PropOp31
 70
     1
102
RTVSPost2010Prop32
280
     0
102
RTVSPost2010PropOp32
 70
     1
102
RTVSPost2010Prop33
280
     0
102
RTVSPost2010PropOp33
 70
     1
102
RTVSPost2010Prop34
280
     0
102
RTVSPost2010PropOp34
 70
     1
102
RTVSPost2010Prop35
280
     0
102
RTVSPost2010PropOp35
 70
     1
102
RTVSPost2010Prop36
280
     0
102
RTVSPost2010PropOp36
 70
     1
102
RTVSPost2010Prop37
 90
       50
102
RTVSPost2010PropOp37
 70
     1
102
RTVSPost2010Prop38
140
0.0
102
RTVSPost2010PropOp38
 70
     1
102
RTVSPost2010Prop39
140
1.0
102
RTVSPost2010PropOp39
 70
     1
102
RTVSPost2010Prop40
 90
        0
102
RTVSPost2010PropOp40
 70
     1
102
RTVSPost2010Prop41ColorIndex
 90
       18
102
RTVSPost2010Prop41ColorRGB
 90
        0
102
RTVSPost2010PropOp41
 70
     1
102
RTVSPost2010Prop42
 90
       50
102
RTVSPost2010PropOp42
 70
     1
102
RTVSPost2010Prop43
 90
        3
102
RTVSPost2010PropOp43
 70
     1
102
RTVSPost2010Prop44ColorIndex
 90
        5
102
RTVSPost2010Prop44ColorRGB
 90
      255
102
RTVSPost2010PropOp44
 70
     1
102
RTVSPost2010Prop45
280
     0
102
RTVSPost2010PropOp45
 70
     1
102
RTVSPost2010Prop46
 90
       50
102
RTVSPost2010PropOp46
 70
     1
102
RTVSPost2010Prop47
 90
       50
102
RTVSPost2010PropOp47
 70
     1
102
RTVSPost2010Prop48
 90
       50
102
RTVSPost2010PropOp48
 70
     1
102
RTVSPost2010Prop49
280
     0
102
RTVSPost2010PropOp49
 70
     1
102
RTVSPost2010Prop50
 90
       50
102
RTVSPost2010PropOp50
 70
     1
102
RTVSPost2010Prop51ColorIndex
 90
      256
102
RTVSPost2010Prop51ColorRGB
 90
-16777216
102
RTVSPost2010PropOp51
 70
     0
102
RTVSPost2010Prop52
140
1.0
102
RTVSPost2010PropOp52
 70
     0
102
RTVSPost2010Prop53
 90
        2
102
RTVSPost2010PropOp53
 70
     1
102
RTVSPost2010Prop54
  1
strokes_ogs.tif
102
RTVSPost2010PropOp54
 70
     1
102
RTVSPost2010Prop55
280
     0
102
RTVSPost2010PropOp55
 70
     1
102
RTVSPost2010Prop56
140
1.0
102
RTVSPost2010PropOp56
 70
     1
102
RTVSPost2010Prop57
140
1.0
102
RTVSPost2010PropOp57
 70
     1
  0
XRECORD
  5
126
102
{ACAD_REACTORS
330
125
102
}
330
125
100
AcDbXrecord
280
     1
102
RTVSPost2010Prop28
280
     0
102
RTVSPost2010PropOp28
 70
     1
102
RTVSPost2010Prop29
280
     1
102
RTVSPost2010PropOp29
 70
     1
102
RTVSPost2010Prop30
280
     1
102
RTVSPost2010PropOp30
 70
     1
102
RTVSPost2010Prop31
280
     0
102
RTVSPost2010PropOp31
 70
     1
102
RTVSPost2010Prop32
280
     0
102
RTVSPost2010PropOp32
 70
     1
102
RTVSPost2010Prop33
280
     0
102
RTVSPost2010PropOp33
 70
     1
102
RTVSPost2010Prop34
280
     0
102
RTVSPost2010PropOp34
 70
     1
102
RTVSPost2010Prop35
280
     0
102
RTVSPost2010PropOp35
 70
     1
102
RTVSPost2010Prop36
280
     0
102
RTVSPost2010PropOp36
 70
     1
102
RTVSPost2010Prop37
 90
       50
102
RTVSPost2010PropOp37
 70
     1
102
RTVSPost2010Prop38
140
0.0
102
RTVSPost2010PropOp38
 70
     1
102
RTVSPost2010Prop39
140
1.0
102
RTVSPost2010PropOp39
 70
     1
102
RTVSPost2010Prop40
 90
        0
102
RTVSPost2010PropOp40
 70
     1
102
RTVSPost2010Prop41ColorIndex
 90
       18
102
RTVSPost2010Prop41ColorRGB
 90
        0
102
RTVSPost2010PropOp41
 70
     1
102
RTVSPost2010Prop42
 90
       50
102
RTVSPost2010PropOp42
 70
     1
102
RTVSPost2010Prop43
 90
        3
102
RTVSPost2010PropOp43
 70
     1
102
RTVSPost2010Prop44ColorIndex
 90
        5
102
RTVSPost2010Prop44ColorRGB
 90
      255
102
RTVSPost2010PropOp44
 70
     1
102
RTVSPost2010Prop45
280
     0
102
RTVSPost2010PropOp45
 70
     1
102
RTVSPost2010Prop46
 90
       50
102
RTVSPost2010PropOp46
 70
     1
102
RTVSPost2010Prop47
 90
       50
102
RTVSPost2010PropOp47
 70
     1
102
RTVSPost2010Prop48
 90
       50
102
RTVSPost2010PropOp48
 70
     1
102
RTVSPost2010Prop49
280
     0
102
RTVSPost2010PropOp49
 70
     1
102
RTVSPost2010Prop50
 90
       50
102
RTVSPost2010PropOp50
 70
     1
102
RTVSPost2010Prop51ColorIndex
 90
      256
102
RTVSPost2010Prop51ColorRGB
 90
-16777216
102
RTVSPost2010PropOp51
 70
     0
102
RTVSPost2010Prop52
140
1.0
102
RTVSPost2010PropOp52
 70
     0
102
RTVSPost2010Prop53
 90
        2
102
RTVSPost2010PropOp53
 70
     1
102
RTVSPost2010Prop54
  1
strokes_ogs.tif
102
RTVSPost2010PropOp54
 70
     1
102
RTVSPost2010Prop55
280
     0
102
RTVSPost2010PropOp55
 70
     1
102
RTVSPost2010Prop56
140
1.0
102
RTVSPost2010PropOp56
 70
     1
102
RTVSPost2010Prop57
140
1.0
102
RTVSPost2010PropOp57
 70
     1
  0
XRECORD
  5
118
102
{ACAD_REACTORS
330
117
102
}
330
117
100
AcDbXrecord
280
     1
102
RTVSPost2010Prop28
280
     0
102
RTVSPost2010PropOp28
 70
     1
102
RTVSPost2010Prop29
280
     1
102
RTVSPost2010PropOp29
 70
     1
102
RTVSPost2010Prop30
280
     1
102
RTVSPost2010PropOp30
 70
     1
102
RTVSPost2010Prop31
280
     0
102
RTVSPost2010PropOp31
 70
     1
102
RTVSPost2010Prop32
280
     0
102
RTVSPost2010PropOp32
 70
     1
102
RTVSPost2010Prop33
280
     0
102
RTVSPost2010PropOp33
 70
     1
102
RTVSPost2010Prop34
280
     0
102
RTVSPost2010PropOp34
 70
     1
102
RTVSPost2010Prop35
280
     0
102
RTVSPost2010PropOp35
 70
     1
102
RTVSPost2010Prop36
280
     0
102
RTVSPost2010PropOp36
 70
     1
102
RTVSPost2010Prop37
 90
       50
102
RTVSPost2010PropOp37
 70
     1
102
RTVSPost2010Prop38
140
0.0
102
RTVSPost2010PropOp38
 70
     1
102
RTVSPost2010Prop39
140
1.0
102
RTVSPost2010PropOp39
 70
     1
102
RTVSPost2010Prop40
 90
        0
102
RTVSPost2010PropOp40
 70
     1
102
RTVSPost2010Prop41ColorIndex
 90
       18
102
RTVSPost2010Prop41ColorRGB
 90
        0
102
RTVSPost2010PropOp41
 70
     1
102
RTVSPost2010Prop42
 90
       50
102
RTVSPost2010PropOp42
 70
     1
102
RTVSPost2010Prop43
 90
        3
102
RTVSPost2010PropOp43
 70
     1
102
RTVSPost2010Prop44ColorIndex
 90
        5
102
RTVSPost2010Prop44ColorRGB
 90
      255
102
RTVSPost2010PropOp44
 70
     1
102
RTVSPost2010Prop45
280
     0
102
RTVSPost2010PropOp45
 70
     1
102
RTVSPost2010Prop46
 90
       50
102
RTVSPost2010PropOp46
 70
     1
102
RTVSPost2010Prop47
 90
       50
102
RTVSPost2010PropOp47
 70
     1
102
RTVSPost2010Prop48
 90
       50
102
RTVSPost2010PropOp48
 70
     1
102
RTVSPost2010Prop49
280
     0
102
RTVSPost2010PropOp49
 70
     1
102
RTVSPost2010Prop50
 90
       50
102
RTVSPost2010PropOp50
 70
     1
102
RTVSPost2010Prop51ColorIndex
 90
      256
102
RTVSPost2010Prop51ColorRGB
 90
-16777216
102
RTVSPost2010PropOp51
 70
     0
102
RTVSPost2010Prop52
140
1.0
102
RTVSPost2010PropOp52
 70
     0
102
RTVSPost2010Prop53
 90
        2
102
RTVSPost2010PropOp53
 70
     1
102
RTVSPost2010Prop54
  1
strokes_ogs.tif
102
RTVSPost2010PropOp54
 70
     1
102
RTVSPost2010Prop55
280
     0
102
RTVSPost2010PropOp55
 70
     1
102
RTVSPost2010Prop56
140
1.0
102
RTVSPost2010PropOp56
 70
     1
102
RTVSPost2010Prop57
140
1.0
102
RTVSPost2010PropOp57
 70
     1
  0
XRECORD
  5
11C
102
{ACAD_REACTORS
330
11B
102
}
330
11B
100
AcDbXrecord
280
     1
102
RTVSPost2010Prop28
280
     0
102
RTVSPost2010PropOp28
 70
     1
102
RTVSPost2010Prop29
280
     1
102
RTVSPost2010PropOp29
 70
     1
102
RTVSPost2010Prop30
280
     1
102
RTVSPost2010PropOp30
 70
     1
102
RTVSPost2010Prop31
280
     0
102
RTVSPost2010PropOp31
 70
     1
102
RTVSPost2010Prop32
280
     0
102
RTVSPost2010PropOp32
 70
     1
102
RTVSPost2010Prop33
280
     0
102
RTVSPost2010PropOp33
 70
     1
102
RTVSPost2010Prop34
280
     0
102
RTVSPost2010PropOp34
 70
     1
102
RTVSPost2010Prop35
280
     0
102
RTVSPost2010PropOp35
 70
     1
102
RTVSPost2010Prop36
280
     0
102
RTVSPost2010PropOp36
 70
     1
102
RTVSPost2010Prop37
 90
       50
102
RTVSPost2010PropOp37
 70
     1
102
RTVSPost2010Prop38
140
0.0
102
RTVSPost2010PropOp38
 70
     1
102
RTVSPost2010Prop39
140
1.0
102
RTVSPost2010PropOp39
 70
     1
102
RTVSPost2010Prop40
 90
        0
102
RTVSPost2010PropOp40
 70
     1
102
RTVSPost2010Prop41ColorIndex
 90
       18
102
RTVSPost2010Prop41ColorRGB
 90
        0
102
RTVSPost2010PropOp41
 70
     1
102
RTVSPost2010Prop42
 90
       50
102
RTVSPost2010PropOp42
 70
     1
102
RTVSPost2010Prop43
 90
        3
102
RTVSPost2010PropOp43
 70
     1
102
RTVSPost2010Prop44ColorIndex
 90
        5
102
RTVSPost2010Prop44ColorRGB
 90
      255
102
RTVSPost2010PropOp44
 70
     1
102
RTVSPost2010Prop45
280
     0
102
RTVSPost2010PropOp45
 70
     1
102
RTVSPost2010Prop46
 90
       50
102
RTVSPost2010PropOp46
 70
     1
102
RTVSPost2010Prop47
 90
       50
102
RTVSPost2010PropOp47
 70
     1
102
RTVSPost2010Prop48
 90
       50
102
RTVSPost2010PropOp48
 70
     1
102
RTVSPost2010Prop49
280
     0
102
RTVSPost2010PropOp49
 70
     1
102
RTVSPost2010Prop50
 90
       50
102
RTVSPost2010PropOp50
 70
     1
102
RTVSPost2010Prop51ColorIndex
 90
      256
102
RTVSPost2010Prop51ColorRGB
 90
-16777216
102
RTVSPost2010PropOp51
 70
     0
102
RTVSPost2010Prop52
140
1.0
102
RTVSPost2010PropOp52
 70
     0
102
RTVSPost2010Prop53
 90
        2
102
RTVSPost2010PropOp53
 70
     1
102
RTVSPost2010Prop54
  1
strokes_ogs.tif
102
RTVSPost2010PropOp54
 70
     1
102
RTVSPost2010Prop55
280
     0
102
RTVSPost2010PropOp55
 70
     1
102
RTVSPost2010Prop56
140
1.0
102
RTVSPost2010PropOp56
 70
     1
102
RTVSPost2010Prop57
140
1.0
102
RTVSPost2010PropOp57
 70
     1
  0
XRECORD
  5
136
102
{ACAD_REACTORS
330
135
102
}
330
135
100
AcDbXrecord
280
     1
102
RTVSPost2010Prop28
280
     0
102
RTVSPost2010PropOp28
 70
     0
102
RTVSPost2010Prop29
280
     1
102
RTVSPost2010PropOp29
 70
     0
102
RTVSPost2010Prop30
280
     1
102
RTVSPost2010PropOp30
 70
     0
102
RTVSPost2010Prop31
280
     0
102
RTVSPost2010PropOp31
 70
     0
102
RTVSPost2010Prop32
280
     0
102
RTVSPost2010PropOp32
 70
     0
102
RTVSPost2010Prop33
280
     0
102
RTVSPost2010PropOp33
 70
     0
102
RTVSPost2010Prop34
280
     0
102
RTVSPost2010PropOp34
 70
     0
102
RTVSPost2010Prop35
280
     0
102
RTVSPost2010PropOp35
 70
     0
102
RTVSPost2010Prop36
280
     0
102
RTVSPost2010PropOp36
 70
     0
102
RTVSPost2010Prop37
 90
       50
102
RTVSPost2010PropOp37
 70
     0
102
RTVSPost2010Prop38
140
0.0
102
RTVSPost2010PropOp38
 70
     0
102
RTVSPost2010Prop39
140
1.0
102
RTVSPost2010PropOp39
 70
     0
102
RTVSPost2010Prop40
 90
        0
102
RTVSPost2010PropOp40
 70
     0
102
RTVSPost2010Prop41ColorIndex
 90
       18
102
RTVSPost2010Prop41ColorRGB
 90
        0
102
RTVSPost2010PropOp41
 70
     0
102
RTVSPost2010Prop42
 90
       50
102
RTVSPost2010PropOp42
 70
     0
102
RTVSPost2010Prop43
 90
        3
102
RTVSPost2010PropOp43
 70
     0
102
RTVSPost2010Prop44ColorIndex
 90
        5
102
RTVSPost2010Prop44ColorRGB
 90
      255
102
RTVSPost2010PropOp44
 70
     0
102
RTVSPost2010Prop45
280
     0
102
RTVSPost2010PropOp45
 70
     0
102
RTVSPost2010Prop46
 90
       50
102
RTVSPost2010PropOp46
 70
     0
102
RTVSPost2010Prop47
 90
       50
102
RTVSPost2010PropOp47
 70
     0
102
RTVSPost2010Prop48
 90
       50
102
RTVSPost2010PropOp48
 70
     0
102
RTVSPost2010Prop49
280
     0
102
RTVSPost2010PropOp49
 70
     0
102
RTVSPost2010Prop50
 90
       50
102
RTVSPost2010PropOp50
 70
     0
102
RTVSPost2010Prop51ColorIndex
 90
      256
102
RTVSPost2010Prop51ColorRGB
 90
-16777216
102
RTVSPost2010PropOp51
 70
     0
102
RTVSPost2010Prop52
140
1.0
102
RTVSPost2010PropOp52
 70
     0
102
RTVSPost2010Prop53
 90
        2
102
RTVSPost2010PropOp53
 70
     0
102
RTVSPost2010Prop54
  1
strokes_ogs.tif
102
RTVSPost2010PropOp54
 70
     0
102
RTVSPost2010Prop55
280
     0
102
RTVSPost2010PropOp55
 70
     0
102
RTVSPost2010Prop56
140
1.0
102
RTVSPost2010PropOp56
 70
     0
102
RTVSPost2010Prop57
140
1.0
102
RTVSPost2010PropOp57
 70
     0
  0
XRECORD
  5
124
102
{ACAD_REACTORS
330
123
102
}
330
123
100
AcDbXrecord
280
     1
102
RTVSPost2010Prop28
280
     0
102
RTVSPost2010PropOp28
 70
     1
102
RTVSPost2010Prop29
280
     1
102
RTVSPost2010PropOp29
 70
     1
102
RTVSPost2010Prop30
280
     1
102
RTVSPost2010PropOp30
 70
     1
102
RTVSPost2010Prop31
280
     0
102
RTVSPost2010PropOp31
 70
     1
102
RTVSPost2010Prop32
280
     0
102
RTVSPost2010PropOp32
 70
     1
102
RTVSPost2010Prop33
280
     0
102
RTVSPost2010PropOp33
 70
     1
102
RTVSPost2010Prop34
280
     0
102
RTVSPost2010PropOp34
 70
     1
102
RTVSPost2010Prop35
280
     0
102
RTVSPost2010PropOp35
 70
     1
102
RTVSPost2010Prop36
280
     0
102
RTVSPost2010PropOp36
 70
     1
102
RTVSPost2010Prop37
 90
       50
102
RTVSPost2010PropOp37
 70
     1
102
RTVSPost2010Prop38
140
0.0
102
RTVSPost2010PropOp38
 70
     1
102
RTVSPost2010Prop39
140
1.0
102
RTVSPost2010PropOp39
 70
     1
102
RTVSPost2010Prop40
 90
        0
102
RTVSPost2010PropOp40
 70
     1
102
RTVSPost2010Prop41ColorIndex
 90
       18
102
RTVSPost2010Prop41ColorRGB
 90
        0
102
RTVSPost2010PropOp41
 70
     1
102
RTVSPost2010Prop42
 90
       50
102
RTVSPost2010PropOp42
 70
     1
102
RTVSPost2010Prop43
 90
        3
102
RTVSPost2010PropOp43
 70
     1
102
RTVSPost2010Prop44ColorIndex
 90
        5
102
RTVSPost2010Prop44ColorRGB
 90
      255
102
RTVSPost2010PropOp44
 70
     1
102
RTVSPost2010Prop45
280
     0
102
RTVSPost2010PropOp45
 70
     1
102
RTVSPost2010Prop46
 90
       50
102
RTVSPost2010PropOp46
 70
     1
102
RTVSPost2010Prop47
 90
       50
102
RTVSPost2010PropOp47
 70
     1
102
RTVSPost2010Prop48
 90
       50
102
RTVSPost2010PropOp48
 70
     1
102
RTVSPost2010Prop49
280
     0
102
RTVSPost2010PropOp49
 70
     1
102
RTVSPost2010Prop50
 90
       50
102
RTVSPost2010PropOp50
 70
     1
102
RTVSPost2010Prop51ColorIndex
 90
      256
102
RTVSPost2010Prop51ColorRGB
 90
-16777216
102
RTVSPost2010PropOp51
 70
     0
102
RTVSPost2010Prop52
140
1.0
102
RTVSPost2010PropOp52
 70
     0
102
RTVSPost2010Prop53
 90
        2
102
RTVSPost2010PropOp53
 70
     1
102
RTVSPost2010Prop54
  1
strokes_ogs.tif
102
RTVSPost2010PropOp54
 70
     1
102
RTVSPost2010Prop55
280
     0
102
RTVSPost2010PropOp55
 70
     1
102
RTVSPost2010Prop56
140
1.0
102
RTVSPost2010PropOp56
 70
     1
102
RTVSPost2010Prop57
140
1.0
102
RTVSPost2010PropOp57
 70
     1
  0
XRECORD
  5
108
102
{ACAD_REACTORS
330
107
102
}
330
107
100
AcDbXrecord
280
     1
102
RTVSPost2010Prop28
280
     0
102
RTVSPost2010PropOp28
 70
     1
102
RTVSPost2010Prop29
280
     1
102
RTVSPost2010PropOp29
 70
     1
102
RTVSPost2010Prop30
280
     1
102
RTVSPost2010PropOp30
 70
     1
102
RTVSPost2010Prop31
280
     0
102
RTVSPost2010PropOp31
 70
     1
102
RTVSPost2010Prop32
280
     0
102
RTVSPost2010PropOp32
 70
     1
102
RTVSPost2010Prop33
280
     0
102
RTVSPost2010PropOp33
 70
     1
102
RTVSPost2010Prop34
280
     0
102
RTVSPost2010PropOp34
 70
     1
102
RTVSPost2010Prop35
280
     0
102
RTVSPost2010PropOp35
 70
     1
102
RTVSPost2010Prop36
280
     0
102
RTVSPost2010PropOp36
 70
     1
102
RTVSPost2010Prop37
 90
       50
102
RTVSPost2010PropOp37
 70
     1
102
RTVSPost2010Prop38
140
0.0
102
RTVSPost2010PropOp38
 70
     1
102
RTVSPost2010Prop39
140
1.0
102
RTVSPost2010PropOp39
 70
     1
102
RTVSPost2010Prop40
 90
        0
102
RTVSPost2010PropOp40
 70
     1
102
RTVSPost2010Prop41ColorIndex
 90
       18
102
RTVSPost2010Prop41ColorRGB
 90
        0
102
RTVSPost2010PropOp41
 70
     1
102
RTVSPost2010Prop42
 90
       50
102
RTVSPost2010PropOp42
 70
     1
102
RTVSPost2010Prop43
 90
        3
102
RTVSPost2010PropOp43
 70
     1
102
RTVSPost2010Prop44ColorIndex
 90
        5
102
RTVSPost2010Prop44ColorRGB
 90
      255
102
RTVSPost2010PropOp44
 70
     1
102
RTVSPost2010Prop45
280
     0
102
RTVSPost2010PropOp45
 70
     1
102
RTVSPost2010Prop46
 90
       50
102
RTVSPost2010PropOp46
 70
     1
102
RTVSPost2010Prop47
 90
       50
102
RTVSPost2010PropOp47
 70
     1
102
RTVSPost2010Prop48
 90
       50
102
RTVSPost2010PropOp48
 70
     1
102
RTVSPost2010Prop49
280
     0
102
RTVSPost2010PropOp49
 70
     1
102
RTVSPost2010Prop50
 90
       50
102
RTVSPost2010PropOp50
 70
     1
102
RTVSPost2010Prop51ColorIndex
 90
      256
102
RTVSPost2010Prop51ColorRGB
 90
-16777216
102
RTVSPost2010PropOp51
 70
     0
102
RTVSPost2010Prop52
140
1.0
102
RTVSPost2010PropOp52
 70
     0
102
RTVSPost2010Prop53
 90
        2
102
RTVSPost2010PropOp53
 70
     1
102
RTVSPost2010Prop54
  1
strokes_ogs.tif
102
RTVSPost2010PropOp54
 70
     1
102
RTVSPost2010Prop55
280
     0
102
RTVSPost2010PropOp55
 70
     1
102
RTVSPost2010Prop56
140
1.0
102
RTVSPost2010PropOp56
 70
     1
102
RTVSPost2010Prop57
140
1.0
102
RTVSPost2010PropOp57
 70
     1
  0
XRECORD
  5
10A
102
{ACAD_REACTORS
330
109
102
}
330
109
100
AcDbXrecord
280
     1
102
RTVSPost2010Prop28
280
     0
102
RTVSPost2010PropOp28
 70
     1
102
RTVSPost2010Prop29
280
     1
102
RTVSPost2010PropOp29
 70
     1
102
RTVSPost2010Prop30
280
     1
102
RTVSPost2010PropOp30
 70
     1
102
RTVSPost2010Prop31
280
     0
102
RTVSPost2010PropOp31
 70
     1
102
RTVSPost2010Prop32
280
     0
102
RTVSPost2010PropOp32
 70
     1
102
RTVSPost2010Prop33
280
     0
102
RTVSPost2010PropOp33
 70
     1
102
RTVSPost2010Prop34
280
     0
102
RTVSPost2010PropOp34
 70
     1
102
RTVSPost2010Prop35
280
     0
102
RTVSPost2010PropOp35
 70
     1
102
RTVSPost2010Prop36
280
     0
102
RTVSPost2010PropOp36
 70
     1
102
RTVSPost2010Prop37
 90
       50
102
RTVSPost2010PropOp37
 70
     1
102
RTVSPost2010Prop38
140
0.0
102
RTVSPost2010PropOp38
 70
     1
102
RTVSPost2010Prop39
140
1.0
102
RTVSPost2010PropOp39
 70
     1
102
RTVSPost2010Prop40
 90
        0
102
RTVSPost2010PropOp40
 70
     1
102
RTVSPost2010Prop41ColorIndex
 90
       18
102
RTVSPost2010Prop41ColorRGB
 90
        0
102
RTVSPost2010PropOp41
 70
     1
102
RTVSPost2010Prop42
 90
       50
102
RTVSPost2010PropOp42
 70
     1
102
RTVSPost2010Prop43
 90
        3
102
RTVSPost2010PropOp43
 70
     1
102
RTVSPost2010Prop44ColorIndex
 90
        5
102
RTVSPost2010Prop44ColorRGB
 90
      255
102
RTVSPost2010PropOp44
 70
     1
102
RTVSPost2010Prop45
280
     0
102
RTVSPost2010PropOp45
 70
     1
102
RTVSPost2010Prop46
 90
       50
102
RTVSPost2010PropOp46
 70
     1
102
RTVSPost2010Prop47
 90
       50
102
RTVSPost2010PropOp47
 70
     1
102
RTVSPost2010Prop48
 90
       50
102
RTVSPost2010PropOp48
 70
     1
102
RTVSPost2010Prop49
280
     0
102
RTVSPost2010PropOp49
 70
     1
102
RTVSPost2010Prop50
 90
       50
102
RTVSPost2010PropOp50
 70
     1
102
RTVSPost2010Prop51ColorIndex
 90
      256
102
RTVSPost2010Prop51ColorRGB
 90
-16777216
102
RTVSPost2010PropOp51
 70
     0
102
RTVSPost2010Prop52
140
1.0
102
RTVSPost2010PropOp52
 70
     0
102
RTVSPost2010Prop53
 90
        2
102
RTVSPost2010PropOp53
 70
     1
102
RTVSPost2010Prop54
  1
strokes_ogs.tif
102
RTVSPost2010PropOp54
 70
     1
102
RTVSPost2010Prop55
280
     0
102
RTVSPost2010PropOp55
 70
     1
102
RTVSPost2010Prop56
140
1.0
102
RTVSPost2010PropOp56
 70
     1
102
RTVSPost2010Prop57
140
1.0
102
RTVSPost2010PropOp57
 70
     1
  0
XRECORD
  5
10C
102
{ACAD_REACTORS
330
10B
102
}
330
10B
100
AcDbXrecord
280
     1
102
RTVSPost2010Prop28
280
     0
102
RTVSPost2010PropOp28
 70
     1
102
RTVSPost2010Prop29
280
     1
102
RTVSPost2010PropOp29
 70
     1
102
RTVSPost2010Prop30
280
     1
102
RTVSPost2010PropOp30
 70
     1
102
RTVSPost2010Prop31
280
     0
102
RTVSPost2010PropOp31
 70
     1
102
RTVSPost2010Prop32
280
     0
102
RTVSPost2010PropOp32
 70
     1
102
RTVSPost2010Prop33
280
     0
102
RTVSPost2010PropOp33
 70
     1
102
RTVSPost2010Prop34
280
     0
102
RTVSPost2010PropOp34
 70
     1
102
RTVSPost2010Prop35
280
     0
102
RTVSPost2010PropOp35
 70
     1
102
RTVSPost2010Prop36
280
     0
102
RTVSPost2010PropOp36
 70
     1
102
RTVSPost2010Prop37
 90
       50
102
RTVSPost2010PropOp37
 70
     1
102
RTVSPost2010Prop38
140
0.0
102
RTVSPost2010PropOp38
 70
     1
102
RTVSPost2010Prop39
140
1.0
102
RTVSPost2010PropOp39
 70
     1
102
RTVSPost2010Prop40
 90
        0
102
RTVSPost2010PropOp40
 70
     1
102
RTVSPost2010Prop41ColorIndex
 90
       18
102
RTVSPost2010Prop41ColorRGB
 90
        0
102
RTVSPost2010PropOp41
 70
     1
102
RTVSPost2010Prop42
 90
       50
102
RTVSPost2010PropOp42
 70
     1
102
RTVSPost2010Prop43
 90
        3
102
RTVSPost2010PropOp43
 70
     1
102
RTVSPost2010Prop44ColorIndex
 90
        5
102
RTVSPost2010Prop44ColorRGB
 90
      255
102
RTVSPost2010PropOp44
 70
     1
102
RTVSPost2010Prop45
280
     0
102
RTVSPost2010PropOp45
 70
     1
102
RTVSPost2010Prop46
 90
       50
102
RTVSPost2010PropOp46
 70
     1
102
RTVSPost2010Prop47
 90
       50
102
RTVSPost2010PropOp47
 70
     1
102
RTVSPost2010Prop48
 90
       50
102
RTVSPost2010PropOp48
 70
     1
102
RTVSPost2010Prop49
280
     0
102
RTVSPost2010PropOp49
 70
     1
102
RTVSPost2010Prop50
 90
       50
102
RTVSPost2010PropOp50
 70
     1
102
RTVSPost2010Prop51ColorIndex
 90
      256
102
RTVSPost2010Prop51ColorRGB
 90
-16777216
102
RTVSPost2010PropOp51
 70
     0
102
RTVSPost2010Prop52
140
1.0
102
RTVSPost2010PropOp52
 70
     0
102
RTVSPost2010Prop53
 90
        2
102
RTVSPost2010PropOp53
 70
     1
102
RTVSPost2010Prop54
  1
strokes_ogs.tif
102
RTVSPost2010PropOp54
 70
     1
102
RTVSPost2010Prop55
280
     0
102
RTVSPost2010PropOp55
 70
     1
102
RTVSPost2010Prop56
140
1.0
102
RTVSPost2010PropOp56
 70
     1
102
RTVSPost2010Prop57
140
1.0
102
RTVSPost2010PropOp57
 70
     1
  0
XRECORD
  5
10E
102
{ACAD_REACTORS
330
10D
102
}
330
10D
100
AcDbXrecord
280
     1
102
RTVSPost2010Prop28
280
     0
102
RTVSPost2010PropOp28
 70
     1
102
RTVSPost2010Prop29
280
     1
102
RTVSPost2010PropOp29
 70
     1
102
RTVSPost2010Prop30
280
     1
102
RTVSPost2010PropOp30
 70
     1
102
RTVSPost2010Prop31
280
     0
102
RTVSPost2010PropOp31
 70
     1
102
RTVSPost2010Prop32
280
     0
102
RTVSPost2010PropOp32
 70
     1
102
RTVSPost2010Prop33
280
     0
102
RTVSPost2010PropOp33
 70
     1
102
RTVSPost2010Prop34
280
     0
102
RTVSPost2010PropOp34
 70
     1
102
RTVSPost2010Prop35
280
     0
102
RTVSPost2010PropOp35
 70
     1
102
RTVSPost2010Prop36
280
     0
102
RTVSPost2010PropOp36
 70
     1
102
RTVSPost2010Prop37
 90
       50
102
RTVSPost2010PropOp37
 70
     1
102
RTVSPost2010Prop38
140
0.0
102
RTVSPost2010PropOp38
 70
     1
102
RTVSPost2010Prop39
140
1.0
102
RTVSPost2010PropOp39
 70
     1
102
RTVSPost2010Prop40
 90
        0
102
RTVSPost2010PropOp40
 70
     1
102
RTVSPost2010Prop41ColorIndex
 90
       18
102
RTVSPost2010Prop41ColorRGB
 90
        0
102
RTVSPost2010PropOp41
 70
     1
102
RTVSPost2010Prop42
 90
       50
102
RTVSPost2010PropOp42
 70
     1
102
RTVSPost2010Prop43
 90
        3
102
RTVSPost2010PropOp43
 70
     1
102
RTVSPost2010Prop44ColorIndex
 90
        5
102
RTVSPost2010Prop44ColorRGB
 90
      255
102
RTVSPost2010PropOp44
 70
     1
102
RTVSPost2010Prop45
280
     0
102
RTVSPost2010PropOp45
 70
     1
102
RTVSPost2010Prop46
 90
       50
102
RTVSPost2010PropOp46
 70
     1
102
RTVSPost2010Prop47
 90
       50
102
RTVSPost2010PropOp47
 70
     1
102
RTVSPost2010Prop48
 90
       50
102
RTVSPost2010PropOp48
 70
     1
102
RTVSPost2010Prop49
280
     0
102
RTVSPost2010PropOp49
 70
     1
102
RTVSPost2010Prop50
 90
       50
102
RTVSPost2010PropOp50
 70
     1
102
RTVSPost2010Prop51ColorIndex
 90
      256
102
RTVSPost2010Prop51ColorRGB
 90
-16777216
102
RTVSPost2010PropOp51
 70
     0
102
RTVSPost2010Prop52
140
1.0
102
RTVSPost2010PropOp52
 70
     0
102
RTVSPost2010Prop53
 90
        2
102
RTVSPost2010PropOp53
 70
     1
102
RTVSPost2010Prop54
  1
strokes_ogs.tif
102
RTVSPost2010PropOp54
 70
     1
102
RTVSPost2010Prop55
280
     0
102
RTVSPost2010PropOp55
 70
     1
102
RTVSPost2010Prop56
140
1.0
102
RTVSPost2010PropOp56
 70
     1
102
RTVSPost2010Prop57
140
1.0
102
RTVSPost2010PropOp57
 70
     1
  0
XRECORD
  5
116
102
{ACAD_REACTORS
330
115
102
}
330
115
100
AcDbXrecord
280
     1
102
RTVSPost2010Prop28
280
     0
102
RTVSPost2010PropOp28
 70
     1
102
RTVSPost2010Prop29
280
     1
102
RTVSPost2010PropOp29
 70
     1
102
RTVSPost2010Prop30
280
     1
102
RTVSPost2010PropOp30
 70
     1
102
RTVSPost2010Prop31
280
     0
102
RTVSPost2010PropOp31
 70
     1
102
RTVSPost2010Prop32
280
     0
102
RTVSPost2010PropOp32
 70
     1
102
RTVSPost2010Prop33
280
     0
102
RTVSPost2010PropOp33
 70
     1
102
RTVSPost2010Prop34
280
     0
102
RTVSPost2010PropOp34
 70
     1
102
RTVSPost2010Prop35
280
     0
102
RTVSPost2010PropOp35
 70
     1
102
RTVSPost2010Prop36
280
     0
102
RTVSPost2010PropOp36
 70
     1
102
RTVSPost2010Prop37
 90
       50
102
RTVSPost2010PropOp37
 70
     1
102
RTVSPost2010Prop38
140
0.0
102
RTVSPost2010PropOp38
 70
     1
102
RTVSPost2010Prop39
140
1.0
102
RTVSPost2010PropOp39
 70
     1
102
RTVSPost2010Prop40
 90
        0
102
RTVSPost2010PropOp40
 70
     1
102
RTVSPost2010Prop41ColorIndex
 90
       18
102
RTVSPost2010Prop41ColorRGB
 90
        0
102
RTVSPost2010PropOp41
 70
     1
102
RTVSPost2010Prop42
 90
       50
102
RTVSPost2010PropOp42
 70
     1
102
RTVSPost2010Prop43
 90
        3
102
RTVSPost2010PropOp43
 70
     1
102
RTVSPost2010Prop44ColorIndex
 90
        5
102
RTVSPost2010Prop44ColorRGB
 90
      255
102
RTVSPost2010PropOp44
 70
     1
102
RTVSPost2010Prop45
280
     0
102
RTVSPost2010PropOp45
 70
     1
102
RTVSPost2010Prop46
 90
       50
102
RTVSPost2010PropOp46
 70
     1
102
RTVSPost2010Prop47
 90
       50
102
RTVSPost2010PropOp47
 70
     1
102
RTVSPost2010Prop48
 90
       50
102
RTVSPost2010PropOp48
 70
     1
102
RTVSPost2010Prop49
280
     0
102
RTVSPost2010PropOp49
 70
     1
102
RTVSPost2010Prop50
 90
       50
102
RTVSPost2010PropOp50
 70
     1
102
RTVSPost2010Prop51ColorIndex
 90
      256
102
RTVSPost2010Prop51ColorRGB
 90
-16777216
102
RTVSPost2010PropOp51
 70
     0
102
RTVSPost2010Prop52
140
1.0
102
RTVSPost2010PropOp52
 70
     0
102
RTVSPost2010Prop53
 90
        2
102
RTVSPost2010PropOp53
 70
     1
102
RTVSPost2010Prop54
  1
strokes_ogs.tif
102
RTVSPost2010PropOp54
 70
     1
102
RTVSPost2010Prop55
280
     0
102
RTVSPost2010PropOp55
 70
     1
102
RTVSPost2010Prop56
140
1.0
102
RTVSPost2010PropOp56
 70
     1
102
RTVSPost2010Prop57
140
1.0
102
RTVSPost2010PropOp57
 70
     1
  0
XRECORD
  5
132
102
{ACAD_REACTORS
330
131
102
}
330
131
100
AcDbXrecord
280
     1
102
RTVSPost2010Prop28
280
     0
102
RTVSPost2010PropOp28
 70
     0
102
RTVSPost2010Prop29
280
     1
102
RTVSPost2010PropOp29
 70
     0
102
RTVSPost2010Prop30
280
     1
102
RTVSPost2010PropOp30
 70
     0
102
RTVSPost2010Prop31
280
     0
102
RTVSPost2010PropOp31
 70
     0
102
RTVSPost2010Prop32
280
     0
102
RTVSPost2010PropOp32
 70
     0
102
RTVSPost2010Prop33
280
     0
102
RTVSPost2010PropOp33
 70
     0
102
RTVSPost2010Prop34
280
     0
102
RTVSPost2010PropOp34
 70
     0
102
RTVSPost2010Prop35
280
     0
102
RTVSPost2010PropOp35
 70
     0
102
RTVSPost2010Prop36
280
     0
102
RTVSPost2010PropOp36
 70
     0
102
RTVSPost2010Prop37
 90
       50
102
RTVSPost2010PropOp37
 70
     0
102
RTVSPost2010Prop38
140
0.0
102
RTVSPost2010PropOp38
 70
     0
102
RTVSPost2010Prop39
140
1.0
102
RTVSPost2010PropOp39
 70
     0
102
RTVSPost2010Prop40
 90
        0
102
RTVSPost2010PropOp40
 70
     0
102
RTVSPost2010Prop41ColorIndex
 90
       18
102
RTVSPost2010Prop41ColorRGB
 90
        0
102
RTVSPost2010PropOp41
 70
     0
102
RTVSPost2010Prop42
 90
       50
102
RTVSPost2010PropOp42
 70
     0
102
RTVSPost2010Prop43
 90
        3
102
RTVSPost2010PropOp43
 70
     0
102
RTVSPost2010Prop44ColorIndex
 90
        5
102
RTVSPost2010Prop44ColorRGB
 90
      255
102
RTVSPost2010PropOp44
 70
     0
102
RTVSPost2010Prop45
280
     0
102
RTVSPost2010PropOp45
 70
     0
102
RTVSPost2010Prop46
 90
       50
102
RTVSPost2010PropOp46
 70
     0
102
RTVSPost2010Prop47
 90
       50
102
RTVSPost2010PropOp47
 70
     0
102
RTVSPost2010Prop48
 90
       50
102
RTVSPost2010PropOp48
 70
     0
102
RTVSPost2010Prop49
280
     0
102
RTVSPost2010PropOp49
 70
     0
102
RTVSPost2010Prop50
 90
       50
102
RTVSPost2010PropOp50
 70
     0
102
RTVSPost2010Prop51ColorIndex
 90
      256
102
RTVSPost2010Prop51ColorRGB
 90
-16777216
102
RTVSPost2010PropOp51
 70
     0
102
RTVSPost2010Prop52
140
1.0
102
RTVSPost2010PropOp52
 70
     0
102
RTVSPost2010Prop53
 90
        2
102
RTVSPost2010PropOp53
 70
     0
102
RTVSPost2010Prop54
  1
strokes_ogs.tif
102
RTVSPost2010PropOp54
 70
     0
102
RTVSPost2010Prop55
280
     0
102
RTVSPost2010PropOp55
 70
     0
102
RTVSPost2010Prop56
140
1.0
102
RTVSPost2010PropOp56
 70
     0
102
RTVSPost2010Prop57
140
1.0
102
RTVSPost2010PropOp57
 70
     0
  0
XRECORD
  5
122
102
{ACAD_REACTORS
330
121
102
}
330
121
100
AcDbXrecord
280
     1
102
RTVSPost2010Prop28
280
     0
102
RTVSPost2010PropOp28
 70
     1
102
RTVSPost2010Prop29
280
     1
102
RTVSPost2010PropOp29
 70
     1
102
RTVSPost2010Prop30
280
     1
102
RTVSPost2010PropOp30
 70
     1
102
RTVSPost2010Prop31
280
     0
102
RTVSPost2010PropOp31
 70
     1
102
RTVSPost2010Prop32
280
     0
102
RTVSPost2010PropOp32
 70
     1
102
RTVSPost2010Prop33
280
     0
102
RTVSPost2010PropOp33
 70
     1
102
RTVSPost2010Prop34
280
     0
102
RTVSPost2010PropOp34
 70
     1
102
RTVSPost2010Prop35
280
     0
102
RTVSPost2010PropOp35
 70
     1
102
RTVSPost2010Prop36
280
     0
102
RTVSPost2010PropOp36
 70
     1
102
RTVSPost2010Prop37
 90
       50
102
RTVSPost2010PropOp37
 70
     1
102
RTVSPost2010Prop38
140
0.0
102
RTVSPost2010PropOp38
 70
     1
102
RTVSPost2010Prop39
140
1.0
102
RTVSPost2010PropOp39
 70
     1
102
RTVSPost2010Prop40
 90
        0
102
RTVSPost2010PropOp40
 70
     1
102
RTVSPost2010Prop41ColorIndex
 90
       18
102
RTVSPost2010Prop41ColorRGB
 90
        0
102
RTVSPost2010PropOp41
 70
     1
102
RTVSPost2010Prop42
 90
       50
102
RTVSPost2010PropOp42
 70
     1
102
RTVSPost2010Prop43
 90
        3
102
RTVSPost2010PropOp43
 70
     1
102
RTVSPost2010Prop44ColorIndex
 90
        5
102
RTVSPost2010Prop44ColorRGB
 90
      255
102
RTVSPost2010PropOp44
 70
     1
102
RTVSPost2010Prop45
280
     0
102
RTVSPost2010PropOp45
 70
     1
102
RTVSPost2010Prop46
 90
       50
102
RTVSPost2010PropOp46
 70
     1
102
RTVSPost2010Prop47
 90
       50
102
RTVSPost2010PropOp47
 70
     1
102
RTVSPost2010Prop48
 90
       50
102
RTVSPost2010PropOp48
 70
     1
102
RTVSPost2010Prop49
280
     0
102
RTVSPost2010PropOp49
 70
     1
102
RTVSPost2010Prop50
 90
       50
102
RTVSPost2010PropOp50
 70
     1
102
RTVSPost2010Prop51ColorIndex
 90
      256
102
RTVSPost2010Prop51ColorRGB
 90
-16777216
102
RTVSPost2010PropOp51
 70
     0
102
RTVSPost2010Prop52
140
1.0
102
RTVSPost2010PropOp52
 70
     0
102
RTVSPost2010Prop53
 90
        2
102
RTVSPost2010PropOp53
 70
     1
102
RTVSPost2010Prop54
  1
strokes_ogs.tif
102
RTVSPost2010PropOp54
 70
     1
102
RTVSPost2010Prop55
280
     0
102
RTVSPost2010PropOp55
 70
     1
102
RTVSPost2010Prop56
140
1.0
102
RTVSPost2010PropOp56
 70
     1
102
RTVSPost2010Prop57
140
1.0
102
RTVSPost2010PropOp57
 70
     1
  0
XRECORD
  5
134
102
{ACAD_REACTORS
330
133
102
}
330
133
100
AcDbXrecord
280
     1
102
RTVSPost2010Prop28
280
     0
102
RTVSPost2010PropOp28
 70
     0
102
RTVSPost2010Prop29
280
     1
102
RTVSPost2010PropOp29
 70
     0
102
RTVSPost2010Prop30
280
     1
102
RTVSPost2010PropOp30
 70
     0
102
RTVSPost2010Prop31
280
     0
102
RTVSPost2010PropOp31
 70
     0
102
RTVSPost2010Prop32
280
     0
102
RTVSPost2010PropOp32
 70
     0
102
RTVSPost2010Prop33
280
     0
102
RTVSPost2010PropOp33
 70
     0
102
RTVSPost2010Prop34
280
     0
102
RTVSPost2010PropOp34
 70
     0
102
RTVSPost2010Prop35
280
     0
102
RTVSPost2010PropOp35
 70
     0
102
RTVSPost2010Prop36
280
     0
102
RTVSPost2010PropOp36
 70
     0
102
RTVSPost2010Prop37
 90
       50
102
RTVSPost2010PropOp37
 70
     0
102
RTVSPost2010Prop38
140
0.0
102
RTVSPost2010PropOp38
 70
     0
102
RTVSPost2010Prop39
140
1.0
102
RTVSPost2010PropOp39
 70
     0
102
RTVSPost2010Prop40
 90
        0
102
RTVSPost2010PropOp40
 70
     0
102
RTVSPost2010Prop41ColorIndex
 90
       18
102
RTVSPost2010Prop41ColorRGB
 90
        0
102
RTVSPost2010PropOp41
 70
     0
102
RTVSPost2010Prop42
 90
       50
102
RTVSPost2010PropOp42
 70
     0
102
RTVSPost2010Prop43
 90
        3
102
RTVSPost2010PropOp43
 70
     0
102
RTVSPost2010Prop44ColorIndex
 90
        5
102
RTVSPost2010Prop44ColorRGB
 90
      255
102
RTVSPost2010PropOp44
 70
     0
102
RTVSPost2010Prop45
280
     0
102
RTVSPost2010PropOp45
 70
     0
102
RTVSPost2010Prop46
 90
       50
102
RTVSPost2010PropOp46
 70
     0
102
RTVSPost2010Prop47
 90
       50
102
RTVSPost2010PropOp47
 70
     0
102
RTVSPost2010Prop48
 90
       50
102
RTVSPost2010PropOp48
 70
     0
102
RTVSPost2010Prop49
280
     0
102
RTVSPost2010PropOp49
 70
     0
102
RTVSPost2010Prop50
 90
       50
102
RTVSPost2010PropOp50
 70
     0
102
RTVSPost2010Prop51ColorIndex
 90
      256
102
RTVSPost2010Prop51ColorRGB
 90
-16777216
102
RTVSPost2010PropOp51
 70
     0
102
RTVSPost2010Prop52
140
1.0
102
RTVSPost2010PropOp52
 70
     0
102
RTVSPost2010Prop53
 90
        2
102
RTVSPost2010PropOp53
 70
     0
102
RTVSPost2010Prop54
  1
strokes_ogs.tif
102
RTVSPost2010PropOp54
 70
     0
102
RTVSPost2010Prop55
280
     0
102
RTVSPost2010PropOp55
 70
     0
102
RTVSPost2010Prop56
140
1.0
102
RTVSPost2010PropOp56
 70
     0
102
RTVSPost2010Prop57
140
1.0
102
RTVSPost2010PropOp57
 70
     0
  0
XRECORD
  5
11A
102
{ACAD_REACTORS
330
119
102
}
330
119
100
AcDbXrecord
280
     1
102
RTVSPost2010Prop28
280
     0
102
RTVSPost2010PropOp28
 70
     1
102
RTVSPost2010Prop29
280
     1
102
RTVSPost2010PropOp29
 70
     1
102
RTVSPost2010Prop30
280
     1
102
RTVSPost2010PropOp30
 70
     1
102
RTVSPost2010Prop31
280
     0
102
RTVSPost2010PropOp31
 70
     1
102
RTVSPost2010Prop32
280
     0
102
RTVSPost2010PropOp32
 70
     1
102
RTVSPost2010Prop33
280
     0
102
RTVSPost2010PropOp33
 70
     1
102
RTVSPost2010Prop34
280
     0
102
RTVSPost2010PropOp34
 70
     1
102
RTVSPost2010Prop35
280
     0
102
RTVSPost2010PropOp35
 70
     1
102
RTVSPost2010Prop36
280
     0
102
RTVSPost2010PropOp36
 70
     1
102
RTVSPost2010Prop37
 90
       50
102
RTVSPost2010PropOp37
 70
     1
102
RTVSPost2010Prop38
140
0.0
102
RTVSPost2010PropOp38
 70
     1
102
RTVSPost2010Prop39
140
1.0
102
RTVSPost2010PropOp39
 70
     1
102
RTVSPost2010Prop40
 90
        0
102
RTVSPost2010PropOp40
 70
     1
102
RTVSPost2010Prop41ColorIndex
 90
       18
102
RTVSPost2010Prop41ColorRGB
 90
        0
102
RTVSPost2010PropOp41
 70
     1
102
RTVSPost2010Prop42
 90
       50
102
RTVSPost2010PropOp42
 70
     1
102
RTVSPost2010Prop43
 90
        3
102
RTVSPost2010PropOp43
 70
     1
102
RTVSPost2010Prop44ColorIndex
 90
        5
102
RTVSPost2010Prop44ColorRGB
 90
      255
102
RTVSPost2010PropOp44
 70
     1
102
RTVSPost2010Prop45
280
     0
102
RTVSPost2010PropOp45
 70
     1
102
RTVSPost2010Prop46
 90
       50
102
RTVSPost2010PropOp46
 70
     1
102
RTVSPost2010Prop47
 90
       50
102
RTVSPost2010PropOp47
 70
     1
102
RTVSPost2010Prop48
 90
       50
102
RTVSPost2010PropOp48
 70
     1
102
RTVSPost2010Prop49
280
     0
102
RTVSPost2010PropOp49
 70
     1
102
RTVSPost2010Prop50
 90
       50
102
RTVSPost2010PropOp50
 70
     1
102
RTVSPost2010Prop51ColorIndex
 90
      256
102
RTVSPost2010Prop51ColorRGB
 90
-16777216
102
RTVSPost2010PropOp51
 70
     0
102
RTVSPost2010Prop52
140
1.0
102
RTVSPost2010PropOp52
 70
     0
102
RTVSPost2010Prop53
 90
        2
102
RTVSPost2010PropOp53
 70
     1
102
RTVSPost2010Prop54
  1
strokes_ogs.tif
102
RTVSPost2010PropOp54
 70
     1
102
RTVSPost2010Prop55
280
     0
102
RTVSPost2010PropOp55
 70
     1
102
RTVSPost2010Prop56
140
1.0
102
RTVSPost2010PropOp56
 70
     1
102
RTVSPost2010Prop57
140
1.0
102
RTVSPost2010PropOp57
 70
     1
  0
XRECORD
  5
130
102
{ACAD_REACTORS
330
12F
102
}
330
12F
100
AcDbXrecord
280
     1
102
RTVSPost2010Prop28
280
     0
102
RTVSPost2010PropOp28
 70
     1
102
RTVSPost2010Prop29
280
     1
102
RTVSPost2010PropOp29
 70
     1
102
RTVSPost2010Prop30
280
     1
102
RTVSPost2010PropOp30
 70
     1
102
RTVSPost2010Prop31
280
     0
102
RTVSPost2010PropOp31
 70
     1
102
RTVSPost2010Prop32
280
     0
102
RTVSPost2010PropOp32
 70
     1
102
RTVSPost2010Prop33
280
     0
102
RTVSPost2010PropOp33
 70
     1
102
RTVSPost2010Prop34
280
     0
102
RTVSPost2010PropOp34
 70
     1
102
RTVSPost2010Prop35
280
     0
102
RTVSPost2010PropOp35
 70
     1
102
RTVSPost2010Prop36
280
     0
102
RTVSPost2010PropOp36
 70
     1
102
RTVSPost2010Prop37
 90
       50
102
RTVSPost2010PropOp37
 70
     1
102
RTVSPost2010Prop38
140
0.0
102
RTVSPost2010PropOp38
 70
     1
102
RTVSPost2010Prop39
140
1.0
102
RTVSPost2010PropOp39
 70
     1
102
RTVSPost2010Prop40
 90
        0
102
RTVSPost2010PropOp40
 70
     1
102
RTVSPost2010Prop41ColorIndex
 90
       18
102
RTVSPost2010Prop41ColorRGB
 90
        0
102
RTVSPost2010PropOp41
 70
     1
102
RTVSPost2010Prop42
 90
       50
102
RTVSPost2010PropOp42
 70
     1
102
RTVSPost2010Prop43
 90
        3
102
RTVSPost2010PropOp43
 70
     1
102
RTVSPost2010Prop44ColorIndex
 90
        5
102
RTVSPost2010Prop44ColorRGB
 90
      255
102
RTVSPost2010PropOp44
 70
     1
102
RTVSPost2010Prop45
280
     0
102
RTVSPost2010PropOp45
 70
     1
102
RTVSPost2010Prop46
 90
       50
102
RTVSPost2010PropOp46
 70
     1
102
RTVSPost2010Prop47
 90
       50
102
RTVSPost2010PropOp47
 70
     1
102
RTVSPost2010Prop48
 90
       50
102
RTVSPost2010PropOp48
 70
     1
102
RTVSPost2010Prop49
280
     0
102
RTVSPost2010PropOp49
 70
     1
102
RTVSPost2010Prop50
 90
       50
102
RTVSPost2010PropOp50
 70
     1
102
RTVSPost2010Prop51ColorIndex
 90
      256
102
RTVSPost2010Prop51ColorRGB
 90
-16777216
102
RTVSPost2010PropOp51
 70
     0
102
RTVSPost2010Prop52
140
1.0
102
RTVSPost2010PropOp52
 70
     0
102
RTVSPost2010Prop53
 90
        2
102
RTVSPost2010PropOp53
 70
     1
102
RTVSPost2010Prop54
  1
strokes_ogs.tif
102
RTVSPost2010PropOp54
 70
     1
102
RTVSPost2010Prop55
280
     0
102
RTVSPost2010PropOp55
 70
     1
102
RTVSPost2010Prop56
140
1.0
102
RTVSPost2010PropOp56
 70
     1
102
RTVSPost2010Prop57
140
1.0
102
RTVSPost2010PropOp57
 70
     1
  0
XRECORD
  5
12E
102
{ACAD_REACTORS
330
12D
102
}
330
12D
100
AcDbXrecord
280
     1
102
RTVSPost2010Prop28
280
     0
102
RTVSPost2010PropOp28
 70
     1
102
RTVSPost2010Prop29
280
     1
102
RTVSPost2010PropOp29
 70
     1
102
RTVSPost2010Prop30
280
     1
102
RTVSPost2010PropOp30
 70
     1
102
RTVSPost2010Prop31
280
     0
102
RTVSPost2010PropOp31
 70
     1
102
RTVSPost2010Prop32
280
     0
102
RTVSPost2010PropOp32
 70
     1
102
RTVSPost2010Prop33
280
     0
102
RTVSPost2010PropOp33
 70
     1
102
RTVSPost2010Prop34
280
     0
102
RTVSPost2010PropOp34
 70
     1
102
RTVSPost2010Prop35
280
     0
102
RTVSPost2010PropOp35
 70
     1
102
RTVSPost2010Prop36
280
     0
102
RTVSPost2010PropOp36
 70
     1
102
RTVSPost2010Prop37
 90
       50
102
RTVSPost2010PropOp37
 70
     1
102
RTVSPost2010Prop38
140
0.0
102
RTVSPost2010PropOp38
 70
     1
102
RTVSPost2010Prop39
140
1.0
102
RTVSPost2010PropOp39
 70
     1
102
RTVSPost2010Prop40
 90
        0
102
RTVSPost2010PropOp40
 70
     1
102
RTVSPost2010Prop41ColorIndex
 90
       18
102
RTVSPost2010Prop41ColorRGB
 90
        0
102
RTVSPost2010PropOp41
 70
     1
102
RTVSPost2010Prop42
 90
       50
102
RTVSPost2010PropOp42
 70
     1
102
RTVSPost2010Prop43
 90
        3
102
RTVSPost2010PropOp43
 70
     1
102
RTVSPost2010Prop44ColorIndex
 90
        5
102
RTVSPost2010Prop44ColorRGB
 90
      255
102
RTVSPost2010PropOp44
 70
     1
102
RTVSPost2010Prop45
280
     0
102
RTVSPost2010PropOp45
 70
     1
102
RTVSPost2010Prop46
 90
       50
102
RTVSPost2010PropOp46
 70
     1
102
RTVSPost2010Prop47
 90
       50
102
RTVSPost2010PropOp47
 70
     1
102
RTVSPost2010Prop48
 90
       50
102
RTVSPost2010PropOp48
 70
     1
102
RTVSPost2010Prop49
280
     0
102
RTVSPost2010PropOp49
 70
     1
102
RTVSPost2010Prop50
 90
       50
102
RTVSPost2010PropOp50
 70
     1
102
RTVSPost2010Prop51ColorIndex
 90
      256
102
RTVSPost2010Prop51ColorRGB
 90
-16777216
102
RTVSPost2010PropOp51
 70
     0
102
RTVSPost2010Prop52
140
1.0
102
RTVSPost2010PropOp52
 70
     0
102
RTVSPost2010Prop53
 90
        2
102
RTVSPost2010PropOp53
 70
     1
102
RTVSPost2010Prop54
  1
strokes_ogs.tif
102
RTVSPost2010PropOp54
 70
     1
102
RTVSPost2010Prop55
280
     0
102
RTVSPost2010PropOp55
 70
     1
102
RTVSPost2010Prop56
140
1.0
102
RTVSPost2010PropOp56
 70
     1
102
RTVSPost2010Prop57
140
1.0
102
RTVSPost2010PropOp57
 70
     1
  0
XRECORD
  5
128
102
{ACAD_REACTORS
330
127
102
}
330
127
100
AcDbXrecord
280
     1
102
RTVSPost2010Prop28
280
     0
102
RTVSPost2010PropOp28
 70
     1
102
RTVSPost2010Prop29
280
     1
102
RTVSPost2010PropOp29
 70
     1
102
RTVSPost2010Prop30
280
     1
102
RTVSPost2010PropOp30
 70
     1
102
RTVSPost2010Prop31
280
     0
102
RTVSPost2010PropOp31
 70
     1
102
RTVSPost2010Prop32
280
     0
102
RTVSPost2010PropOp32
 70
     1
102
RTVSPost2010Prop33
280
     0
102
RTVSPost2010PropOp33
 70
     1
102
RTVSPost2010Prop34
280
     0
102
RTVSPost2010PropOp34
 70
     1
102
RTVSPost2010Prop35
280
     0
102
RTVSPost2010PropOp35
 70
     1
102
RTVSPost2010Prop36
280
     0
102
RTVSPost2010PropOp36
 70
     1
102
RTVSPost2010Prop37
 90
       50
102
RTVSPost2010PropOp37
 70
     1
102
RTVSPost2010Prop38
140
0.0
102
RTVSPost2010PropOp38
 70
     1
102
RTVSPost2010Prop39
140
1.0
102
RTVSPost2010PropOp39
 70
     1
102
RTVSPost2010Prop40
 90
        0
102
RTVSPost2010PropOp40
 70
     1
102
RTVSPost2010Prop41ColorIndex
 90
       18
102
RTVSPost2010Prop41ColorRGB
 90
        0
102
RTVSPost2010PropOp41
 70
     1
102
RTVSPost2010Prop42
 90
       50
102
RTVSPost2010PropOp42
 70
     1
102
RTVSPost2010Prop43
 90
        3
102
RTVSPost2010PropOp43
 70
     1
102
RTVSPost2010Prop44ColorIndex
 90
        5
102
RTVSPost2010Prop44ColorRGB
 90
      255
102
RTVSPost2010PropOp44
 70
     1
102
RTVSPost2010Prop45
280
     0
102
RTVSPost2010PropOp45
 70
     1
102
RTVSPost2010Prop46
 90
       50
102
RTVSPost2010PropOp46
 70
     1
102
RTVSPost2010Prop47
 90
       50
102
RTVSPost2010PropOp47
 70
     1
102
RTVSPost2010Prop48
 90
       50
102
RTVSPost2010PropOp48
 70
     1
102
RTVSPost2010Prop49
280
     0
102
RTVSPost2010PropOp49
 70
     1
102
RTVSPost2010Prop50
 90
       50
102
RTVSPost2010PropOp50
 70
     1
102
RTVSPost2010Prop51ColorIndex
 90
      256
102
RTVSPost2010Prop51ColorRGB
 90
-16777216
102
RTVSPost2010PropOp51
 70
     0
102
RTVSPost2010Prop52
140
1.0
102
RTVSPost2010PropOp52
 70
     0
102
RTVSPost2010Prop53
 90
        2
102
RTVSPost2010PropOp53
 70
     1
102
RTVSPost2010Prop54
  1
strokes_ogs.tif
102
RTVSPost2010PropOp54
 70
     1
102
RTVSPost2010Prop55
280
     0
102
RTVSPost2010PropOp55
 70
     1
102
RTVSPost2010Prop56
140
1.0
102
RTVSPost2010PropOp56
 70
     1
102
RTVSPost2010Prop57
140
1.0
102
RTVSPost2010PropOp57
 70
     1
  0
XRECORD
  5
12A
102
{ACAD_REACTORS
330
129
102
}
330
129
100
AcDbXrecord
280
     1
102
RTVSPost2010Prop28
280
     0
102
RTVSPost2010PropOp28
 70
     1
102
RTVSPost2010Prop29
280
     1
102
RTVSPost2010PropOp29
 70
     1
102
RTVSPost2010Prop30
280
     1
102
RTVSPost2010PropOp30
 70
     1
102
RTVSPost2010Prop31
280
     0
102
RTVSPost2010PropOp31
 70
     1
102
RTVSPost2010Prop32
280
     0
102
RTVSPost2010PropOp32
 70
     1
102
RTVSPost2010Prop33
280
     0
102
RTVSPost2010PropOp33
 70
     1
102
RTVSPost2010Prop34
280
     0
102
RTVSPost2010PropOp34
 70
     1
102
RTVSPost2010Prop35
280
     0
102
RTVSPost2010PropOp35
 70
     1
102
RTVSPost2010Prop36
280
     0
102
RTVSPost2010PropOp36
 70
     1
102
RTVSPost2010Prop37
 90
       50
102
RTVSPost2010PropOp37
 70
     1
102
RTVSPost2010Prop38
140
0.0
102
RTVSPost2010PropOp38
 70
     1
102
RTVSPost2010Prop39
140
1.0
102
RTVSPost2010PropOp39
 70
     1
102
RTVSPost2010Prop40
 90
        0
102
RTVSPost2010PropOp40
 70
     1
102
RTVSPost2010Prop41ColorIndex
 90
       18
102
RTVSPost2010Prop41ColorRGB
 90
        0
102
RTVSPost2010PropOp41
 70
     1
102
RTVSPost2010Prop42
 90
       50
102
RTVSPost2010PropOp42
 70
     1
102
RTVSPost2010Prop43
 90
        3
102
RTVSPost2010PropOp43
 70
     1
102
RTVSPost2010Prop44ColorIndex
 90
        5
102
RTVSPost2010Prop44ColorRGB
 90
      255
102
RTVSPost2010PropOp44
 70
     1
102
RTVSPost2010Prop45
280
     0
102
RTVSPost2010PropOp45
 70
     1
102
RTVSPost2010Prop46
 90
       50
102
RTVSPost2010PropOp46
 70
     1
102
RTVSPost2010Prop47
 90
       50
102
RTVSPost2010PropOp47
 70
     1
102
RTVSPost2010Prop48
 90
       50
102
RTVSPost2010PropOp48
 70
     1
102
RTVSPost2010Prop49
280
     0
102
RTVSPost2010PropOp49
 70
     1
102
RTVSPost2010Prop50
 90
       50
102
RTVSPost2010PropOp50
 70
     1
102
RTVSPost2010Prop51ColorIndex
 90
      256
102
RTVSPost2010Prop51ColorRGB
 90
-16777216
102
RTVSPost2010PropOp51
 70
     0
102
RTVSPost2010Prop52
140
1.0
102
RTVSPost2010PropOp52
 70
     0
102
RTVSPost2010Prop53
 90
        2
102
RTVSPost2010PropOp53
 70
     1
102
RTVSPost2010Prop54
  1
strokes_ogs.tif
102
RTVSPost2010PropOp54
 70
     1
102
RTVSPost2010Prop55
280
     0
102
RTVSPost2010PropOp55
 70
     1
102
RTVSPost2010Prop56
140
1.0
102
RTVSPost2010PropOp56
 70
     1
102
RTVSPost2010Prop57
140
1.0
102
RTVSPost2010PropOp57
 70
     1
  0
XRECORD
  5
120
102
{ACAD_REACTORS
330
11F
102
}
330
11F
100
AcDbXrecord
280
     1
102
RTVSPost2010Prop28
280
     0
102
RTVSPost2010PropOp28
 70
     1
102
RTVSPost2010Prop29
280
     1
102
RTVSPost2010PropOp29
 70
     1
102
RTVSPost2010Prop30
280
     1
102
RTVSPost2010PropOp30
 70
     1
102
RTVSPost2010Prop31
280
     0
102
RTVSPost2010PropOp31
 70
     1
102
RTVSPost2010Prop32
280
     0
102
RTVSPost2010PropOp32
 70
     1
102
RTVSPost2010Prop33
280
     0
102
RTVSPost2010PropOp33
 70
     1
102
RTVSPost2010Prop34
280
     0
102
RTVSPost2010PropOp34
 70
     1
102
RTVSPost2010Prop35
280
     0
102
RTVSPost2010PropOp35
 70
     1
102
RTVSPost2010Prop36
280
     0
102
RTVSPost2010PropOp36
 70
     1
102
RTVSPost2010Prop37
 90
       50
102
RTVSPost2010PropOp37
 70
     1
102
RTVSPost2010Prop38
140
0.0
102
RTVSPost2010PropOp38
 70
     1
102
RTVSPost2010Prop39
140
1.0
102
RTVSPost2010PropOp39
 70
     1
102
RTVSPost2010Prop40
 90
        0
102
RTVSPost2010PropOp40
 70
     1
102
RTVSPost2010Prop41ColorIndex
 90
       18
102
RTVSPost2010Prop41ColorRGB
 90
        0
102
RTVSPost2010PropOp41
 70
     1
102
RTVSPost2010Prop42
 90
       50
102
RTVSPost2010PropOp42
 70
     1
102
RTVSPost2010Prop43
 90
        3
102
RTVSPost2010PropOp43
 70
     1
102
RTVSPost2010Prop44ColorIndex
 90
        5
102
RTVSPost2010Prop44ColorRGB
 90
      255
102
RTVSPost2010PropOp44
 70
     1
102
RTVSPost2010Prop45
280
     0
102
RTVSPost2010PropOp45
 70
     1
102
RTVSPost2010Prop46
 90
       50
102
RTVSPost2010PropOp46
 70
     1
102
RTVSPost2010Prop47
 90
       50
102
RTVSPost2010PropOp47
 70
     1
102
RTVSPost2010Prop48
 90
       50
102
RTVSPost2010PropOp48
 70
     1
102
RTVSPost2010Prop49
280
     0
102
RTVSPost2010PropOp49
 70
     1
102
RTVSPost2010Prop50
 90
       50
102
RTVSPost2010PropOp50
 70
     1
102
RTVSPost2010Prop51ColorIndex
 90
      256
102
RTVSPost2010Prop51ColorRGB
 90
-16777216
102
RTVSPost2010PropOp51
 70
     0
102
RTVSPost2010Prop52
140
1.0
102
RTVSPost2010PropOp52
 70
     0
102
RTVSPost2010Prop53
 90
        2
102
RTVSPost2010PropOp53
 70
     1
102
RTVSPost2010Prop54
  1
strokes_ogs.tif
102
RTVSPost2010PropOp54
 70
     1
102
RTVSPost2010Prop55
280
     0
102
RTVSPost2010PropOp55
 70
     1
102
RTVSPost2010Prop56
140
1.0
102
RTVSPost2010PropOp56
 70
     1
102
RTVSPost2010Prop57
140
1.0
102
RTVSPost2010PropOp57
 70
     1
  0
XRECORD
  5
114
102
{ACAD_REACTORS
330
113
102
}
330
113
100
AcDbXrecord
280
     1
102
RTVSPost2010Prop28
280
     0
102
RTVSPost2010PropOp28
 70
     1
102
RTVSPost2010Prop29
280
     1
102
RTVSPost2010PropOp29
 70
     1
102
RTVSPost2010Prop30
280
     1
102
RTVSPost2010PropOp30
 70
     1
102
RTVSPost2010Prop31
280
     0
102
RTVSPost2010PropOp31
 70
     1
102
RTVSPost2010Prop32
280
     0
102
RTVSPost2010PropOp32
 70
     1
102
RTVSPost2010Prop33
280
     0
102
RTVSPost2010PropOp33
 70
     1
102
RTVSPost2010Prop34
280
     0
102
RTVSPost2010PropOp34
 70
     1
102
RTVSPost2010Prop35
280
     0
102
RTVSPost2010PropOp35
 70
     1
102
RTVSPost2010Prop36
280
     0
102
RTVSPost2010PropOp36
 70
     1
102
RTVSPost2010Prop37
 90
       50
102
RTVSPost2010PropOp37
 70
     1
102
RTVSPost2010Prop38
140
0.0
102
RTVSPost2010PropOp38
 70
     1
102
RTVSPost2010Prop39
140
1.0
102
RTVSPost2010PropOp39
 70
     1
102
RTVSPost2010Prop40
 90
        0
102
RTVSPost2010PropOp40
 70
     1
102
RTVSPost2010Prop41ColorIndex
 90
       18
102
RTVSPost2010Prop41ColorRGB
 90
        0
102
RTVSPost2010PropOp41
 70
     1
102
RTVSPost2010Prop42
 90
       50
102
RTVSPost2010PropOp42
 70
     1
102
RTVSPost2010Prop43
 90
        3
102
RTVSPost2010PropOp43
 70
     1
102
RTVSPost2010Prop44ColorIndex
 90
        5
102
RTVSPost2010Prop44ColorRGB
 90
      255
102
RTVSPost2010PropOp44
 70
     1
102
RTVSPost2010Prop45
280
     0
102
RTVSPost2010PropOp45
 70
     1
102
RTVSPost2010Prop46
 90
       50
102
RTVSPost2010PropOp46
 70
     1
102
RTVSPost2010Prop47
 90
       50
102
RTVSPost2010PropOp47
 70
     1
102
RTVSPost2010Prop48
 90
       50
102
RTVSPost2010PropOp48
 70
     1
102
RTVSPost2010Prop49
280
     0
102
RTVSPost2010PropOp49
 70
     1
102
RTVSPost2010Prop50
 90
       50
102
RTVSPost2010PropOp50
 70
     1
102
RTVSPost2010Prop51ColorIndex
 90
      256
102
RTVSPost2010Prop51ColorRGB
 90
-16777216
102
RTVSPost2010PropOp51
 70
     0
102
RTVSPost2010Prop52
140
1.0
102
RTVSPost2010PropOp52
 70
     0
102
RTVSPost2010Prop53
 90
        2
102
RTVSPost2010PropOp53
 70
     1
102
RTVSPost2010Prop54
  1
strokes_ogs.tif
102
RTVSPost2010PropOp54
 70
     1
102
RTVSPost2010Prop55
280
     0
102
RTVSPost2010PropOp55
 70
     1
102
RTVSPost2010Prop56
140
1.0
102
RTVSPost2010PropOp56
 70
     1
102
RTVSPost2010Prop57
140
1.0
102
RTVSPost2010PropOp57
 70
     1
  0
XRECORD
  5
12C
102
{ACAD_REACTORS
330
12B
102
}
330
12B
100
AcDbXrecord
280
     1
102
RTVSPost2010Prop28
280
     0
102
RTVSPost2010PropOp28
 70
     1
102
RTVSPost2010Prop29
280
     1
102
RTVSPost2010PropOp29
 70
     1
102
RTVSPost2010Prop30
280
     1
102
RTVSPost2010PropOp30
 70
     1
102
RTVSPost2010Prop31
280
     0
102
RTVSPost2010PropOp31
 70
     1
102
RTVSPost2010Prop32
280
     0
102
RTVSPost2010PropOp32
 70
     1
102
RTVSPost2010Prop33
280
     0
102
RTVSPost2010PropOp33
 70
     1
102
RTVSPost2010Prop34
280
     0
102
RTVSPost2010PropOp34
 70
     1
102
RTVSPost2010Prop35
280
     0
102
RTVSPost2010PropOp35
 70
     1
102
RTVSPost2010Prop36
280
     0
102
RTVSPost2010PropOp36
 70
     1
102
RTVSPost2010Prop37
 90
       50
102
RTVSPost2010PropOp37
 70
     1
102
RTVSPost2010Prop38
140
0.0
102
RTVSPost2010PropOp38
 70
     1
102
RTVSPost2010Prop39
140
1.0
102
RTVSPost2010PropOp39
 70
     1
102
RTVSPost2010Prop40
 90
        0
102
RTVSPost2010PropOp40
 70
     1
102
RTVSPost2010Prop41ColorIndex
 90
       18
102
RTVSPost2010Prop41ColorRGB
 90
        0
102
RTVSPost2010PropOp41
 70
     1
102
RTVSPost2010Prop42
 90
       50
102
RTVSPost2010PropOp42
 70
     1
102
RTVSPost2010Prop43
 90
        3
102
RTVSPost2010PropOp43
 70
     1
102
RTVSPost2010Prop44ColorIndex
 90
        5
102
RTVSPost2010Prop44ColorRGB
 90
      255
102
RTVSPost2010PropOp44
 70
     1
102
RTVSPost2010Prop45
280
     0
102
RTVSPost2010PropOp45
 70
     1
102
RTVSPost2010Prop46
 90
       50
102
RTVSPost2010PropOp46
 70
     1
102
RTVSPost2010Prop47
 90
       50
102
RTVSPost2010PropOp47
 70
     1
102
RTVSPost2010Prop48
 90
       50
102
RTVSPost2010PropOp48
 70
     1
102
RTVSPost2010Prop49
280
     0
102
RTVSPost2010PropOp49
 70
     1
102
RTVSPost2010Prop50
 90
       50
102
RTVSPost2010PropOp50
 70
     1
102
RTVSPost2010Prop51ColorIndex
 90
      256
102
RTVSPost2010Prop51ColorRGB
 90
-16777216
102
RTVSPost2010PropOp51
 70
     0
102
RTVSPost2010Prop52
140
1.0
102
RTVSPost2010PropOp52
 70
     0
102
RTVSPost2010Prop53
 90
        2
102
RTVSPost2010PropOp53
 70
     1
102
RTVSPost2010Prop54
  1
strokes_ogs.tif
102
RTVSPost2010PropOp54
 70
     1
102
RTVSPost2010Prop55
280
     0
102
RTVSPost2010PropOp55
 70
     1
102
RTVSPost2010Prop56
140
1.0
102
RTVSPost2010PropOp56
 70
     1
102
RTVSPost2010Prop57
140
1.0
102
RTVSPost2010PropOp57
 70
     1
  0
ENDSEC
  0
EOF
